  0
SECTION
  2
HEADER
  9
$ACADVER
  1
AC1009
  9
$INSBASE
 10
0.0
 20
0.0
 30
0.0
  9
$EXTMIN
 10
-264.32498389185628
 20
-65.167143290034232
 30
0.0
  9
$EXTMAX
 10
109.9698319601288
 20
65.332856709965753
 30
0.0
  9
$LIMMIN
 10
0.0
 20
0.0
  9
$LIMMAX
 10
17.0
 20
11.0
  9
$ORTHOMODE
 70
     0
  9
$REGENMODE
 70
     1
  9
$FILLMODE
 70
     1
  9
$QTEXTMODE
 70
     0
  9
$MIRRTEXT
 70
     1
  9
$DRAGMODE
 70
     2
  9
$LTSCALE
 40
8.8000000000000043
  9
$OSMODE
 70
    39
  9
$ATTMODE
 70
     1
  9
$TEXTSIZE
 40
0.12
  9
$TRACEWID
 40
0.05
  9
$TEXTSTYLE
  7
ADESK1
  9
$CLAYER
  8
0
  9
$CELTYPE
  6
BYLAYER
  9
$CECOLOR
 62
   256
  9
$DIMSCALE
 40
1.0
  9
$DIMASZ
 40
0.1
  9
$DIMEXO
 40
0.05
  9
$DIMDLI
 40
0.5
  9
$DIMRND
 40
0.0
  9
$DIMDLE
 40
0.0
  9
$DIMEXE
 40
0.1
  9
$DIMTP
 40
0.1
  9
$DIMTM
 40
0.1
  9
$DIMTXT
 40
0.12
  9
$DIMCEN
 40
0.0
  9
$DIMTSZ
 40
0.0
  9
$DIMTOL
 70
     0
  9
$DIMLIM
 70
     0
  9
$DIMTIH
 70
     1
  9
$DIMTOH
 70
     1
  9
$DIMSE1
 70
     0
  9
$DIMSE2
 70
     0
  9
$DIMTAD
 70
     0
  9
$DIMZIN
 70
     7
  9
$DIMBLK
  1

  9
$DIMASO
 70
     1
  9
$DIMSHO
 70
     1
  9
$DIMPOST
  1

  9
$DIMAPOST
  1
mm
  9
$DIMALT
 70
     0
  9
$DIMALTD
 70
     2
  9
$DIMALTF
 40
25.399999999999999
  9
$DIMLFAC
 40
1.0
  9
$DIMTOFL
 70
     0
  9
$DIMTVP
 40
0.0
  9
$DIMTIX
 70
     0
  9
$DIMSOXD
 70
     0
  9
$DIMSAH
 70
     0
  9
$DIMBLK1
  1

  9
$DIMBLK2
  1

  9
$DIMSTYLE
  2
AM_ANSI
  9
$DIMCLRD
 70
   256
  9
$DIMCLRE
 70
   256
  9
$DIMCLRT
 70
     2
  9
$DIMTFAC
 40
0.71
  9
$DIMGAP
 40
0.06
  9
$LUNITS
 70
     2
  9
$LUPREC
 70
     4
  9
$SKETCHINC
 40
0.1
  9
$FILLETRAD
 40
0.125
  9
$AUNITS
 70
     0
  9
$AUPREC
 70
     0
  9
$MENU
  1
.
  9
$ELEVATION
 40
0.0
  9
$PELEVATION
 40
0.0
  9
$THICKNESS
 40
0.0
  9
$LIMCHECK
 70
     0
  9
$BLIPMODE
 70
     0
  9
$CHAMFERA
 40
0.125
  9
$CHAMFERB
 40
0.125
  9
$SKPOLY
 70
     0
  9
$TDCREATE
 40
2453263.6680570021
  9
$TDUPDATE
 40
2453312.4198145359
  9
$TDINDWG
 40
0.0074772801
  9
$TDUSRTIMER
 40
0.0074770949
  9
$USRTIMER
 70
     1
  9
$ANGBASE
 50
0.0
  9
$ANGDIR
 70
     0
  9
$PDMODE
 70
     0
  9
$PDSIZE
 40
0.0
  9
$PLINEWID
 40
0.0
  9
$COORDS
 70
     1
  9
$SPLFRAME
 70
     0
  9
$SPLINETYPE
 70
     6
  9
$SPLINESEGS
 70
     8
  9
$ATTDIA
 70
     0
  9
$ATTREQ
 70
     1
  9
$HANDLING
 70
  4097
  9
$HANDSEED
  5
322
  9
$SURFTAB1
 70
     6
  9
$SURFTAB2
 70
     6
  9
$SURFTYPE
 70
     6
  9
$SURFU
 70
     6
  9
$SURFV
 70
     6
  9
$UCSNAME
  2

  9
$UCSORG
 10
0.0
 20
0.0
 30
0.0
  9
$UCSXDIR
 10
1.0
 20
0.0
 30
0.0
  9
$UCSYDIR
 10
0.0
 20
1.0
 30
0.0
  9
$PUCSNAME
  2

  9
$PUCSORG
 10
0.0
 20
0.0
 30
0.0
  9
$PUCSXDIR
 10
1.0
 20
0.0
 30
0.0
  9
$PUCSYDIR
 10
0.0
 20
1.0
 30
0.0
  9
$USERI1
 70
     0
  9
$USERI2
 70
     0
  9
$USERI3
 70
     0
  9
$USERI4
 70
     0
  9
$USERI5
 70
     0
  9
$USERR1
 40
0.0
  9
$USERR2
 40
0.0
  9
$USERR3
 40
0.0
  9
$USERR4
 40
0.0
  9
$USERR5
 40
0.0
  9
$WORLDVIEW
 70
     1
  9
$SHADEDGE
 70
     3
  9
$SHADEDIF
 70
    70
  9
$TILEMODE
 70
     1
  9
$MAXACTVP
 70
    48
  9
$PLIMCHECK
 70
     0
  9
$PEXTMIN
 10
-299.59387729061439
 20
-71.892143290034241
 30
0.0
  9
$PEXTMAX
 10
121.1706558964478
 20
72.057856709965776
 30
0.0
  9
$PLIMMIN
 10
-0.2500002402958907
 20
-0.2499999962453767
  9
$PLIMMAX
 10
10.74999951940821
 20
8.2499997634587316
  9
$UNITMODE
 70
     0
  9
$VISRETAIN
 70
     1
  9
$PLINEGEN
 70
     0
  9
$PSLTSCALE
 70
     1
  0
ENDSEC
  0
SECTION
  2
TABLES
  0
TABLE
  2
VPORT
 70
     2
  0
VPORT
  2
*ACTIVE
 70
     0
 10
0.0
 20
0.0
 11
1.0
 21
1.0
 12
42.291728745106518
 22
-25.958397005027479
 13
0.0
 23
0.0
 14
0.125
 24
0.125
 15
1.0
 25
1.0
 16
0.0
 26
0.0
 36
1.0
 17
-77.177575965863724
 27
60.648277323424487
 37
0.0
 40
333.14430001883022
 41
1.7686567164179099
 42
50.0
 43
0.0
 44
0.0
 50
0.0
 51
0.0
 71
     0
 72
   100
 73
     1
 74
     1
 75
     0
 76
     0
 77
     0
 78
     0
  0
ENDTAB
  0
TABLE
  2
LTYPE
 70
    18
  0
LTYPE
  2
CONTINUOUS
 70
     0
  3
Solid line
 72
    65
 73
     0
 40
0.0
  0
LTYPE
  2
HIDDEN
 70
     0
  3
__ __ __ __ __ __ __ __ __ __ __ __ __ __ __ __
 72
    65
 73
     2
 40
0.375
 49
0.25
 49
-0.125
  0
LTYPE
  2
PHANTOM2
 70
     0
  3
Phantom (.5x) ___ _ _ ___ _ _ ___ _ _ ___ _ _
 72
    65
 73
     6
 40
1.25
 49
0.625
 49
-0.125
 49
0.125
 49
-0.125
 49
0.125
 49
-0.125
  0
LTYPE
  2
CENTER
 70
     0
  3
Center ____ _ ____ _ ____ _ ____ _ ____ _ ____
 72
    65
 73
     4
 40
2.0
 49
1.25
 49
-0.25
 49
0.25
 49
-0.25
  0
LTYPE
  2
ASULTYPE
 70
     0
  3
Solid line
 72
    65
 73
     2
 40
3.0
 49
2.5
 49
0.5
  0
LTYPE
  2
ASVLTYPE
 70
     0
  3
__ __ __ __ __ __ __ __ __ __ __ __ __ __ __ __ __ __ __ __ __
 72
    65
 73
     2
 40
0.75
 49
0.5
 49
-0.25
  0
LTYPE
  2
AM_ISO02W050
 70
     0
  3
__ __ __ __ __ __ __ __ __ __ __ __ __ __ __
 72
    65
 73
     2
 40
7.5
 49
6.0
 49
-1.5
  0
LTYPE
  2
AM_ISO08W050
 70
     0
  3
____ . ____ . ____ . ____ . ____ . ____ . ____
 72
    65
 73
     4
 40
18.0
 49
12.0
 49
-1.5
 49
3.0
 49
-1.5
  0
LTYPE
  2
AM_ISO09W050
 70
     0
  3
_____ . . _____ . . _____ . . ____ .. ____
 72
    65
 73
     6
 40
22.5
 49
12.0
 49
-1.5
 49
3.0
 49
-1.5
 49
3.0
 49
-1.5
  0
LTYPE
  2
AMCONSTR
 70
     0
  3
_______________________
 72
    65
 73
     2
 40
9999.0
 49
9999.0
 49
0.0
  0
LTYPE
  2
AM_ISO08W050X2
 70
     0
  3
__ . __ . __ . __ . __ . __
 72
    65
 73
     4
 40
9.0
 49
6.0
 49
-0.75
 49
1.5
 49
-0.75
  0
LTYPE
  2
AM_ISO02W050X2
 70
     0
  3
 _ _ _ _ _ _ _ _ _ _ _ _
 72
    65
 73
     2
 40
3.75
 49
3.0
 49
-0.75
  0
LTYPE
  2
AMZIGZAG
 70
     0
  3
/\/-/\/-/\/-/\/-/\/-/\/
 72
    65
 73
     2
 40
11.000099999999991
 49
0.0001
 49
-11.0
  0
LTYPE
  2
CENTER2
 70
     0
  3
Center (.5x) ___ _ ___ _ ___ _ ___ _ ___ _ ___
 72
    65
 73
     4
 40
1.125
 49
0.75
 49
-0.125
 49
0.125
 49
-0.125
  0
LTYPE
  2
HIDDEN2
 70
     0
  3
Hidden (.5x) _ _ _ _ _ _ _ _ _ _ _ _ _ _ _ _ _
 72
    65
 73
     2
 40
0.1875
 49
0.125
 49
-0.0625
  0
LTYPE
  2
AMZIGZAG2
 70
     0
  3
/\/-/\/-/\/-/\/-/\/-/\/
 72
    65
 73
     2
 40
0.4401
 49
0.0001
 49
-0.4400000000000001
  0
LTYPE
  2
ACANSTGB
 70
     0
  3
__ . . __ . .
 72
    65
 73
     6
 40
0.35433070866
 49
0.15748031496
 49
-0.03937007874
 49
0.03937007874
 49
-0.03937007874
 49
0.03937007874
 49
-0.03937007874
  0
LTYPE
  2
ACANSTGL
 70
     0
  3
_ _ _ _ _
 72
    65
 73
     2
 40
0.11811023622
 49
0.07874015748
 49
-0.03937007874
  0
ENDTAB
  0
TABLE
  2
LAYER
 70
     3
  0
LAYER
  2
0
 70
     0
 62
     7
  6
CONTINUOUS
  0
LAYER
  2
AM_VIS
 70
     0
 62
     7
  6
CONTINUOUS
  0
LAYER
  2
AM_HID
 70
     0
 62
     7
  6
HIDDEN
  0
ENDTAB
  0
TABLE
  2
STYLE
 70
     5
  0
STYLE
  2
STANDARD
 70
     0
 40
0.0
 41
1.0
 50
0.0
 71
     0
 42
0.12
  3
ROMANS.SHX
  4

  0
STYLE
  2
ADESK1
 70
     0
 40
0.0
 41
1.0
 50
0.0
 71
     0
 42
0.12
  3
romans.shx
  4

  0
STYLE
  2

 70
     1
 40
0.0
 41
1.0
 50
0.0
 71
     0
 42
0.12
  3
ltypeshp.shx
  4

  0
STYLE
  2
ACANSTS
 70
     0
 40
1.0
 41
1.0
 50
0.0
 71
     0
 42
0.12
  3
romans.shx
  4

  0
STYLE
  2
ACANSGDT
 70
     0
 40
0.0
 41
1.0
 50
0.0
 71
     0
 42
0.12
  3
amgdtans.shx
  4

  0
ENDTAB
  0
TABLE
  2
VIEW
 70
     0
  0
ENDTAB
  0
TABLE
  2
UCS
 70
     0
  0
ENDTAB
  0
TABLE
  2
APPID
 70
    13
  0
APPID
  2
ACAD
 70
     0
  0
APPID
  2
GENIUS_GENDIM_13
 70
     0
  0
APPID
  2
GENIUS_GENDTOL_13
 70
     0
  0
APPID
  2
GENIUS_GE3DTOL_13
 70
     0
  0
APPID
  2
MCAD_NO_VIS
 70
     0
  0
APPID
  2
ACAD_TEMP_GRAPHIC
 70
     0
  0
APPID
  2
AD_DRAW
 70
     0
  0
APPID
  2
ACATTRIBSERVICES
 70
     0
  0
APPID
  2
ASURF_PCURVE_APPNAME
 70
     0
  0
APPID
  2
AMG_3D2D_5_0
 70
     0
  0
APPID
  2
DESIGNERASSEMBLIES
 70
     0
  0
APPID
  2
ACADM_DIM_EDIT
 70
     0
  0
APPID
  2
AMDT_DM_ADJ
 70
     0
  0
ENDTAB
  0
TABLE
  2
DIMSTYLE
 70
    10
  0
DIMSTYLE
  2
AM_ANSI
 70
     0
  3

  4
mm
  5

  6

  7

 40
1.0
 41
0.1
 42
0.05
 43
0.5
 44
0.1
 45
0.0
 46
0.0
 47
0.1
 48
0.1
140
0.12
141
0.0
142
0.0
143
25.399999999999999
144
1.0
145
0.0
146
0.71
147
0.06
 71
     0
 72
     0
 73
     1
 74
     1
 75
     0
 76
     0
 77
     0
 78
     7
170
     0
171
     2
172
     0
173
     0
174
     0
175
     0
176
   256
177
   256
178
     2
  0
DIMSTYLE
  2
AM_BSI
 70
     0
  3

  4
mm
  5

  6

  7

 40
1.0
 41
0.1574803149606299
 42
0.05
 43
0.5
 44
0.1
 45
0.0
 46
0.0
 47
0.1
 48
0.1
140
0.12
141
0.0
142
0.0
143
25.399999999999999
144
1.0
145
0.0
146
0.71
147
0.06
 71
     0
 72
     0
 73
     0
 74
     0
 75
     0
 76
     0
 77
     1
 78
     7
170
     0
171
     2
172
     1
173
     0
174
     0
175
     0
176
   256
177
   256
178
     2
  0
DIMSTYLE
  2
AM_DIN
 70
     0
  3

  4
mm
  5

  6

  7

 40
1.0
 41
0.1
 42
0.05
 43
0.5
 44
0.1
 45
0.0
 46
0.0
 47
0.1
 48
0.1
140
0.12
141
0.0
142
0.0
143
25.399999999999999
144
1.0
145
0.0
146
0.71
147
0.06
 71
     0
 72
     0
 73
     0
 74
     0
 75
     0
 76
     0
 77
     1
 78
     7
170
     0
171
     2
172
     1
173
     0
174
     0
175
     0
176
   256
177
   256
178
     2
  0
DIMSTYLE
  2
AM_ISO
 70
     0
  3

  4
mm
  5

  6

  7

 40
1.0
 41
0.1
 42
0.05
 43
0.5
 44
0.1
 45
0.0
 46
0.0
 47
0.1
 48
0.1
140
0.12
141
0.0
142
0.0
143
25.399999999999999
144
1.0
145
0.0
146
0.71
147
0.06
 71
     0
 72
     0
 73
     0
 74
     0
 75
     0
 76
     0
 77
     1
 78
     7
170
     0
171
     2
172
     1
173
     0
174
     0
175
     0
176
   256
177
   256
178
     2
  0
DIMSTYLE
  2
AM_JIS
 70
     0
  3

  4
mm
  5

  6

  7

 40
1.0
 41
0.1
 42
0.05
 43
0.5
 44
0.1
 45
0.0
 46
0.0
 47
0.1
 48
0.1
140
0.12
141
0.0
142
0.0
143
25.399999999999999
144
1.0
145
0.0
146
0.71
147
0.06
 71
     0
 72
     0
 73
     0
 74
     0
 75
     0
 76
     0
 77
     3
 78
     7
170
     0
171
     2
172
     1
173
     0
174
     0
175
     0
176
   256
177
   256
178
     2
  0
DIMSTYLE
  2
AM_ANSI$3
 70
     0
  3

  4
mm
  5

  6

  7

 40
1.0
 41
0.1
 42
0.05
 43
0.5
 44
0.1
 45
0.0
 46
0.0
 47
0.1
 48
0.1
140
0.12
141
0.0
142
0.0
143
25.399999999999999
144
1.0
145
0.0
146
0.71
147
0.06
 71
     0
 72
     0
 73
     1
 74
     1
 75
     0
 76
     0
 77
     0
 78
     7
170
     0
171
     2
172
     0
173
     0
174
     0
175
     0
176
   256
177
   256
178
     2
  0
DIMSTYLE
  2
AM_ANSI$4
 70
     0
  3

  4
mm
  5

  6

  7

 40
1.0
 41
0.1
 42
0.05
 43
0.5
 44
0.1
 45
0.0
 46
0.0
 47
0.1
 48
0.1
140
0.12
141
0.0
142
0.0
143
25.399999999999999
144
1.0
145
0.0
146
0.71
147
0.06
 71
     0
 72
     0
 73
     1
 74
     1
 75
     0
 76
     0
 77
     0
 78
     7
170
     0
171
     2
172
     0
173
     0
174
     0
175
     0
176
   256
177
   256
178
     2
  0
DIMSTYLE
  2
AM_ANSI$7
 70
     0
  3

  4
mm
  5

  6

  7

 40
1.0
 41
0.1
 42
0.05
 43
0.5
 44
0.1
 45
0.0
 46
0.0
 47
0.1
 48
0.1
140
0.24
141
0.0
142
0.0
143
25.399999999999999
144
1.0
145
0.0
146
0.71
147
0.06
 71
     0
 72
     0
 73
     1
 74
     1
 75
     0
 76
     0
 77
     0
 78
     7
170
     0
171
     2
172
     0
173
     0
174
     0
175
     0
176
   256
177
   256
178
     2
  0
DIMSTYLE
  2
AM_ANSI$SF
 70
     0
  3

  4
mm
  5

  6

  7

 40
1.0
 41
0.1
 42
0.05
 43
0.5
 44
0.1
 45
0.0
 46
0.0
 47
0.1
 48
0.1
140
0.12
141
0.0
142
0.0
143
25.399999999999999
144
1.0
145
0.0
146
0.71
147
0.06
 71
     0
 72
     0
 73
     1
 74
     1
 75
     1
 76
     1
 77
     0
 78
     7
170
     0
171
     2
172
     0
173
     0
174
     0
175
     0
176
   256
177
   256
178
     2
  0
DIMSTYLE
  2
AM_ANSI$SH
 70
     0
  3

  4
mm
  5

  6
GENAXEH
  7

 40
1.0
 41
0.1
 42
0.05
 43
0.5
 44
0.1
 45
0.0
 46
0.0
 47
0.1
 48
0.1
140
0.12
141
0.0
142
0.0
143
25.399999999999999
144
1.0
145
0.0
146
0.71
147
0.06
 71
     0
 72
     0
 73
     1
 74
     1
 75
     1
 76
     1
 77
     0
 78
     7
170
     0
171
     2
172
     0
173
     1
174
     0
175
     0
176
   256
177
   256
178
     2
  0
ENDTAB
  0
ENDSEC
  0
SECTION
  2
BLOCKS
  0
BLOCK
  8
0
  2
$MODEL_SPACE
 70
     0
 10
0.0
 20
0.0
 30
0.0
  3
$MODEL_SPACE
  1

  0
ENDBLK
  5
A
  8
0
  0
BLOCK
 67
     1
  8
0
  2
$PAPER_SPACE
 70
     0
 10
0.0
 20
0.0
 30
0.0
  3
$PAPER_SPACE
  1

  0
ENDBLK
  5
F
 67
     1
  8
0
  0
BLOCK
  8
0
  2
*U0
 70
     1
 10
0.0
 20
0.0
 30
0.0
  3
*U0
  1

  0
ENDBLK
  5
29C
  8
0
  0
BLOCK
  8
0
  2
GENAXEH
 70
     0
 10
0.0
 20
0.0
 30
0.0
  3
GENAXEH
  1

  0
LINE
  5
2D8
  8
0
 10
-1.0
 20
0.0
 30
0.0
 11
1.0
 21
0.0
 31
0.0
  0
ENDBLK
  5
2DA
  8
0
  0
ENDSEC
  0
SECTION
  2
ENTITIES
  0
LINE
  5
3B
  8
AM_VIS
 10
-99.299593327871136
 20
-57.90743092003423
 30
0.0
 11
-101.1386526178711
 21
-57.90743092003423
 31
0.0
  0
LINE
  5
3C
  8
AM_VIS
 10
-99.299593327871136
 20
-57.90743092003423
 30
0.0
 11
-99.299593327871136
 21
-57.551833082034243
 31
0.0
  0
LINE
  5
3D
  8
AM_VIS
 10
-99.299593327871136
 20
-57.551833082034243
 30
0.0
 11
-101.1386526178711
 21
-57.551833082034243
 31
0.0
  0
LINE
  5
3E
  8
AM_VIS
 10
-101.1386526178711
 20
-57.90743092003423
 30
0.0
 11
-101.1386526178711
 21
-57.551833082034243
 31
0.0
  0
LINE
  5
3F
  8
AM_VIS
 10
-98.219122972871133
 20
-56.526070087034228
 30
0.0
 11
-102.21912297287111
 21
-56.526070087034228
 31
0.0
  0
LINE
  5
40
  8
AM_VIS
 10
-98.219122972871133
 20
-56.526070087034228
 30
0.0
 11
-98.219122972871133
 21
-56.22607008703423
 31
0.0
  0
LINE
  5
41
  8
AM_VIS
 10
-98.219122972871133
 20
-56.22607008703423
 30
0.0
 11
-100.0992127818711
 21
-56.22607008703423
 31
0.0
  0
LINE
  5
42
  8
AM_VIS
 10
-100.0992127818711
 20
-55.513983931034232
 30
0.0
 11
-100.0992127818711
 21
-56.22607008703423
 31
0.0
  0
LINE
  5
43
  8
AM_VIS
 10
-100.0992127818711
 20
-55.513983931034232
 30
0.0
 11
-100.4548106208711
 21
-55.513983931034232
 31
0.0
  0
LINE
  5
44
  8
AM_VIS
 10
-100.4548106208711
 20
-55.513983931034232
 30
0.0
 11
-100.4548106208711
 21
-56.22607008703423
 31
0.0
  0
LINE
  5
45
  8
AM_VIS
 10
-100.4548106208711
 20
-56.22607008703423
 30
0.0
 11
-102.21912297287111
 21
-56.22607008703423
 31
0.0
  0
LINE
  5
46
  8
AM_VIS
 10
-102.21912297287111
 20
-56.526070087034228
 30
0.0
 11
-102.21912297287111
 21
-56.22607008703423
 31
0.0
  0
LINE
  5
47
  8
AM_VIS
 10
-98.574720810871156
 20
-57.223588923034221
 30
0.0
 11
-101.8635251348711
 21
-57.223588923034221
 31
0.0
  0
LINE
  5
48
  8
AM_VIS
 10
-98.574720810871156
 20
-56.840637405034229
 30
0.0
 11
-98.574720810871156
 21
-57.223588923034221
 31
0.0
  0
LINE
  5
49
  8
AM_VIS
 10
-98.574720810871156
 20
-56.840637405034229
 30
0.0
 11
-101.8635251348711
 21
-56.840637405034229
 31
0.0
  0
LINE
  5
4A
  8
AM_VIS
 10
-101.8635251348711
 20
-56.840637405034229
 30
0.0
 11
-101.8635251348711
 21
-57.223588923034221
 31
0.0
  0
LINE
  5
4D
  8
AM_VIS
 10
9.9698319601288752
 20
-62.167143290034218
 30
0.0
 11
9.9698319601288752
 21
-65.167143290034232
 31
0.0
  0
LINE
  5
4F
  8
AM_VIS
 10
-10.030168039871119
 20
-65.167143290034232
 30
0.0
 11
-10.030168039871119
 21
-62.167143290034232
 31
0.0
  0
LINE
  5
51
  8
AM_VIS
 10
9.9698319601288752
 20
-65.167143290034232
 30
0.0
 11
-10.030168039871119
 21
-65.167143290034232
 31
0.0
  0
LINE
  5
53
  8
AM_VIS
 10
9.9698319601288752
 20
65.332856709965753
 30
0.0
 11
9.9698319601288752
 21
61.832856709965768
 31
0.0
  0
LINE
  5
55
  8
AM_VIS
 10
-10.030168039871119
 20
65.332856709965753
 30
0.0
 11
9.9698319601288752
 21
65.332856709965753
 31
0.0
  0
LINE
  5
57
  8
AM_VIS
 10
-10.030168039871119
 20
61.832856709965768
 30
0.0
 11
-10.030168039871119
 21
65.332856709965753
 31
0.0
  0
LINE
  5
5A
  8
AM_VIS
 10
91.379170158128858
 20
-56.953803625034219
 30
0.0
 11
92.725324004128879
 21
-56.953803625034219
 31
0.0
  0
LINE
  5
5B
  8
AM_VIS
 10
91.379170158128858
 20
-56.594829266034232
 30
0.0
 11
91.379170158128858
 21
-56.953803625034219
 31
0.0
  0
LINE
  5
5C
  8
AM_VIS
 10
92.725324004128879
 20
-56.594829266034232
 30
0.0
 11
91.379170158128858
 21
-56.594829266034232
 31
0.0
  0
LINE
  5
5D
  8
AM_VIS
 10
92.725324004128879
 20
-56.953803625034219
 30
0.0
 11
92.725324004128879
 21
-56.594829266034232
 31
0.0
  0
LINE
  5
5E
  8
AM_VIS
 10
83.167631697128868
 20
-56.235854907034231
 30
0.0
 11
83.167631697128868
 21
-56.54995747103424
 31
0.0
  0
LINE
  5
5F
  8
AM_VIS
 10
84.19968297912888
 20
-56.235854907034231
 30
0.0
 11
83.167631697128868
 21
-56.235854907034231
 31
0.0
  0
LINE
  5
60
  8
AM_VIS
 10
84.19968297912888
 20
-55.203803625034233
 30
0.0
 11
84.19968297912888
 21
-56.235854907034231
 31
0.0
  0
LINE
  5
61
  8
AM_VIS
 10
84.513785543128876
 20
-55.203803625034233
 30
0.0
 11
84.19968297912888
 21
-55.203803625034233
 31
0.0
  0
LINE
  5
62
  8
AM_VIS
 10
84.513785543128876
 20
-56.235854907034231
 30
0.0
 11
84.513785543128876
 21
-55.203803625034233
 31
0.0
  0
LINE
  5
63
  8
AM_VIS
 10
85.545836825128873
 20
-56.235854907034231
 30
0.0
 11
84.513785543128876
 21
-56.235854907034231
 31
0.0
  0
LINE
  5
64
  8
AM_VIS
 10
85.545836825128873
 20
-56.54995747103424
 30
0.0
 11
85.545836825128873
 21
-56.235854907034231
 31
0.0
  0
LINE
  5
65
  8
AM_VIS
 10
84.513785543128876
 20
-56.54995747103424
 30
0.0
 11
85.545836825128873
 21
-56.54995747103424
 31
0.0
  0
LINE
  5
66
  8
AM_VIS
 10
84.513785543128876
 20
-57.582008753034231
 30
0.0
 11
84.513785543128876
 21
-56.54995747103424
 31
0.0
  0
LINE
  5
67
  8
AM_VIS
 10
84.19968297912888
 20
-57.582008753034231
 30
0.0
 11
84.513785543128876
 21
-57.582008753034231
 31
0.0
  0
LINE
  5
68
  8
AM_VIS
 10
84.19968297912888
 20
-56.54995747103424
 30
0.0
 11
84.19968297912888
 21
-57.582008753034231
 31
0.0
  0
LINE
  5
69
  8
AM_VIS
 10
83.167631697128868
 20
-56.54995747103424
 30
0.0
 11
84.19968297912888
 21
-56.54995747103424
 31
0.0
  0
LINE
  5
6A
  8
AM_VIS
 10
98.379170158128872
 20
-56.953803625034219
 30
0.0
 11
99.725324004128865
 21
-56.953803625034219
 31
0.0
  0
LINE
  5
6B
  8
AM_VIS
 10
98.379170158128872
 20
-56.594829266034232
 30
0.0
 11
98.379170158128872
 21
-56.953803625034219
 31
0.0
  0
LINE
  5
6C
  8
AM_VIS
 10
99.725324004128865
 20
-56.594829266034232
 30
0.0
 11
98.379170158128872
 21
-56.594829266034232
 31
0.0
  0
LINE
  5
6D
  8
AM_VIS
 10
99.725324004128865
 20
-56.953803625034219
 30
0.0
 11
99.725324004128865
 21
-56.594829266034232
 31
0.0
  0
LINE
  5
6E
  8
AM_VIS
 10
71.398793709128881
 20
-61.667143290034232
 30
0.0
 11
103.45890299812881
 21
-61.667143290034232
 31
0.0
  0
LINE
  5
6F
  8
AM_VIS
 10
103.45890299812881
 20
-61.667143290034232
 30
0.0
 11
103.45890299812881
 21
-51.595535774034232
 31
0.0
  0
LINE
  5
70
  8
AM_VIS
 10
103.45890299812881
 20
-51.595535774034232
 30
0.0
 11
71.398793709128881
 21
-51.595535774034232
 31
0.0
  0
LINE
  5
71
  8
AM_VIS
 10
71.398793709128881
 20
-51.595535774034232
 30
0.0
 11
71.398793709128881
 21
-61.667143290034232
 31
0.0
  0
LINE
  5
73
  8
AM_VIS
 10
-84.263809625871133
 20
-58.60720474203422
 30
0.0
 11
-82.603553215871116
 21
-58.60720474203422
 31
0.0
  0
LINE
  5
74
  8
AM_VIS
 10
-82.603553215871116
 20
-58.60720474203422
 30
0.0
 11
-82.603553215871116
 21
-58.248230383034219
 31
0.0
  0
LINE
  5
75
  8
AM_VIS
 10
-82.603553215871116
 20
-58.248230383034219
 30
0.0
 11
-83.949707061871138
 21
-58.248230383034219
 31
0.0
  0
LINE
  5
76
  8
AM_VIS
 10
-83.949707061871138
 20
-58.248230383034219
 30
0.0
 11
-83.949707061871138
 21
-55.107204742034227
 31
0.0
  0
LINE
  5
77
  8
AM_VIS
 10
-83.949707061871138
 20
-55.107204742034227
 30
0.0
 11
-84.263809625871133
 21
-55.107204742034227
 31
0.0
  0
LINE
  5
78
  8
AM_VIS
 10
-84.263809625871133
 20
-55.107204742034227
 30
0.0
 11
-84.263809625871133
 21
-58.60720474203422
 31
0.0
  0
LINE
  5
79
  8
AM_VIS
 10
-91.577912189871114
 20
-58.60720474203422
 30
0.0
 11
-91.577912189871114
 21
-55.858807306034237
 31
0.0
  0
LINE
  5
7A
  8
AM_VIS
 10
-91.577912189871114
 20
-55.858807306034237
 30
0.0
 11
-89.271221484871134
 21
-58.60720474203422
 31
0.0
  0
LINE
  5
7B
  8
AM_VIS
 10
-89.271221484871134
 20
-58.60720474203422
 30
0.0
 11
-89.199707061871123
 21
-58.60720474203422
 31
0.0
  0
LINE
  5
7C
  8
AM_VIS
 10
-89.199707061871123
 20
-58.60720474203422
 30
0.0
 11
-89.199707061871123
 21
-55.107204742034227
 31
0.0
  0
LINE
  5
7D
  8
AM_VIS
 10
-89.199707061871123
 20
-55.107204742034227
 30
0.0
 11
-89.513809625871147
 21
-55.107204742034227
 31
0.0
  0
LINE
  5
7E
  8
AM_VIS
 10
-89.513809625871147
 20
-55.107204742034227
 30
0.0
 11
-89.513809625871147
 21
-57.861912274034239
 31
0.0
  0
LINE
  5
7F
  8
AM_VIS
 10
-89.513809625871147
 20
-57.861912274034239
 30
0.0
 11
-91.826109305871128
 21
-55.107204742034227
 31
0.0
  0
LINE
  5
80
  8
AM_VIS
 10
-91.826109305871128
 20
-55.107204742034227
 30
0.0
 11
-91.892014753871123
 21
-55.107204742034227
 31
0.0
  0
LINE
  5
81
  8
AM_VIS
 10
-91.892014753871123
 20
-55.107204742034227
 30
0.0
 11
-91.892014753871123
 21
-58.60720474203422
 31
0.0
  0
LINE
  5
82
  8
AM_VIS
 10
-91.892014753871123
 20
-58.60720474203422
 30
0.0
 11
-91.577912189871114
 21
-58.60720474203422
 31
0.0
  0
LINE
  5
83
  8
AM_VIS
 10
-105.5301680398711
 20
-61.667143290034232
 30
0.0
 11
-79.530168039871128
 21
-61.667143290034232
 31
0.0
  0
LINE
  5
84
  8
AM_VIS
 10
-79.530168039871128
 20
-61.667143290034232
 30
0.0
 11
-79.530168039871128
 21
-51.095535774034232
 31
0.0
  0
LINE
  5
85
  8
AM_VIS
 10
-79.530168039871128
 20
-51.095535774034232
 30
0.0
 11
-105.5301680398711
 21
-51.095535774034232
 31
0.0
  0
LINE
  5
86
  8
AM_VIS
 10
-105.5301680398711
 20
-51.095535774034232
 30
0.0
 11
-105.5301680398711
 21
-61.667143290034232
 31
0.0
  0
LINE
  5
87
  8
AM_VIS
 10
103.95890308012881
 20
-62.167143290034232
 30
0.0
 11
109.9698319601288
 21
-62.167143290034232
 31
0.0
  0
LINE
  5
88
  8
AM_VIS
 10
70.898793800128871
 20
-62.167143290034232
 30
0.0
 11
103.95890308012881
 21
-62.167143290034232
 31
0.0
  0
LINE
  5
89
  8
AM_VIS
 10
-79.030168019871113
 20
-62.167143290034232
 30
0.0
 11
70.898793800128871
 21
-62.167143290034232
 31
0.0
  0
LINE
  5
8A
  8
AM_VIS
 10
-106.0301680798711
 20
-62.167143290034232
 30
0.0
 11
-79.030168019871113
 21
-62.167143290034232
 31
0.0
  0
LINE
  5
8B
  8
AM_VIS
 10
-110.0301680398711
 20
-62.167143290034232
 30
0.0
 11
-106.0301680798711
 21
-62.167143290034232
 31
0.0
  0
LINE
  5
8C
  8
AM_VIS
 10
109.9698319601288
 20
61.832856709965768
 30
0.0
 11
-110.0301680398711
 21
61.832856709965768
 31
0.0
  0
LINE
  5
B5
  8
AM_VIS
 10
-110.0301680398712
 20
-61.795535750034233
 30
0.0
 11
-110.0301680398712
 21
-62.16714329003436
 31
0.0
  0
LINE
  5
B6
  8
AM_VIS
 10
-110.0301680398711
 20
61.832856709965768
 30
0.0
 11
-110.0301680398711
 21
61.461249169965761
 31
0.0
  0
LINE
  5
B7
  8
AM_VIS
 10
109.9698319601288
 20
61.832856709965768
 30
0.0
 11
109.9698319601288
 21
61.461249169965761
 31
0.0
  0
LINE
  5
B8
  8
AM_VIS
 10
109.9698319601288
 20
-61.795535750034233
 30
0.0
 11
109.9698319601288
 21
-62.167143290034332
 31
0.0
  0
LINE
  5
BD
  8
AM_VIS
 10
103.95890299812881
 20
-61.79553577786595
 30
0.0
 11
103.95890299812881
 21
-62.167143290034232
 31
0.0
  0
LINE
  5
BE
  8
AM_VIS
 10
103.95890299812881
 20
-51.095535774034232
 30
0.0
 11
70.898793709128881
 21
-51.095535774034232
 31
0.0
  0
LINE
  5
C9
  8
AM_VIS
 10
-106.0301680398711
 20
-61.795535775884609
 30
0.0
 11
-106.0301680398711
 21
-62.167143290034232
 31
0.0
  0
LINE
  5
CA
  8
AM_VIS
 10
-79.030168039871128
 20
-50.595535774034232
 30
0.0
 11
-106.0301680398711
 21
-50.595535774034232
 31
0.0
  0
ARC
  5
F9
  8
AM_VIS
 10
-100.2496580218711
 20
-56.594324711262701
 30
0.0
 40
2.1999740185349861
 50
180.00337463812281
 51
359.99662536187708
  0
ARC
  5
FA
  8
AM_VIS
 10
-100.2496580218711
 20
-56.594583861805759
 30
0.0
 40
2.1999740185349861
 50
0.0033746381228359
 51
179.99662536187711
  0
ARC
  5
FB
  8
AM_VIS
 10
-100.2496580218711
 20
-56.594454286034193
 30
0.0
 40
2.4183654310000118
 50
359.99999999999892
 51
180.0000000235045
  0
ARC
  5
FC
  8
AM_VIS
 10
-100.2496580218711
 20
-56.594454286034193
 30
0.0
 40
2.4183654310000118
 50
180.0000000235045
 51
359.99999999999892
  0
LINE
  5
FD
  8
AM_VIS
 10
-110.0301680398711
 20
-61.795535750034141
 30
0.0
 11
-110.0301680398711
 21
61.461249169965733
 31
0.0
  0
LINE
  5
FE
  8
AM_VIS
 10
109.9698319601288
 20
-61.795535750034141
 30
0.0
 11
109.9698319601288
 21
61.461249169965733
 31
0.0
  0
LINE
  5
FF
  8
AM_VIS
 10
70.898793709128853
 20
-62.167143290034261
 30
0.0
 11
70.898793709128853
 21
-61.795535774498148
 31
0.0
  0
LINE
  5
100
  8
AM_VIS
 10
-79.030168039871114
 20
-61.795535774498163
 30
0.0
 11
-79.030168039871143
 21
-62.167143290034232
 31
0.0
  0
LINE
  5
102
  8
AM_VIS
 10
103.95890299812881
 20
-51.095535774034261
 30
0.0
 11
103.95890299812881
 21
-61.7955357778661
 31
0.0
  0
LINE
  5
103
  8
AM_VIS
 10
70.898793709128853
 20
-61.795535773914551
 30
0.0
 11
70.898793709128853
 21
-51.095535774034133
 31
0.0
  0
LINE
  5
104
  8
AM_VIS
 10
-106.0301680398711
 20
-50.595535774034332
 30
0.0
 11
-106.0301680398711
 21
-61.79553577588473
 31
0.0
  0
LINE
  5
105
  8
AM_VIS
 10
-79.030168039871128
 20
-61.795535772728662
 30
0.0
 11
-79.030168039871128
 21
-50.595535774034211
 31
0.0
  0
LINE
  5
132
  8
AM_HID
 10
-259.32498389185622
 20
-17.018387997034232
 30
0.0
 11
-259.32498389185622
 21
-16.99172436145594
 31
0.0
  0
LINE
  5
133
  8
AM_VIS
 10
-259.32498389185622
 20
-16.99172436145594
 30
0.0
 11
-259.32498389185622
 21
18.602856709965771
 31
0.0
  0
LINE
  5
134
  8
AM_HID
 10
-259.32498389185622
 20
18.602856709965771
 30
0.0
 11
-259.32498389185622
 21
21.832856721149209
 31
0.0
  0
LINE
  5
135
  8
AM_VIS
 10
-259.32498389185622
 20
21.832856721149209
 30
0.0
 11
-259.32498389185622
 21
65.332856709965753
 31
0.0
  0
LINE
  5
136
  8
AM_VIS
 10
-254.9249838918563
 20
-65.167143290034232
 30
0.0
 11
-254.9249838918563
 21
-61.667143290034232
 31
0.0
  0
LINE
  5
137
  8
AM_VIS
 10
-264.32498389185628
 20
-65.167143290034232
 30
0.0
 11
-254.92498389185619
 21
-65.167143290034232
 31
0.0
  0
LINE
  5
138
  8
AM_HID
 10
-259.32498389185622
 20
-17.018387997034232
 30
0.0
 11
-259.644947518501
 21
-17.018387997034232
 31
0.0
  0
LINE
  5
139
  8
AM_VIS
 10
-259.644947518501
 20
-17.018387997034232
 30
0.0
 11
-261.82498389185622
 21
-17.018387997034232
 31
0.0
  0
LINE
  5
13A
  8
AM_VIS
 10
-261.82498389185622
 20
-15.16981490003422
 30
0.0
 11
-261.82498389185622
 21
-17.018387997034232
 31
0.0
  0
LINE
  5
13B
  8
AM_VIS
 10
-264.32498389185628
 20
-17.018387997034232
 30
0.0
 11
-261.82498389185622
 21
-15.16981490003422
 31
0.0
  0
LINE
  5
13C
  8
AM_VIS
 10
-264.32498389185628
 20
-65.167143290034232
 30
0.0
 11
-264.32498389185628
 21
-17.018387997034232
 31
0.0
  0
LINE
  5
13D
  8
AM_VIS
 10
-254.9249838918563
 20
61.332856709965768
 30
0.0
 11
-254.9249838918563
 21
65.332856709965753
 31
0.0
  0
LINE
  5
13E
  8
AM_VIS
 10
-254.9249838918563
 20
65.332856709965753
 30
0.0
 11
-259.32498389185622
 21
65.332856709965753
 31
0.0
  0
LINE
  5
13F
  8
AM_VIS
 10
-263.82254665785621
 20
19.062714209965769
 30
0.0
 11
-263.17735255576929
 21
21.64349061631334
 31
0.0
  0
LINE
  5
14D
  8
AM_VIS
 10
-159.55498389185621
 20
-51.095535774034232
 30
0.0
 11
-159.55498389185621
 21
-61.667143290034232
 31
0.0
  0
LINE
  5
14E
  8
AM_VIS
 10
-254.4249838918563
 20
-62.167143290034232
 30
0.0
 11
-165.22498389185631
 21
-62.167143290034232
 31
0.0
  0
LINE
  5
14F
  8
AM_VIS
 10
-165.2249838918562
 20
61.832856709965768
 30
0.0
 11
-254.4249838918563
 21
61.832856709965768
 31
0.0
  0
LINE
  5
150
  8
AM_VIS
 10
-253.8775153738562
 20
-20.16714332529423
 30
0.0
 11
-253.8775153738562
 21
-53.797143290034228
 31
0.0
  0
LINE
  5
152
  8
AM_VIS
 10
-253.8775153738562
 20
53.462856709965763
 30
0.0
 11
-253.8775153738562
 21
21.83285673802575
 31
0.0
  0
LINE
  5
153
  8
AM_VIS
 10
-259.03001103285618
 20
-16.73711007003423
 30
0.0
 11
-259.03001103285618
 21
18.602856709965771
 31
0.0
  0
LINE
  5
154
  8
AM_VIS
 10
-254.9249838918563
 20
-53.797143290034228
 30
0.0
 11
-254.9249838918563
 21
-20.1671433214876
 31
0.0
  0
LINE
  5
156
  8
AM_VIS
 10
-254.9249838918563
 20
21.832856734780648
 30
0.0
 11
-254.9249838918563
 21
53.462856709965763
 31
0.0
  0
LINE
  5
157
  8
AM_VIS
 10
-253.8775153738562
 20
-53.797143290034228
 30
0.0
 11
-254.9249838918563
 21
-53.797143290034228
 31
0.0
  0
LINE
  5
158
  8
AM_VIS
 10
-254.9249838918563
 20
-53.797143290034228
 30
0.0
 11
-254.9249838918563
 21
-61.667143290124038
 31
0.0
  0
LINE
  5
159
  8
AM_VIS
 10
-263.60077240285631
 20
-17.34804007103423
 30
0.0
 11
-259.25924966285618
 21
-16.986246509034221
 31
0.0
  0
LINE
  5
15A
  8
AM_VIS
 10
-253.8775153738562
 20
-20.167143290034229
 30
0.0
 11
-263.58001103285631
 21
-20.167143290034229
 31
0.0
  0
LINE
  5
15B
  8
AM_VIS
 10
-263.83001103285631
 20
-19.917143290034218
 30
0.0
 11
-263.83001103285631
 21
-17.59717651013678
 31
0.0
  0
LINE
  5
15C
  8
AM_VIS
 10
-254.9249838918563
 20
53.462856709965777
 30
0.0
 11
-253.8775153738562
 21
53.462856709965777
 31
0.0
  0
LINE
  5
15D
  8
AM_VIS
 10
-262.93481693090752
 20
21.832856709965771
 30
0.0
 11
-253.8775153738562
 21
21.832856709965771
 31
0.0
  0
LINE
  5
15E
  8
AM_VIS
 10
-260.4976267318562
 20
17.530733297965771
 30
0.0
 11
-262.4559347349869
 21
15.44187142782633
 31
0.0
  0
LINE
  5
15F
  8
AM_VIS
 10
-263.83001103285631
 20
15.61285670996577
 30
0.0
 11
-263.83001103285631
 21
19.00208030386322
 31
0.0
  0
LINE
  5
160
  8
AM_VIS
 10
-262.63831903595241
 20
15.36285670996577
 30
0.0
 11
-263.58001103295243
 21
15.36285670996577
 31
0.0
  0
LINE
  5
161
  8
AM_VIS
 10
-260.43001103285621
 20
18.352856709965771
 30
0.0
 11
-260.43001103285621
 21
17.70171857992089
 31
0.0
  0
LINE
  5
162
  8
AM_VIS
 10
-259.03001103285618
 20
18.602856709965771
 30
0.0
 11
-260.18001103290749
 21
18.602856709965771
 31
0.0
  0
LINE
  5
163
  8
AM_VIS
 10
-254.9249838918563
 20
61.332856709965768
 30
0.0
 11
-254.9249838918563
 21
53.46285670996577
 31
0.0
  0
LINE
  5
184
  8
AM_VIS
 10
-164.70767493799281
 20
-61.667143290034232
 30
0.0
 11
-159.55498389185621
 21
-61.667143290034232
 31
0.0
  0
LINE
  5
186
  8
AM_VIS
 10
-162.16098492711609
 20
-51.095535774034232
 30
0.0
 11
-159.55498389185621
 21
-51.095535774034232
 31
0.0
  0
ARC
  5
197
  8
AM_VIS
 10
-165.22498387325021
 20
61.332856706825652
 30
0.0
 40
0.5000000031401229
 50
14.87937631545419
 51
90.0
  0
ARC
  5
1D4
  8
AM_VIS
 10
-262.93481693085619
 20
21.582856709965739
 30
0.0
 40
0.2500000000000213
 50
90.000000011755731
 51
165.96375650554469
  0
ARC
  5
1D5
  8
AM_VIS
 10
-263.58001103285591
 20
19.00208030396573
 30
0.0
 40
0.2500000000003322
 50
165.96375658766939
 51
180.0000000234952
  0
ARC
  5
1D6
  8
AM_VIS
 10
-262.63831903585623
 20
15.612856709965801
 30
0.0
 40
0.2500000000000284
 50
269.9999999779622
 51
316.84761025353782
  0
ARC
  5
1D7
  8
AM_HID
 10
-262.63834028931132
 20
15.61290574471141
 30
0.0
 40
0.2500490336487044
 50
270.0048694932745
 51
316.84274536792771
  0
ARC
  5
1D8
  8
AM_VIS
 10
-254.42498389185619
 20
-61.667143290034247
 30
0.0
 40
0.5000000000000124
 50
180.00000001029011
 51
269.99999999999432
  0
ARC
  5
1D9
  8
AM_VIS
 10
-263.58001103285631
 20
-17.59717651003421
 30
0.0
 40
0.2499999999999741
 50
94.763641709757948
 51
180.00000002350819
  0
ARC
  5
1DA
  8
AM_VIS
 10
-263.58001103285631
 20
-19.917143290034211
 30
0.0
 40
0.2500000000000107
 50
180.00000000000321
 51
270.00000000000318
  0
ARC
  5
1DB
  8
AM_VIS
 10
-259.28001103285629
 20
-16.737110070034209
 30
0.0
 40
0.2499999999999912
 50
274.76364170975751
 51
359.9999999999967
  0
ARC
  5
1DC
  8
AM_VIS
 10
-254.4249838918563
 20
61.332856709965768
 30
0.0
 40
0.4999999999999999
 50
90.0
 51
180.0
  0
ARC
  5
1DD
  8
AM_VIS
 10
-263.58001103285631
 20
15.612856709965779
 30
0.0
 40
0.2500000000000107
 50
180.00000000000159
 51
269.99999997795572
  0
ARC
  5
1DE
  8
AM_VIS
 10
-260.68001103285633
 20
17.701718579965789
 30
0.0
 40
0.2500000000000325
 50
316.84761029734432
 51
359.99999998970821
  0
ARC
  5
1DF
  8
AM_VIS
 10
-260.18001103285621
 20
18.352856709965771
 30
0.0
 40
0.25
 50
90.000000011750856
 51
179.99999999999909
  0
ARC
  5
1E0
  8
AM_VIS
 10
-396.69570954579081
 20
-0.1671432900342431
 30
0.0
 40
240.0014547857489
 50
345.12071357114468
 51
14.87928642885529
  0
LINE
  5
2E6
  8
AM_VIS
 10
74.946224709174956
 20
-56.54995747103424
 30
0.0
 11
75.978275991174968
 21
-56.54995747103424
 31
0.0
  0
LINE
  5
2E7
  8
AM_VIS
 10
75.978275991174968
 20
-56.54995747103424
 30
0.0
 11
75.978275991174968
 21
-57.582008753034231
 31
0.0
  0
LINE
  5
2E8
  8
AM_VIS
 10
75.978275991174968
 20
-57.582008753034231
 30
0.0
 11
76.292378555174963
 21
-57.582008753034231
 31
0.0
  0
LINE
  5
2E9
  8
AM_VIS
 10
76.292378555174963
 20
-57.582008753034231
 30
0.0
 11
76.292378555174963
 21
-56.54995747103424
 31
0.0
  0
LINE
  5
2EA
  8
AM_VIS
 10
76.292378555174963
 20
-56.54995747103424
 30
0.0
 11
77.324429837174961
 21
-56.54995747103424
 31
0.0
  0
LINE
  5
2EB
  8
AM_VIS
 10
77.324429837174961
 20
-56.54995747103424
 30
0.0
 11
77.324429837174961
 21
-56.235854907034231
 31
0.0
  0
LINE
  5
2EC
  8
AM_VIS
 10
77.324429837174961
 20
-56.235854907034231
 30
0.0
 11
76.292378555174963
 21
-56.235854907034231
 31
0.0
  0
LINE
  5
2ED
  8
AM_VIS
 10
76.292378555174963
 20
-56.235854907034231
 30
0.0
 11
76.292378555174963
 21
-55.203803625034233
 31
0.0
  0
LINE
  5
2EE
  8
AM_VIS
 10
76.292378555174963
 20
-55.203803625034233
 30
0.0
 11
75.978275991174968
 21
-55.203803625034233
 31
0.0
  0
LINE
  5
2EF
  8
AM_VIS
 10
75.978275991174968
 20
-55.203803625034233
 30
0.0
 11
75.978275991174968
 21
-56.235854907034231
 31
0.0
  0
LINE
  5
2F0
  8
AM_VIS
 10
75.978275991174968
 20
-56.235854907034231
 30
0.0
 11
74.946224709174956
 21
-56.235854907034231
 31
0.0
  0
LINE
  5
2F1
  8
AM_VIS
 10
74.946224709174956
 20
-56.235854907034231
 30
0.0
 11
74.946224709174956
 21
-56.54995747103424
 31
0.0
  0
TEXT
  5
2FF
  8
0
 10
-11.10999134391513
 20
-0.4034204442556107
 30
0.0
 40
4.75
  1
SL20.100
  0
TEXT
  5
300
  8
0
 10
-14.3880519062307
 20
7.7895266020853544
 30
0.0
 40
4.5
  1
Power Supply
  0
TEXT
  5
301
  8
0
 10
-11.66069689994908
 20
15.52925927680193
 30
0.0
 40
8.5785595282085012
  1
PULS
  0
ENDSEC
  0
EOF
