  0
SECTION
  2
HEADER
  9
$ACADVER
  1
AC1009
  9
$INSBASE
 10
0.0
 20
0.0
 30
0.0
  9
$EXTMIN
 10
-277.69425476004182
 20
-65.167143290034289
 30
0.0
  9
$EXTMAX
 10
39.9698319601289
 20
65.332856709965739
 30
0.0
  9
$LIMMIN
 10
0.0
 20
0.0
  9
$LIMMAX
 10
17.0
 20
11.0
  9
$ORTHOMODE
 70
     0
  9
$REGENMODE
 70
     1
  9
$FILLMODE
 70
     1
  9
$QTEXTMODE
 70
     0
  9
$MIRRTEXT
 70
     1
  9
$DRAGMODE
 70
     2
  9
$LTSCALE
 40
8.8000000000000043
  9
$OSMODE
 70
    35
  9
$ATTMODE
 70
     1
  9
$TEXTSIZE
 40
0.12
  9
$TRACEWID
 40
0.05
  9
$TEXTSTYLE
  7
ADESK1
  9
$CLAYER
  8
0
  9
$CELTYPE
  6
BYLAYER
  9
$CECOLOR
 62
   256
  9
$DIMSCALE
 40
1.0
  9
$DIMASZ
 40
0.1
  9
$DIMEXO
 40
0.05
  9
$DIMDLI
 40
0.5
  9
$DIMRND
 40
0.0
  9
$DIMDLE
 40
0.0
  9
$DIMEXE
 40
0.1
  9
$DIMTP
 40
0.1
  9
$DIMTM
 40
0.1
  9
$DIMTXT
 40
4.0
  9
$DIMCEN
 40
0.0
  9
$DIMTSZ
 40
0.0
  9
$DIMTOL
 70
     0
  9
$DIMLIM
 70
     0
  9
$DIMTIH
 70
     1
  9
$DIMTOH
 70
     1
  9
$DIMSE1
 70
     0
  9
$DIMSE2
 70
     0
  9
$DIMTAD
 70
     0
  9
$DIMZIN
 70
     7
  9
$DIMBLK
  1

  9
$DIMASO
 70
     1
  9
$DIMSHO
 70
     1
  9
$DIMPOST
  1

  9
$DIMAPOST
  1
mm
  9
$DIMALT
 70
     0
  9
$DIMALTD
 70
     2
  9
$DIMALTF
 40
25.399999999999999
  9
$DIMLFAC
 40
1.0
  9
$DIMTOFL
 70
     0
  9
$DIMTVP
 40
0.0
  9
$DIMTIX
 70
     0
  9
$DIMSOXD
 70
     0
  9
$DIMSAH
 70
     0
  9
$DIMBLK1
  1

  9
$DIMBLK2
  1

  9
$DIMSTYLE
  2
AM_ANSI
  9
$DIMCLRD
 70
   256
  9
$DIMCLRE
 70
   256
  9
$DIMCLRT
 70
     2
  9
$DIMTFAC
 40
0.71
  9
$DIMGAP
 40
0.06
  9
$LUNITS
 70
     2
  9
$LUPREC
 70
     4
  9
$SKETCHINC
 40
0.1
  9
$FILLETRAD
 40
0.125
  9
$AUNITS
 70
     0
  9
$AUPREC
 70
     0
  9
$MENU
  1
.
  9
$ELEVATION
 40
0.0
  9
$PELEVATION
 40
0.0
  9
$THICKNESS
 40
0.0
  9
$LIMCHECK
 70
     0
  9
$BLIPMODE
 70
     0
  9
$CHAMFERA
 40
0.125
  9
$CHAMFERB
 40
0.125
  9
$SKPOLY
 70
     0
  9
$TDCREATE
 40
2453263.6680570021
  9
$TDUPDATE
 40
2453311.404559826
  9
$TDINDWG
 40
0.1975271181
  9
$TDUSRTIMER
 40
0.1975269329
  9
$USRTIMER
 70
     1
  9
$ANGBASE
 50
0.0
  9
$ANGDIR
 70
     0
  9
$PDMODE
 70
     0
  9
$PDSIZE
 40
0.0
  9
$PLINEWID
 40
0.0
  9
$COORDS
 70
     1
  9
$SPLFRAME
 70
     0
  9
$SPLINETYPE
 70
     6
  9
$SPLINESEGS
 70
     8
  9
$ATTDIA
 70
     0
  9
$ATTREQ
 70
     1
  9
$HANDLING
 70
     1
  9
$HANDSEED
  5
3B1
  9
$SURFTAB1
 70
     6
  9
$SURFTAB2
 70
     6
  9
$SURFTYPE
 70
     6
  9
$SURFU
 70
     6
  9
$SURFV
 70
     6
  9
$UCSNAME
  2

  9
$UCSORG
 10
0.0
 20
0.0
 30
0.0
  9
$UCSXDIR
 10
1.0
 20
0.0
 30
0.0
  9
$UCSYDIR
 10
0.0
 20
1.0
 30
0.0
  9
$PUCSNAME
  2

  9
$PUCSORG
 10
0.0
 20
0.0
 30
0.0
  9
$PUCSXDIR
 10
1.0
 20
0.0
 30
0.0
  9
$PUCSYDIR
 10
0.0
 20
1.0
 30
0.0
  9
$USERI1
 70
     0
  9
$USERI2
 70
     0
  9
$USERI3
 70
     0
  9
$USERI4
 70
     0
  9
$USERI5
 70
     0
  9
$USERR1
 40
0.0
  9
$USERR2
 40
0.0
  9
$USERR3
 40
0.0
  9
$USERR4
 40
0.0
  9
$USERR5
 40
0.0
  9
$WORLDVIEW
 70
     1
  9
$SHADEDGE
 70
     3
  9
$SHADEDIF
 70
    70
  9
$TILEMODE
 70
     1
  9
$MAXACTVP
 70
    48
  9
$PLIMCHECK
 70
     0
  9
$PEXTMIN
 10
-299.59387729061439
 20
-71.892143290034241
 30
0.0
  9
$PEXTMAX
 10
121.1706558964478
 20
72.057856709965776
 30
0.0
  9
$PLIMMIN
 10
-0.2500002402958907
 20
-0.2499999962453767
  9
$PLIMMAX
 10
10.74999951940821
 20
8.2499997634587316
  9
$UNITMODE
 70
     0
  9
$VISRETAIN
 70
     1
  9
$PLINEGEN
 70
     0
  9
$PSLTSCALE
 70
     1
  0
ENDSEC
  0
SECTION
  2
TABLES
  0
TABLE
  2
VPORT
 70
     2
  0
VPORT
  2
*ACTIVE
 70
     0
 10
0.0
 20
0.0
 11
1.0
 21
1.0
 12
-46.442559691163382
 22
-50.663794560288729
 13
0.0
 23
0.0
 14
0.125
 24
0.125
 15
1.0
 25
1.0
 16
0.0
 26
0.0
 36
1.0
 17
-77.177575965863724
 27
60.648277323424487
 37
0.0
 40
222.95594683957859
 41
1.8313725490196071
 42
50.0
 43
0.0
 44
0.0
 50
0.0
 51
0.0
 71
     0
 72
   100
 73
     1
 74
     1
 75
     0
 76
     0
 77
     0
 78
     0
  0
ENDTAB
  0
TABLE
  2
LTYPE
 70
    18
  0
LTYPE
  2
CONTINUOUS
 70
     0
  3
Solid line
 72
    65
 73
     0
 40
0.0
  0
LTYPE
  2
HIDDEN
 70
     0
  3
__ __ __ __ __ __ __ __ __ __ __ __ __ __ __ __
 72
    65
 73
     2
 40
0.375
 49
0.25
 49
-0.125
  0
LTYPE
  2
PHANTOM2
 70
     0
  3
Phantom (.5x) ___ _ _ ___ _ _ ___ _ _ ___ _ _
 72
    65
 73
     6
 40
1.25
 49
0.625
 49
-0.125
 49
0.125
 49
-0.125
 49
0.125
 49
-0.125
  0
LTYPE
  2
CENTER
 70
     0
  3
Center ____ _ ____ _ ____ _ ____ _ ____ _ ____
 72
    65
 73
     4
 40
2.0
 49
1.25
 49
-0.25
 49
0.25
 49
-0.25
  0
LTYPE
  2
ASULTYPE
 70
     0
  3
Solid line
 72
    65
 73
     2
 40
3.0
 49
2.5
 49
0.5
  0
LTYPE
  2
ASVLTYPE
 70
     0
  3
__ __ __ __ __ __ __ __ __ __ __ __ __ __ __ __ __ __ __ __ __
 72
    65
 73
     2
 40
0.75
 49
0.5
 49
-0.25
  0
LTYPE
  2
AM_ISO02W050
 70
     0
  3
__ __ __ __ __ __ __ __ __ __ __ __ __ __ __
 72
    65
 73
     2
 40
7.5
 49
6.0
 49
-1.5
  0
LTYPE
  2
AM_ISO08W050
 70
     0
  3
____ . ____ . ____ . ____ . ____ . ____ . ____
 72
    65
 73
     4
 40
18.0
 49
12.0
 49
-1.5
 49
3.0
 49
-1.5
  0
LTYPE
  2
AM_ISO09W050
 70
     0
  3
_____ . . _____ . . _____ . . ____ .. ____
 72
    65
 73
     6
 40
22.5
 49
12.0
 49
-1.5
 49
3.0
 49
-1.5
 49
3.0
 49
-1.5
  0
LTYPE
  2
AMCONSTR
 70
     0
  3
_______________________
 72
    65
 73
     2
 40
9999.0
 49
9999.0
 49
0.0
  0
LTYPE
  2
AM_ISO08W050X2
 70
     0
  3
__ . __ . __ . __ . __ . __
 72
    65
 73
     4
 40
9.0
 49
6.0
 49
-0.75
 49
1.5
 49
-0.75
  0
LTYPE
  2
AM_ISO02W050X2
 70
     0
  3
 _ _ _ _ _ _ _ _ _ _ _ _
 72
    65
 73
     2
 40
3.75
 49
3.0
 49
-0.75
  0
LTYPE
  2
AMZIGZAG
 70
     0
  3
/\/-/\/-/\/-/\/-/\/-/\/
 72
    65
 73
     2
 40
11.000099999999991
 49
0.0001
 49
-11.0
  0
LTYPE
  2
CENTER2
 70
     0
  3
Center (.5x) ___ _ ___ _ ___ _ ___ _ ___ _ ___
 72
    65
 73
     4
 40
1.125
 49
0.75
 49
-0.125
 49
0.125
 49
-0.125
  0
LTYPE
  2
HIDDEN2
 70
     0
  3
Hidden (.5x) _ _ _ _ _ _ _ _ _ _ _ _ _ _ _ _ _
 72
    65
 73
     2
 40
0.1875
 49
0.125
 49
-0.0625
  0
LTYPE
  2
AMZIGZAG2
 70
     0
  3
/\/-/\/-/\/-/\/-/\/-/\/
 72
    65
 73
     2
 40
0.4401
 49
0.0001
 49
-0.4400000000000001
  0
LTYPE
  2
ACANSTGB
 70
     0
  3
__ . . __ . .
 72
    65
 73
     6
 40
0.35433070866
 49
0.15748031496
 49
-0.03937007874
 49
0.03937007874
 49
-0.03937007874
 49
0.03937007874
 49
-0.03937007874
  0
LTYPE
  2
ACANSTGL
 70
     0
  3
_ _ _ _ _
 72
    65
 73
     2
 40
0.11811023622
 49
0.07874015748
 49
-0.03937007874
  0
ENDTAB
  0
TABLE
  2
LAYER
 70
     4
  0
LAYER
  2
0
 70
     0
 62
     7
  6
CONTINUOUS
  0
LAYER
  2
AM_VIS
 70
     0
 62
     7
  6
CONTINUOUS
  0
LAYER
  2
AM_HID
 70
     0
 62
     7
  6
HIDDEN
  0
LAYER
  2
DEFPOINTS
 70
     0
 62
     7
  6
CONTINUOUS
  0
ENDTAB
  0
TABLE
  2
STYLE
 70
     5
  0
STYLE
  2
STANDARD
 70
     0
 40
0.0
 41
1.0
 50
0.0
 71
     0
 42
0.12
  3
ROMANS.SHX
  4

  0
STYLE
  2
ADESK1
 70
     0
 40
0.0
 41
1.0
 50
0.0
 71
     0
 42
0.12
  3
romans.shx
  4

  0
STYLE
  2

 70
     1
 40
0.0
 41
1.0
 50
0.0
 71
     0
 42
0.12
  3
ltypeshp.shx
  4

  0
STYLE
  2
ACANSTS
 70
     0
 40
1.0
 41
1.0
 50
0.0
 71
     0
 42
0.12
  3
romans.shx
  4

  0
STYLE
  2
ACANSGDT
 70
     0
 40
0.0
 41
1.0
 50
0.0
 71
     0
 42
0.12
  3
amgdtans.shx
  4

  0
ENDTAB
  0
TABLE
  2
VIEW
 70
     0
  0
ENDTAB
  0
TABLE
  2
UCS
 70
     0
  0
ENDTAB
  0
TABLE
  2
APPID
 70
    13
  0
APPID
  2
ACAD
 70
     0
  0
APPID
  2
GENIUS_GENDIM_13
 70
     0
  0
APPID
  2
GENIUS_GENDTOL_13
 70
     0
  0
APPID
  2
GENIUS_GE3DTOL_13
 70
     0
  0
APPID
  2
MCAD_NO_VIS
 70
     0
  0
APPID
  2
ACAD_TEMP_GRAPHIC
 70
     0
  0
APPID
  2
AD_DRAW
 70
     0
  0
APPID
  2
ACATTRIBSERVICES
 70
     0
  0
APPID
  2
ASURF_PCURVE_APPNAME
 70
     0
  0
APPID
  2
AMG_3D2D_5_0
 70
     0
  0
APPID
  2
DESIGNERASSEMBLIES
 70
     0
  0
APPID
  2
ACADM_DIM_EDIT
 70
     0
  0
APPID
  2
AMDT_DM_ADJ
 70
     0
  0
ENDTAB
  0
TABLE
  2
DIMSTYLE
 70
    10
  0
DIMSTYLE
  2
AM_ANSI
 70
     0
  3

  4
mm
  5

  6

  7

 40
1.0
 41
0.1
 42
0.05
 43
0.5
 44
0.1
 45
0.0
 46
0.0
 47
0.1
 48
0.1
140
4.0
141
0.0
142
0.0
143
25.399999999999999
144
1.0
145
0.0
146
0.71
147
0.06
 71
     0
 72
     0
 73
     1
 74
     1
 75
     0
 76
     0
 77
     0
 78
     7
170
     0
171
     2
172
     0
173
     0
174
     0
175
     0
176
   256
177
   256
178
     2
  0
DIMSTYLE
  2
AM_BSI
 70
     0
  3

  4
mm
  5

  6

  7

 40
1.0
 41
0.1574803149606299
 42
0.05
 43
0.5
 44
0.1
 45
0.0
 46
0.0
 47
0.1
 48
0.1
140
0.12
141
0.0
142
0.0
143
25.399999999999999
144
1.0
145
0.0
146
0.71
147
0.06
 71
     0
 72
     0
 73
     0
 74
     0
 75
     0
 76
     0
 77
     1
 78
     7
170
     0
171
     2
172
     1
173
     0
174
     0
175
     0
176
   256
177
   256
178
     2
  0
DIMSTYLE
  2
AM_DIN
 70
     0
  3

  4
mm
  5

  6

  7

 40
1.0
 41
0.1
 42
0.05
 43
0.5
 44
0.1
 45
0.0
 46
0.0
 47
0.1
 48
0.1
140
0.12
141
0.0
142
0.0
143
25.399999999999999
144
1.0
145
0.0
146
0.71
147
0.06
 71
     0
 72
     0
 73
     0
 74
     0
 75
     0
 76
     0
 77
     1
 78
     7
170
     0
171
     2
172
     1
173
     0
174
     0
175
     0
176
   256
177
   256
178
     2
  0
DIMSTYLE
  2
AM_ISO
 70
     0
  3

  4
mm
  5

  6

  7

 40
1.0
 41
0.1
 42
0.05
 43
0.5
 44
0.1
 45
0.0
 46
0.0
 47
0.1
 48
0.1
140
0.12
141
0.0
142
0.0
143
25.399999999999999
144
1.0
145
0.0
146
0.71
147
0.06
 71
     0
 72
     0
 73
     0
 74
     0
 75
     0
 76
     0
 77
     1
 78
     7
170
     0
171
     2
172
     1
173
     0
174
     0
175
     0
176
   256
177
   256
178
     2
  0
DIMSTYLE
  2
AM_JIS
 70
     0
  3

  4
mm
  5

  6

  7

 40
1.0
 41
0.1
 42
0.05
 43
0.5
 44
0.1
 45
0.0
 46
0.0
 47
0.1
 48
0.1
140
0.12
141
0.0
142
0.0
143
25.399999999999999
144
1.0
145
0.0
146
0.71
147
0.06
 71
     0
 72
     0
 73
     0
 74
     0
 75
     0
 76
     0
 77
     3
 78
     7
170
     0
171
     2
172
     1
173
     0
174
     0
175
     0
176
   256
177
   256
178
     2
  0
DIMSTYLE
  2
AM_ANSI$3
 70
     0
  3

  4
mm
  5

  6

  7

 40
1.0
 41
0.1
 42
0.05
 43
0.5
 44
0.1
 45
0.0
 46
0.0
 47
0.1
 48
0.1
140
4.0
141
0.0
142
0.0
143
25.399999999999999
144
1.0
145
0.0
146
0.71
147
0.06
 71
     0
 72
     0
 73
     1
 74
     1
 75
     0
 76
     0
 77
     0
 78
     7
170
     0
171
     2
172
     0
173
     0
174
     0
175
     0
176
   256
177
   256
178
     2
  0
DIMSTYLE
  2
AM_ANSI$4
 70
     0
  3

  4
mm
  5

  6

  7

 40
1.0
 41
0.1
 42
0.05
 43
0.5
 44
0.1
 45
0.0
 46
0.0
 47
0.1
 48
0.1
140
4.0
141
0.0
142
0.0
143
25.399999999999999
144
1.0
145
0.0
146
0.71
147
0.06
 71
     0
 72
     0
 73
     1
 74
     1
 75
     0
 76
     0
 77
     0
 78
     7
170
     0
171
     2
172
     0
173
     0
174
     0
175
     0
176
   256
177
   256
178
     2
  0
DIMSTYLE
  2
AM_ANSI$7
 70
     0
  3

  4
mm
  5

  6

  7

 40
1.0
 41
0.1
 42
0.05
 43
0.5
 44
0.1
 45
0.0
 46
0.0
 47
0.1
 48
0.1
140
0.24
141
0.0
142
0.0
143
25.399999999999999
144
1.0
145
0.0
146
0.71
147
0.06
 71
     0
 72
     0
 73
     1
 74
     1
 75
     0
 76
     0
 77
     0
 78
     7
170
     0
171
     2
172
     0
173
     0
174
     0
175
     0
176
   256
177
   256
178
     2
  0
DIMSTYLE
  2
AM_ANSI$SF
 70
     0
  3

  4
mm
  5

  6

  7

 40
1.0
 41
0.1
 42
0.05
 43
0.5
 44
0.1
 45
0.0
 46
0.0
 47
0.1
 48
0.1
140
0.12
141
0.0
142
0.0
143
25.399999999999999
144
1.0
145
0.0
146
0.71
147
0.06
 71
     0
 72
     0
 73
     1
 74
     1
 75
     1
 76
     1
 77
     0
 78
     7
170
     0
171
     2
172
     0
173
     0
174
     0
175
     0
176
   256
177
   256
178
     2
  0
DIMSTYLE
  2
AM_ANSI$SH
 70
     0
  3

  4
mm
  5

  6
GENAXEH
  7

 40
1.0
 41
0.1
 42
0.05
 43
0.5
 44
0.1
 45
0.0
 46
0.0
 47
0.1
 48
0.1
140
0.12
141
0.0
142
0.0
143
25.399999999999999
144
1.0
145
0.0
146
0.71
147
0.06
 71
     0
 72
     0
 73
     1
 74
     1
 75
     1
 76
     1
 77
     0
 78
     7
170
     0
171
     2
172
     0
173
     1
174
     0
175
     0
176
   256
177
   256
178
     2
  0
ENDTAB
  0
ENDSEC
  0
SECTION
  2
BLOCKS
  0
BLOCK
  8
0
  2
$MODEL_SPACE
 70
     0
 10
0.0
 20
0.0
 30
0.0
  3
$MODEL_SPACE
  1

  0
ENDBLK
  5
A
  8
0
  0
BLOCK
 67
     1
  8
0
  2
$PAPER_SPACE
 70
     0
 10
0.0
 20
0.0
 30
0.0
  3
$PAPER_SPACE
  1

  0
ENDBLK
  5
F
 67
     1
  8
0
  0
BLOCK
  8
0
  2
*U0
 70
     1
 10
0.0
 20
0.0
 30
0.0
  3
*U0
  1

  0
ENDBLK
  5
29C
  8
0
  0
BLOCK
  8
0
  2
GENAXEH
 70
     0
 10
0.0
 20
0.0
 30
0.0
  3
GENAXEH
  1

  0
LINE
  5
2D8
  8
0
 10
-1.0
 20
0.0
 30
0.0
 11
1.0
 21
0.0
 31
0.0
  0
ENDBLK
  5
2DA
  8
0
  0
ENDSEC
  0
SECTION
  2
ENTITIES
  0
LINE
  5
3B
  8
AM_VIS
 10
-99.299593327871136
 20
-57.90743092003423
 30
0.0
 11
-101.1386526178711
 21
-57.90743092003423
 31
0.0
  0
LINE
  5
3C
  8
AM_VIS
 10
-99.299593327871136
 20
-57.90743092003423
 30
0.0
 11
-99.299593327871136
 21
-57.551833082034243
 31
0.0
  0
LINE
  5
3D
  8
AM_VIS
 10
-99.299593327871136
 20
-57.551833082034243
 30
0.0
 11
-101.1386526178711
 21
-57.551833082034243
 31
0.0
  0
LINE
  5
3E
  8
AM_VIS
 10
-101.1386526178711
 20
-57.90743092003423
 30
0.0
 11
-101.1386526178711
 21
-57.551833082034243
 31
0.0
  0
LINE
  5
3F
  8
AM_VIS
 10
-98.219122972871133
 20
-56.526070087034228
 30
0.0
 11
-102.21912297287111
 21
-56.526070087034228
 31
0.0
  0
LINE
  5
40
  8
AM_VIS
 10
-98.219122972871133
 20
-56.526070087034228
 30
0.0
 11
-98.219122972871133
 21
-56.22607008703423
 31
0.0
  0
LINE
  5
41
  8
AM_VIS
 10
-98.219122972871133
 20
-56.22607008703423
 30
0.0
 11
-100.0992127818711
 21
-56.22607008703423
 31
0.0
  0
LINE
  5
42
  8
AM_VIS
 10
-100.0992127818711
 20
-55.513983931034232
 30
0.0
 11
-100.0992127818711
 21
-56.22607008703423
 31
0.0
  0
LINE
  5
43
  8
AM_VIS
 10
-100.0992127818711
 20
-55.513983931034232
 30
0.0
 11
-100.4548106208711
 21
-55.513983931034232
 31
0.0
  0
LINE
  5
44
  8
AM_VIS
 10
-100.4548106208711
 20
-55.513983931034232
 30
0.0
 11
-100.4548106208711
 21
-56.22607008703423
 31
0.0
  0
LINE
  5
45
  8
AM_VIS
 10
-100.4548106208711
 20
-56.22607008703423
 30
0.0
 11
-102.21912297287111
 21
-56.22607008703423
 31
0.0
  0
LINE
  5
46
  8
AM_VIS
 10
-102.21912297287111
 20
-56.526070087034228
 30
0.0
 11
-102.21912297287111
 21
-56.22607008703423
 31
0.0
  0
LINE
  5
47
  8
AM_VIS
 10
-98.574720810871156
 20
-57.223588923034221
 30
0.0
 11
-101.8635251348711
 21
-57.223588923034221
 31
0.0
  0
LINE
  5
48
  8
AM_VIS
 10
-98.574720810871156
 20
-56.840637405034229
 30
0.0
 11
-98.574720810871156
 21
-57.223588923034221
 31
0.0
  0
LINE
  5
49
  8
AM_VIS
 10
-98.574720810871156
 20
-56.840637405034229
 30
0.0
 11
-101.8635251348711
 21
-56.840637405034229
 31
0.0
  0
LINE
  5
4A
  8
AM_VIS
 10
-101.8635251348711
 20
-56.840637405034229
 30
0.0
 11
-101.8635251348711
 21
-57.223588923034221
 31
0.0
  0
LINE
  5
4D
  8
AM_VIS
 10
-25.0301680398711
 20
-62.167143290034261
 30
0.0
 11
-25.0301680398711
 21
-65.167143290034289
 31
0.0
  0
LINE
  5
4F
  8
AM_VIS
 10
-45.0301680398711
 20
-65.167143290034289
 30
0.0
 11
-45.0301680398711
 21
-62.167143290034304
 31
0.0
  0
LINE
  5
51
  8
AM_VIS
 10
-25.0301680398711
 20
-65.167143290034289
 30
0.0
 11
-45.0301680398711
 21
-65.167143290034289
 31
0.0
  0
LINE
  5
53
  8
AM_VIS
 10
-25.0301680398711
 20
65.332856709965739
 30
0.0
 11
-25.0301680398711
 21
61.832856709965718
 31
0.0
  0
LINE
  5
55
  8
AM_VIS
 10
-45.0301680398711
 20
65.332856709965739
 30
0.0
 11
-25.0301680398711
 21
65.332856709965739
 31
0.0
  0
LINE
  5
57
  8
AM_VIS
 10
-45.0301680398711
 20
61.832856709965718
 30
0.0
 11
-45.0301680398711
 21
65.332856709965739
 31
0.0
  0
LINE
  5
5A
  8
AM_VIS
 10
21.37917015812889
 20
-56.953803625034183
 30
0.0
 11
22.7253240041289
 21
-56.953803625034183
 31
0.0
  0
LINE
  5
5B
  8
AM_VIS
 10
21.37917015812889
 20
-56.594829266034203
 30
0.0
 11
21.37917015812889
 21
-56.953803625034183
 31
0.0
  0
LINE
  5
5C
  8
AM_VIS
 10
22.7253240041289
 20
-56.594829266034203
 30
0.0
 11
21.37917015812889
 21
-56.594829266034203
 31
0.0
  0
LINE
  5
5D
  8
AM_VIS
 10
22.7253240041289
 20
-56.953803625034183
 30
0.0
 11
22.7253240041289
 21
-56.594829266034203
 31
0.0
  0
LINE
  5
5E
  8
AM_VIS
 10
13.16763169712889
 20
-56.235854907034188
 30
0.0
 11
13.16763169712889
 21
-56.54995747103419
 31
0.0
  0
LINE
  5
5F
  8
AM_VIS
 10
14.1996829791289
 20
-56.235854907034188
 30
0.0
 11
13.16763169712889
 21
-56.235854907034188
 31
0.0
  0
LINE
  5
60
  8
AM_VIS
 10
14.1996829791289
 20
-55.203803625034183
 30
0.0
 11
14.1996829791289
 21
-56.235854907034188
 31
0.0
  0
LINE
  5
61
  8
AM_VIS
 10
14.5137855431289
 20
-55.203803625034183
 30
0.0
 11
14.1996829791289
 21
-55.203803625034183
 31
0.0
  0
LINE
  5
62
  8
AM_VIS
 10
14.5137855431289
 20
-56.235854907034188
 30
0.0
 11
14.5137855431289
 21
-55.203803625034183
 31
0.0
  0
LINE
  5
63
  8
AM_VIS
 10
15.5458368251289
 20
-56.235854907034188
 30
0.0
 11
14.5137855431289
 21
-56.235854907034188
 31
0.0
  0
LINE
  5
64
  8
AM_VIS
 10
15.5458368251289
 20
-56.54995747103419
 30
0.0
 11
15.5458368251289
 21
-56.235854907034188
 31
0.0
  0
LINE
  5
65
  8
AM_VIS
 10
14.5137855431289
 20
-56.54995747103419
 30
0.0
 11
15.5458368251289
 21
-56.54995747103419
 31
0.0
  0
LINE
  5
66
  8
AM_VIS
 10
14.5137855431289
 20
-57.582008753034188
 30
0.0
 11
14.5137855431289
 21
-56.54995747103419
 31
0.0
  0
LINE
  5
67
  8
AM_VIS
 10
14.1996829791289
 20
-57.582008753034188
 30
0.0
 11
14.5137855431289
 21
-57.582008753034188
 31
0.0
  0
LINE
  5
68
  8
AM_VIS
 10
14.1996829791289
 20
-56.54995747103419
 30
0.0
 11
14.1996829791289
 21
-57.582008753034188
 31
0.0
  0
LINE
  5
69
  8
AM_VIS
 10
13.16763169712889
 20
-56.54995747103419
 30
0.0
 11
14.1996829791289
 21
-56.54995747103419
 31
0.0
  0
LINE
  5
6A
  8
AM_VIS
 10
28.3791701581289
 20
-56.953803625034183
 30
0.0
 11
29.725324004128911
 21
-56.953803625034183
 31
0.0
  0
LINE
  5
6B
  8
AM_VIS
 10
28.3791701581289
 20
-56.594829266034203
 30
0.0
 11
28.3791701581289
 21
-56.953803625034183
 31
0.0
  0
LINE
  5
6C
  8
AM_VIS
 10
29.725324004128911
 20
-56.594829266034203
 30
0.0
 11
28.3791701581289
 21
-56.594829266034203
 31
0.0
  0
LINE
  5
6D
  8
AM_VIS
 10
29.725324004128911
 20
-56.953803625034183
 30
0.0
 11
29.725324004128911
 21
-56.594829266034203
 31
0.0
  0
LINE
  5
6E
  8
AM_VIS
 10
1.3987937091289091
 20
-61.667143290034183
 30
0.0
 11
33.458902998128899
 21
-61.667143290034183
 31
0.0
  0
LINE
  5
6F
  8
AM_VIS
 10
33.458902998128899
 20
-61.667143290034183
 30
0.0
 11
33.458902998128899
 21
-51.59553577403419
 31
0.0
  0
LINE
  5
70
  8
AM_VIS
 10
33.458902998128899
 20
-51.59553577403419
 30
0.0
 11
1.3987937091289091
 21
-51.59553577403419
 31
0.0
  0
LINE
  5
71
  8
AM_VIS
 10
1.3987937091289091
 20
-51.59553577403419
 30
0.0
 11
1.3987937091289091
 21
-61.667143290034183
 31
0.0
  0
LINE
  5
83
  8
AM_VIS
 10
-105.5301680398711
 20
-61.667143290034232
 30
0.0
 11
-66.64245578441205
 21
-61.667143290034048
 31
0.0
  0
LINE
  5
84
  8
AM_VIS
 10
-66.64245578441205
 20
-61.667143302959232
 30
0.0
 11
-66.64245578441205
 21
-51.095535786959232
 31
0.0
  0
LINE
  5
85
  8
AM_VIS
 10
-66.64245578441205
 20
-51.095535786959232
 30
0.0
 11
-105.5301680398711
 21
-51.095535774034232
 31
0.0
  0
LINE
  5
86
  8
AM_VIS
 10
-105.5301680398711
 20
-51.095535774034232
 30
0.0
 11
-105.5301680398711
 21
-61.667143290034232
 31
0.0
  0
LINE
  5
B5
  8
AM_VIS
 10
-110.0301680398712
 20
-61.795535750034233
 30
0.0
 11
-110.0301680398712
 21
-62.16714329003436
 31
0.0
  0
LINE
  5
B6
  8
AM_VIS
 10
-110.0301680398711
 20
61.832856709965768
 30
0.0
 11
-110.0301680398711
 21
61.461249169965761
 31
0.0
  0
LINE
  5
B7
  8
AM_VIS
 10
39.9698319601289
 20
61.83285670996581
 30
0.0
 11
39.9698319601289
 21
61.461249169965811
 31
0.0
  0
LINE
  5
B8
  8
AM_VIS
 10
39.9698319601289
 20
-61.79553575003419
 30
0.0
 11
39.9698319601289
 21
-62.167143290034289
 31
0.0
  0
LINE
  5
BD
  8
AM_VIS
 10
33.958902998128899
 20
-61.795535777865908
 30
0.0
 11
33.958902998128899
 21
-62.16714329003419
 31
0.0
  0
LINE
  5
BE
  8
AM_VIS
 10
33.958902998128899
 20
-51.09553577403419
 30
0.0
 11
0.8987937091289097
 21
-51.09553577403419
 31
0.0
  0
LINE
  5
C9
  8
AM_VIS
 10
-106.0301680398711
 20
-61.795535775884609
 30
0.0
 11
-106.0301680398711
 21
-62.167143290034232
 31
0.0
  0
LINE
  5
CA
  8
AM_VIS
 10
-66.14245578441205
 20
-50.595535786959211
 30
0.0
 11
-106.0301680398711
 21
-50.595535774034232
 31
0.0
  0
ARC
  5
F9
  8
AM_VIS
 10
-100.2496580218711
 20
-56.594324711262701
 30
0.0
 40
2.1999740185349861
 50
180.00337463812281
 51
359.99662536187708
  0
ARC
  5
FA
  8
AM_VIS
 10
-100.2496580218711
 20
-56.594583861805759
 30
0.0
 40
2.1999740185349861
 50
0.0033746381228359
 51
179.99662536187711
  0
ARC
  5
FB
  8
AM_VIS
 10
-100.2496580218711
 20
-56.594454286034193
 30
0.0
 40
2.4183654310000118
 50
359.99999999999892
 51
180.0000000235045
  0
ARC
  5
FC
  8
AM_VIS
 10
-100.2496580218711
 20
-56.594454286034193
 30
0.0
 40
2.4183654310000118
 50
180.0000000235045
 51
359.99999999999892
  0
LINE
  5
FD
  8
AM_VIS
 10
-110.0301680398711
 20
-61.795535750034141
 30
0.0
 11
-110.0301680398711
 21
61.461249169965733
 31
0.0
  0
LINE
  5
FE
  8
AM_VIS
 10
39.9698319601289
 20
-61.795535750034098
 30
0.0
 11
39.9698319601289
 21
61.461249169965761
 31
0.0
  0
LINE
  5
FF
  8
AM_VIS
 10
0.8987937091288955
 20
-62.167143289450621
 30
0.0
 11
0.8987937091288955
 21
-61.795535773914509
 31
0.0
  0
LINE
  5
100
  8
AM_VIS
 10
-66.14245578441205
 20
-61.795535785653648
 30
0.0
 11
-66.142455784412078
 21
-62.167143301189711
 31
0.0
  0
LINE
  5
102
  8
AM_VIS
 10
33.958902998128892
 20
-51.095535774034211
 30
0.0
 11
33.958902998128899
 21
-61.795535777866057
 31
0.0
  0
LINE
  5
103
  8
AM_VIS
 10
0.8987937091288955
 20
-61.795535773914509
 30
0.0
 11
0.8987937091288955
 21
-51.095535774034097
 31
0.0
  0
LINE
  5
104
  8
AM_VIS
 10
-106.0301680398711
 20
-50.595535774034332
 30
0.0
 11
-106.0301680398711
 21
-61.79553577588473
 31
0.0
  0
LINE
  5
105
  8
AM_VIS
 10
-66.14245578441205
 20
-61.795535785653648
 30
0.0
 11
-66.14245578441205
 21
-50.595535786959211
 31
0.0
  0
LINE
  5
14D
  8
AM_VIS
 10
-159.55498389185621
 20
-51.095535774034232
 30
0.0
 11
-159.55498389185621
 21
-61.667143290034232
 31
0.0
  0
LINE
  5
14E
  8
AM_VIS
 10
-277.69425476004182
 20
-62.167143290034261
 30
0.0
 11
-165.22498389185631
 21
-62.167143290034232
 31
0.0
  0
LINE
  5
14F
  8
AM_VIS
 10
-165.2249838918562
 20
61.832856709965768
 30
0.0
 11
-254.4249838918563
 21
61.832856709965768
 31
0.0
  0
LINE
  5
184
  8
AM_VIS
 10
-164.70767493799281
 20
-61.667143290034232
 30
0.0
 11
-159.55498389185621
 21
-61.667143290034232
 31
0.0
  0
LINE
  5
186
  8
AM_VIS
 10
-162.16098492711609
 20
-51.095535774034232
 30
0.0
 11
-159.55498389185621
 21
-51.095535774034232
 31
0.0
  0
ARC
  5
197
  8
AM_VIS
 10
-165.22498387325021
 20
61.332856706825652
 30
0.0
 40
0.5000000031401229
 50
14.87937631545419
 51
90.0
  0
ARC
  5
1E0
  8
AM_VIS
 10
-396.69570954579081
 20
-0.1671432900342431
 30
0.0
 40
240.0014547857489
 50
345.12071357114468
 51
14.87928642885529
  0
LINE
  5
2E6
  8
AM_VIS
 10
4.9462247091749836
 20
-56.54995747103419
 30
0.0
 11
5.9782759911749963
 21
-56.54995747103419
 31
0.0
  0
LINE
  5
2E7
  8
AM_VIS
 10
5.9782759911749963
 20
-56.54995747103419
 30
0.0
 11
5.9782759911749963
 21
-57.582008753034188
 31
0.0
  0
LINE
  5
2E8
  8
AM_VIS
 10
5.9782759911749963
 20
-57.582008753034188
 30
0.0
 11
6.2923785551749907
 21
-57.582008753034188
 31
0.0
  0
LINE
  5
2E9
  8
AM_VIS
 10
6.2923785551749907
 20
-57.582008753034188
 30
0.0
 11
6.2923785551749907
 21
-56.54995747103419
 31
0.0
  0
LINE
  5
2EA
  8
AM_VIS
 10
6.2923785551749907
 20
-56.54995747103419
 30
0.0
 11
7.3244298371749892
 21
-56.54995747103419
 31
0.0
  0
LINE
  5
2EB
  8
AM_VIS
 10
7.3244298371749892
 20
-56.54995747103419
 30
0.0
 11
7.3244298371749892
 21
-56.235854907034188
 31
0.0
  0
LINE
  5
2EC
  8
AM_VIS
 10
7.3244298371749892
 20
-56.235854907034188
 30
0.0
 11
6.2923785551749907
 21
-56.235854907034188
 31
0.0
  0
LINE
  5
2ED
  8
AM_VIS
 10
6.2923785551749907
 20
-56.235854907034188
 30
0.0
 11
6.2923785551749907
 21
-55.203803625034183
 31
0.0
  0
LINE
  5
2EE
  8
AM_VIS
 10
6.2923785551749907
 20
-55.203803625034183
 30
0.0
 11
5.9782759911749963
 21
-55.203803625034183
 31
0.0
  0
LINE
  5
2EF
  8
AM_VIS
 10
5.9782759911749963
 20
-55.203803625034183
 30
0.0
 11
5.9782759911749963
 21
-56.235854907034188
 31
0.0
  0
LINE
  5
2F0
  8
AM_VIS
 10
5.9782759911749963
 20
-56.235854907034188
 30
0.0
 11
4.9462247091749836
 21
-56.235854907034188
 31
0.0
  0
LINE
  5
2F1
  8
AM_VIS
 10
4.9462247091749836
 20
-56.235854907034188
 30
0.0
 11
4.9462247091749836
 21
-56.54995747103419
 31
0.0
  0
TEXT
  5
2FF
  8
0
 10
-46.109991343915098
 20
-0.4034204442556675
 30
0.0
 40
4.75
  1
SL20.310
  0
TEXT
  5
300
  8
0
 10
-49.388051906230672
 20
7.7895266020852967
 30
0.0
 40
4.5
  1
Power Supply
  0
TEXT
  5
301
  8
0
 10
-46.660696899949052
 20
15.52925927680187
 30
0.0
 40
8.5785595282085012
  1
PULS
  0
TEXT
  5
31C
  8
0
 10
-94.232471744013111
 20
-59.25181806888552
 30
0.0
 40
4.75
  1
L1
  0
TEXT
  5
31D
  8
0
 10
-84.636694260978643
 20
-59.25181806888552
 30
0.0
 40
4.75
  1
L2
  0
TEXT
  5
31E
  8
0
 10
-74.571116838734511
 20
-59.251818068885491
 30
0.0
 40
4.75
  1
L3
  0
LINE
  5
34A
  8
0
 10
-110.0301680398711
 20
61.832856709965768
 30
0.0
 11
-110.0301680398711
 21
-62.167143290034232
 31
0.0
  0
LINE
  5
34D
  8
0
 10
-277.69425476004182
 20
-0.1671432900342431
 30
0.0
 11
-277.69425476004182
 21
61.832856709965782
 31
0.0
  0
LINE
  5
34F
  8
0
 10
-254.4249838918563
 20
61.832856709965768
 30
0.0
 11
-277.69425476004182
 21
61.832856709965782
 31
0.0
  0
LINE
  5
351
  8
0
 10
-277.69425476004182
 20
-0.1671432900342431
 30
0.0
 11
-277.69425476004182
 21
-62.167143290034261
 31
0.0
  0
LINE
  5
369
  8
0
 10
39.9698319601289
 20
61.461249169965761
 30
0.0
 11
39.969831960128879
 21
-62.167143290034289
 31
0.0
  0
LINE
  5
36A
  8
0
 10
-110.0301680398711
 20
61.832856709965768
 30
0.0
 11
39.9698319601289
 21
61.83285670996581
 31
0.0
  0
LINE
  5
36C
  8
0
 10
39.9698319601289
 20
-62.167143290034289
 30
0.0
 11
-110.0301680398712
 21
-62.16714329003436
 31
0.0
  0
LINE
  5
38A
  8
0
 10
-165.22498389185631
 20
-62.167143290034232
 30
0.0
 11
-164.74174958374979
 21
-61.795535750034141
 31
0.0
  0
ENDSEC
  0
EOF
