  0
SECTION
  2
HEADER
  9
$ACADVER
  1
AC1009
  9
$INSBASE
 10
0.0
 20
0.0
 30
0.0
  9
$EXTMIN
 10
-34.183613218612891
 20
46.928673802728618
 30
0.0
  9
$EXTMAX
 10
211.29202592597471
 20
177.42867380272861
 30
0.0
  9
$LIMMIN
 10
0.0
 20
0.0
  9
$LIMMAX
 10
17.0
 20
11.0
  9
$ORTHOMODE
 70
     0
  9
$REGENMODE
 70
     1
  9
$FILLMODE
 70
     1
  9
$QTEXTMODE
 70
     0
  9
$MIRRTEXT
 70
     1
  9
$DRAGMODE
 70
     2
  9
$LTSCALE
 40
4.8000000000000034
  9
$OSMODE
 70
    39
  9
$ATTMODE
 70
     1
  9
$TEXTSIZE
 40
8.5785595282085012
  9
$TRACEWID
 40
0.05
  9
$TEXTSTYLE
  7
STANDARD
  9
$CLAYER
  8
0
  9
$CELTYPE
  6
BYLAYER
  9
$CECOLOR
 62
   256
  9
$DIMSCALE
 40
1.0
  9
$DIMASZ
 40
0.1
  9
$DIMEXO
 40
0.05
  9
$DIMDLI
 40
0.5
  9
$DIMRND
 40
0.0
  9
$DIMDLE
 40
0.0
  9
$DIMEXE
 40
0.1
  9
$DIMTP
 40
0.1
  9
$DIMTM
 40
0.1
  9
$DIMTXT
 40
0.12
  9
$DIMCEN
 40
0.0
  9
$DIMTSZ
 40
0.0
  9
$DIMTOL
 70
     0
  9
$DIMLIM
 70
     0
  9
$DIMTIH
 70
     1
  9
$DIMTOH
 70
     1
  9
$DIMSE1
 70
     0
  9
$DIMSE2
 70
     0
  9
$DIMTAD
 70
     0
  9
$DIMZIN
 70
     7
  9
$DIMBLK
  1

  9
$DIMASO
 70
     1
  9
$DIMSHO
 70
     1
  9
$DIMPOST
  1

  9
$DIMAPOST
  1
mm
  9
$DIMALT
 70
     0
  9
$DIMALTD
 70
     2
  9
$DIMALTF
 40
25.399999999999999
  9
$DIMLFAC
 40
1.0
  9
$DIMTOFL
 70
     0
  9
$DIMTVP
 40
0.0
  9
$DIMTIX
 70
     0
  9
$DIMSOXD
 70
     0
  9
$DIMSAH
 70
     0
  9
$DIMBLK1
  1

  9
$DIMBLK2
  1

  9
$DIMSTYLE
  2
AM_ANSI
  9
$DIMCLRD
 70
   256
  9
$DIMCLRE
 70
   256
  9
$DIMCLRT
 70
     2
  9
$DIMTFAC
 40
0.71
  9
$DIMGAP
 40
0.06
  9
$LUNITS
 70
     2
  9
$LUPREC
 70
     4
  9
$SKETCHINC
 40
0.1
  9
$FILLETRAD
 40
0.125
  9
$AUNITS
 70
     0
  9
$AUPREC
 70
     0
  9
$MENU
  1
.
  9
$ELEVATION
 40
0.0
  9
$PELEVATION
 40
0.0
  9
$THICKNESS
 40
0.0
  9
$LIMCHECK
 70
     0
  9
$BLIPMODE
 70
     0
  9
$CHAMFERA
 40
0.125
  9
$CHAMFERB
 40
0.125
  9
$SKPOLY
 70
     0
  9
$TDCREATE
 40
2453263.5225918628
  9
$TDUPDATE
 40
2453266.4737881478
  9
$TDINDWG
 40
0.0139384491
  9
$TDUSRTIMER
 40
0.0139382639
  9
$USRTIMER
 70
     1
  9
$ANGBASE
 50
0.0
  9
$ANGDIR
 70
     0
  9
$PDMODE
 70
     0
  9
$PDSIZE
 40
0.0
  9
$PLINEWID
 40
0.0
  9
$COORDS
 70
     1
  9
$SPLFRAME
 70
     0
  9
$SPLINETYPE
 70
     6
  9
$SPLINESEGS
 70
     8
  9
$ATTDIA
 70
     0
  9
$ATTREQ
 70
     1
  9
$HANDLING
 70
     1
  9
$HANDSEED
  5
384
  9
$SURFTAB1
 70
     6
  9
$SURFTAB2
 70
     6
  9
$SURFTYPE
 70
     6
  9
$SURFU
 70
     6
  9
$SURFV
 70
     6
  9
$UCSNAME
  2

  9
$UCSORG
 10
0.0
 20
0.0
 30
0.0
  9
$UCSXDIR
 10
1.0
 20
0.0
 30
0.0
  9
$UCSYDIR
 10
0.0
 20
1.0
 30
0.0
  9
$PUCSNAME
  2

  9
$PUCSORG
 10
0.0
 20
0.0
 30
0.0
  9
$PUCSXDIR
 10
1.0
 20
0.0
 30
0.0
  9
$PUCSYDIR
 10
0.0
 20
1.0
 30
0.0
  9
$USERI1
 70
     0
  9
$USERI2
 70
     0
  9
$USERI3
 70
     0
  9
$USERI4
 70
     0
  9
$USERI5
 70
     0
  9
$USERR1
 40
0.0
  9
$USERR2
 40
0.0
  9
$USERR3
 40
0.0
  9
$USERR4
 40
0.0
  9
$USERR5
 40
0.0
  9
$WORLDVIEW
 70
     1
  9
$SHADEDGE
 70
     3
  9
$SHADEDIF
 70
    70
  9
$TILEMODE
 70
     1
  9
$MAXACTVP
 70
    64
  9
$PLIMCHECK
 70
     0
  9
$PEXTMIN
 10
-212.8126039426536
 20
-191.05754816858749
 30
0.0
  9
$PEXTMAX
 10
71.975000000000009
 20
66.200823936319068
 30
0.0
  9
$PLIMMIN
 10
-0.2312499894870548
 20
-0.2337501931378222
  9
$PLIMMAX
 10
20.7687485687376
 20
14.76875008560541
  9
$UNITMODE
 70
     0
  9
$VISRETAIN
 70
     1
  9
$PLINEGEN
 70
     0
  9
$PSLTSCALE
 70
     1
  0
ENDSEC
  0
SECTION
  2
TABLES
  0
TABLE
  2
VPORT
 70
     2
  0
VPORT
  2
*ACTIVE
 70
     0
 10
0.0
 20
0.0
 11
1.0
 21
1.0
 12
50.718889633690189
 22
216.8960658060862
 13
0.0
 23
0.0
 14
0.125
 24
0.125
 15
1.0
 25
1.0
 16
0.0
 26
0.0
 36
1.0
 17
117.31955050059879
 27
-62.737819572293702
 37
0.0
 40
260.32687282809172
 41
1.840864440078585
 42
50.0
 43
0.0
 44
0.0
 50
0.0
 51
0.0
 71
     0
 72
   100
 73
     1
 74
     3
 75
     0
 76
     0
 77
     0
 78
     0
  0
ENDTAB
  0
TABLE
  2
LTYPE
 70
    18
  0
LTYPE
  2
CONTINUOUS
 70
     0
  3
Solid line
 72
    65
 73
     0
 40
0.0
  0
LTYPE
  2
HIDDEN
 70
     0
  3
Hidden __ __ __ __ __ __ __ __ __ __ __ __ __ _
 72
    65
 73
     2
 40
0.375
 49
0.25
 49
-0.125
  0
LTYPE
  2
PHANTOM2
 70
     0
  3
Phantom (.5x) ___ _ _ ___ _ _ ___ _ _ ___ _ _
 72
    65
 73
     6
 40
1.25
 49
0.625
 49
-0.125
 49
0.125
 49
-0.125
 49
0.125
 49
-0.125
  0
LTYPE
  2
CENTER
 70
     0
  3
Center ____ _ ____ _ ____ _ ____ _ ____ _ ____
 72
    65
 73
     4
 40
2.0
 49
1.25
 49
-0.25
 49
0.25
 49
-0.25
  0
LTYPE
  2
ASULTYPE
 70
     0
  3
Solid line
 72
    65
 73
     2
 40
3.0
 49
2.5
 49
0.5
  0
LTYPE
  2
ASVLTYPE
 70
     0
  3
__ __ __ __ __ __ __ __ __ __ __ __ __ __ __ __ __ __ __ __ __
 72
    65
 73
     2
 40
0.75
 49
0.5
 49
-0.25
  0
LTYPE
  2
AM_ISO02W050
 70
     0
  3
__ __ __ __ __ __ __ __ __ __ __ __ __ __ __
 72
    65
 73
     2
 40
7.5
 49
6.0
 49
-1.5
  0
LTYPE
  2
AM_ISO08W050
 70
     0
  3
____ . ____ . ____ . ____ . ____ . ____ . ____
 72
    65
 73
     4
 40
18.0
 49
12.0
 49
-1.5
 49
3.0
 49
-1.5
  0
LTYPE
  2
AM_ISO09W050
 70
     0
  3
_____ . . _____ . . _____ . . ____ .. ____
 72
    65
 73
     6
 40
22.5
 49
12.0
 49
-1.5
 49
3.0
 49
-1.5
 49
3.0
 49
-1.5
  0
LTYPE
  2
AMCONSTR
 70
     0
  3
_______________________
 72
    65
 73
     2
 40
9999.0
 49
9999.0
 49
0.0
  0
LTYPE
  2
AM_ISO08W050X2
 70
     0
  3
__ . __ . __ . __ . __ . __
 72
    65
 73
     4
 40
9.0
 49
6.0
 49
-0.75
 49
1.5
 49
-0.75
  0
LTYPE
  2
AM_ISO02W050X2
 70
     0
  3
 _ _ _ _ _ _ _ _ _ _ _ _
 72
    65
 73
     2
 40
3.75
 49
3.0
 49
-0.75
  0
LTYPE
  2
AMZIGZAG
 70
     0
  3
/\/-/\/-/\/-/\/-/\/-/\/
 72
    65
 73
     2
 40
11.000099999999991
 49
0.0001
 49
-11.0
  0
LTYPE
  2
CENTER2
 70
     0
  3
Center (.5x) ___ _ ___ _ ___ _ ___ _ ___ _ ___
 72
    65
 73
     4
 40
1.125
 49
0.75
 49
-0.125
 49
0.125
 49
-0.125
  0
LTYPE
  2
HIDDEN2
 70
     0
  3
Hidden (.5x) _ _ _ _ _ _ _ _ _ _ _ _ _ _ _ _ _
 72
    65
 73
     2
 40
0.1875
 49
0.125
 49
-0.0625
  0
LTYPE
  2
AMZIGZAG2
 70
     0
  3
/\/-/\/-/\/-/\/-/\/-/\/
 72
    65
 73
     2
 40
0.4401
 49
0.0001
 49
-0.4400000000000001
  0
LTYPE
  2
ACANSTGB
 70
     0
  3
__ . . __ . .
 72
    65
 73
     6
 40
0.35433070866
 49
0.15748031496
 49
-0.03937007874
 49
0.03937007874
 49
-0.03937007874
 49
0.03937007874
 49
-0.03937007874
  0
LTYPE
  2
ACANSTGL
 70
     0
  3
_ _ _ _ _
 72
    65
 73
     2
 40
0.11811023622
 49
0.07874015748
 49
-0.03937007874
  0
ENDTAB
  0
TABLE
  2
LAYER
 70
     3
  0
LAYER
  2
0
 70
     0
 62
     7
  6
CONTINUOUS
  0
LAYER
  2
AM_VIS
 70
     0
 62
     7
  6
CONTINUOUS
  0
LAYER
  2
AM_HID
 70
     0
 62
     7
  6
HIDDEN
  0
ENDTAB
  0
TABLE
  2
STYLE
 70
     4
  0
STYLE
  2
STANDARD
 70
     0
 40
0.0
 41
1.0
 50
0.0
 71
     0
 42
8.5785595282085012
  3
ROMANS.SHX
  4

  0
STYLE
  2

 70
     1
 40
0.0
 41
1.0
 50
0.0
 71
     0
 42
0.2
  3
ltypeshp.shx
  4

  0
STYLE
  2
ACANSTS
 70
     0
 40
1.0
 41
1.0
 50
0.0
 71
     0
 42
0.2
  3
romans.shx
  4

  0
STYLE
  2
ACANSGDT
 70
     0
 40
0.0
 41
1.0
 50
0.0
 71
     0
 42
0.2
  3
amgdtans.shx
  4

  0
ENDTAB
  0
TABLE
  2
VIEW
 70
     0
  0
ENDTAB
  0
TABLE
  2
UCS
 70
     0
  0
ENDTAB
  0
TABLE
  2
APPID
 70
    13
  0
APPID
  2
ACAD
 70
     0
  0
APPID
  2
GENIUS_GENDIM_13
 70
     0
  0
APPID
  2
GENIUS_GENDTOL_13
 70
     0
  0
APPID
  2
GENIUS_GE3DTOL_13
 70
     0
  0
APPID
  2
MCAD_NO_VIS
 70
     0
  0
APPID
  2
ACAD_TEMP_GRAPHIC
 70
     0
  0
APPID
  2
AD_DRAW
 70
     0
  0
APPID
  2
ACATTRIBSERVICES
 70
     0
  0
APPID
  2
ASURF_PCURVE_APPNAME
 70
     0
  0
APPID
  2
AMG_3D2D_5_0
 70
     0
  0
APPID
  2
DESIGNERASSEMBLIES
 70
     0
  0
APPID
  2
ACADM_DIM_EDIT
 70
     0
  0
APPID
  2
AMDT_DM_ADJ
 70
     0
  0
ENDTAB
  0
TABLE
  2
DIMSTYLE
 70
     6
  0
DIMSTYLE
  2
AM_ANSI
 70
     0
  3

  4
mm
  5

  6

  7

 40
1.0
 41
0.1
 42
0.05
 43
0.5
 44
0.1
 45
0.0
 46
0.0
 47
0.1
 48
0.1
140
0.12
141
0.0
142
0.0
143
25.399999999999999
144
1.0
145
0.0
146
0.71
147
0.06
 71
     0
 72
     0
 73
     1
 74
     1
 75
     0
 76
     0
 77
     0
 78
     7
170
     0
171
     2
172
     0
173
     0
174
     0
175
     0
176
   256
177
   256
178
     2
  0
DIMSTYLE
  2
AM_ANSI$3
 70
     0
  3

  4
mm
  5

  6

  7

 40
1.0
 41
0.1
 42
0.05
 43
0.5
 44
0.1
 45
0.0
 46
0.0
 47
0.1
 48
0.1
140
0.12
141
0.0
142
0.0
143
25.399999999999999
144
1.0
145
0.0
146
0.71
147
0.06
 71
     0
 72
     0
 73
     1
 74
     1
 75
     0
 76
     0
 77
     0
 78
     7
170
     0
171
     2
172
     0
173
     0
174
     0
175
     0
176
   256
177
   256
178
     2
  0
DIMSTYLE
  2
AM_ANSI$4
 70
     0
  3

  4
mm
  5

  6

  7

 40
1.0
 41
0.1
 42
0.05
 43
0.5
 44
0.1
 45
0.0
 46
0.0
 47
0.1
 48
0.1
140
0.12
141
0.0
142
0.0
143
25.399999999999999
144
1.0
145
0.0
146
0.71
147
0.06
 71
     0
 72
     0
 73
     1
 74
     1
 75
     0
 76
     0
 77
     0
 78
     7
170
     0
171
     2
172
     0
173
     0
174
     0
175
     0
176
   256
177
   256
178
     2
  0
DIMSTYLE
  2
AM_ANSI$7
 70
     0
  3

  4
mm
  5

  6

  7

 40
1.0
 41
0.1
 42
0.05
 43
0.5
 44
0.1
 45
0.0
 46
0.0
 47
0.1
 48
0.1
140
0.24
141
0.0
142
0.0
143
25.399999999999999
144
1.0
145
0.0
146
0.71
147
0.06
 71
     0
 72
     0
 73
     1
 74
     1
 75
     0
 76
     0
 77
     0
 78
     7
170
     0
171
     2
172
     0
173
     0
174
     0
175
     0
176
   256
177
   256
178
     2
  0
DIMSTYLE
  2
AM_ANSI$SF
 70
     0
  3

  4
mm
  5

  6

  7

 40
1.0
 41
0.1
 42
0.05
 43
0.5
 44
0.1
 45
0.0
 46
0.0
 47
0.1
 48
0.1
140
0.12
141
0.0
142
0.0
143
25.399999999999999
144
1.0
145
0.0
146
0.71
147
0.06
 71
     0
 72
     0
 73
     1
 74
     1
 75
     1
 76
     1
 77
     0
 78
     7
170
     0
171
     2
172
     0
173
     0
174
     0
175
     0
176
   256
177
   256
178
     2
  0
DIMSTYLE
  2
AM_ANSI$SH
 70
     0
  3

  4
mm
  5

  6
GENAXEH
  7

 40
1.0
 41
0.1
 42
0.05
 43
0.5
 44
0.1
 45
0.0
 46
0.0
 47
0.1
 48
0.1
140
0.12
141
0.0
142
0.0
143
25.399999999999999
144
1.0
145
0.0
146
0.71
147
0.06
 71
     0
 72
     0
 73
     1
 74
     1
 75
     1
 76
     1
 77
     0
 78
     7
170
     0
171
     2
172
     0
173
     1
174
     0
175
     0
176
   256
177
   256
178
     2
  0
ENDTAB
  0
ENDSEC
  0
SECTION
  2
BLOCKS
  0
BLOCK
  8
0
  2
$MODEL_SPACE
 70
     0
 10
0.0
 20
0.0
 30
0.0
  3
$MODEL_SPACE
  1

  0
ENDBLK
  5
A
  8
0
  0
BLOCK
 67
     1
  8
0
  2
$PAPER_SPACE
 70
     0
 10
0.0
 20
0.0
 30
0.0
  3
$PAPER_SPACE
  1

  0
ENDBLK
  5
F
 67
     1
  8
0
  0
BLOCK
  8
0
  2
*U0
 70
     1
 10
0.0
 20
0.0
 30
0.0
  3
*U0
  1

  0
ENDBLK
  5
2F6
  8
0
  0
BLOCK
  8
0
  2
GENAXEH
 70
     0
 10
0.0
 20
0.0
 30
0.0
  3
GENAXEH
  1

  0
LINE
  5
332
  8
0
 10
-1.0
 20
0.0
 30
0.0
 11
1.0
 21
0.0
 31
0.0
  0
ENDBLK
  5
334
  8
0
  0
ENDSEC
  0
SECTION
  2
ENTITIES
  0
LINE
  5
25
  8
AM_VIS
 10
117.3431835159746
 20
53.406965407728642
 30
0.0
 11
115.50412422597461
 21
53.406965407728642
 31
0.0
  0
LINE
  5
27
  8
AM_VIS
 10
117.3431835159746
 20
53.406965407728642
 30
0.0
 11
117.3431835159746
 21
53.762563245728629
 31
0.0
  0
LINE
  5
28
  8
AM_VIS
 10
117.3431835159746
 20
53.762563245728629
 30
0.0
 11
115.50412422597461
 21
53.762563245728629
 31
0.0
  0
LINE
  5
29
  8
AM_VIS
 10
115.50412422597461
 20
53.406965407728642
 30
0.0
 11
115.50412422597461
 21
53.762563245728629
 31
0.0
  0
LINE
  5
2A
  8
AM_VIS
 10
118.4236538709746
 20
54.788326240728637
 30
0.0
 11
114.4236538709746
 21
54.788326240728637
 31
0.0
  0
LINE
  5
2B
  8
AM_VIS
 10
118.4236538709746
 20
54.788326240728637
 30
0.0
 11
118.4236538709746
 21
55.08832624072862
 31
0.0
  0
LINE
  5
2C
  8
AM_VIS
 10
118.4236538709746
 20
55.08832624072862
 30
0.0
 11
116.54356406197461
 21
55.08832624072862
 31
0.0
  0
LINE
  5
2D
  8
AM_VIS
 10
116.54356406197461
 20
55.800412396728653
 30
0.0
 11
116.54356406197461
 21
55.08832624072862
 31
0.0
  0
LINE
  5
2E
  8
AM_VIS
 10
116.54356406197461
 20
55.800412396728653
 30
0.0
 11
116.18796622297459
 21
55.800412396728653
 31
0.0
  0
LINE
  5
2F
  8
AM_VIS
 10
116.18796622297459
 20
55.800412396728653
 30
0.0
 11
116.18796622297459
 21
55.08832624072862
 31
0.0
  0
LINE
  5
30
  8
AM_VIS
 10
116.18796622297459
 20
55.08832624072862
 30
0.0
 11
114.4236538709746
 21
55.08832624072862
 31
0.0
  0
LINE
  5
31
  8
AM_VIS
 10
114.4236538709746
 20
54.788326240728637
 30
0.0
 11
114.4236538709746
 21
55.08832624072862
 31
0.0
  0
LINE
  5
32
  8
AM_VIS
 10
118.06805603197461
 20
54.090807403728618
 30
0.0
 11
114.7792517089746
 21
54.090807403728618
 31
0.0
  0
LINE
  5
33
  8
AM_VIS
 10
118.06805603197461
 20
54.473758922728628
 30
0.0
 11
118.06805603197461
 21
54.090807403728618
 31
0.0
  0
LINE
  5
34
  8
AM_VIS
 10
118.06805603197461
 20
54.473758922728628
 30
0.0
 11
114.7792517089746
 21
54.473758922728628
 31
0.0
  0
LINE
  5
35
  8
AM_VIS
 10
114.7792517089746
 20
54.473758922728628
 30
0.0
 11
114.7792517089746
 21
54.090807403728618
 31
0.0
  0
LINE
  5
40
  8
AM_VIS
 10
192.7013641239746
 20
55.142013467728631
 30
0.0
 11
194.04751796997459
 21
55.142013467728631
 31
0.0
  0
LINE
  5
41
  8
AM_VIS
 10
192.7013641239746
 20
55.500987826728597
 30
0.0
 11
192.7013641239746
 21
55.142013467728631
 31
0.0
  0
LINE
  5
42
  8
AM_VIS
 10
194.04751796997459
 20
55.500987826728597
 30
0.0
 11
192.7013641239746
 21
55.500987826728597
 31
0.0
  0
LINE
  5
43
  8
AM_VIS
 10
194.04751796997459
 20
55.142013467728631
 30
0.0
 11
194.04751796997459
 21
55.500987826728597
 31
0.0
  0
LINE
  5
44
  8
AM_VIS
 10
199.7013641239746
 20
55.142013467728631
 30
0.0
 11
201.04751796997459
 21
55.142013467728631
 31
0.0
  0
LINE
  5
45
  8
AM_VIS
 10
199.7013641239746
 20
55.500987826728597
 30
0.0
 11
199.7013641239746
 21
55.142013467728631
 31
0.0
  0
LINE
  5
46
  8
AM_VIS
 10
201.04751796997459
 20
55.500987826728597
 30
0.0
 11
199.7013641239746
 21
55.500987826728597
 31
0.0
  0
LINE
  5
47
  8
AM_VIS
 10
201.04751796997459
 20
55.142013467728631
 30
0.0
 11
201.04751796997459
 21
55.500987826728597
 31
0.0
  0
LINE
  5
48
  8
AM_VIS
 10
184.48982566297471
 20
55.859962185728598
 30
0.0
 11
184.48982566297471
 21
55.54585962172861
 31
0.0
  0
LINE
  5
49
  8
AM_VIS
 10
185.52187694497459
 20
55.859962185728598
 30
0.0
 11
184.48982566297471
 21
55.859962185728598
 31
0.0
  0
LINE
  5
4A
  8
AM_VIS
 10
185.52187694497459
 20
56.892013467728631
 30
0.0
 11
185.52187694497459
 21
55.859962185728598
 31
0.0
  0
LINE
  5
4B
  8
AM_VIS
 10
185.83597950897459
 20
56.892013467728631
 30
0.0
 11
185.52187694497459
 21
56.892013467728631
 31
0.0
  0
LINE
  5
4C
  8
AM_VIS
 10
185.83597950897459
 20
55.859962185728598
 30
0.0
 11
185.83597950897459
 21
56.892013467728631
 31
0.0
  0
LINE
  5
4D
  8
AM_VIS
 10
186.86803079097459
 20
55.859962185728598
 30
0.0
 11
185.83597950897459
 21
55.859962185728598
 31
0.0
  0
LINE
  5
4E
  8
AM_VIS
 10
186.86803079097459
 20
55.54585962172861
 30
0.0
 11
186.86803079097459
 21
55.859962185728598
 31
0.0
  0
LINE
  5
4F
  8
AM_VIS
 10
185.83597950897459
 20
55.54585962172861
 30
0.0
 11
186.86803079097459
 21
55.54585962172861
 31
0.0
  0
LINE
  5
50
  8
AM_VIS
 10
185.83597950897459
 20
54.513808339728612
 30
0.0
 11
185.83597950897459
 21
55.54585962172861
 31
0.0
  0
LINE
  5
51
  8
AM_VIS
 10
185.52187694497459
 20
54.513808339728612
 30
0.0
 11
185.83597950897459
 21
54.513808339728612
 31
0.0
  0
LINE
  5
52
  8
AM_VIS
 10
185.52187694497459
 20
55.54585962172861
 30
0.0
 11
185.52187694497459
 21
54.513808339728612
 31
0.0
  0
LINE
  5
53
  8
AM_VIS
 10
184.48982566297471
 20
55.54585962172861
 30
0.0
 11
185.52187694497459
 21
55.54585962172861
 31
0.0
  0
LINE
  5
54
  8
AM_VIS
 10
107.6395166389746
 20
52.932578349728637
 30
0.0
 11
109.2997730489746
 21
52.932578349728637
 31
0.0
  0
LINE
  5
55
  8
AM_VIS
 10
109.2997730489746
 20
52.932578349728637
 30
0.0
 11
109.2997730489746
 21
53.291552708728638
 31
0.0
  0
LINE
  5
56
  8
AM_VIS
 10
109.2997730489746
 20
53.291552708728638
 30
0.0
 11
107.95361920297459
 21
53.291552708728638
 31
0.0
  0
LINE
  5
57
  8
AM_VIS
 10
107.95361920297459
 20
53.291552708728638
 30
0.0
 11
107.95361920297459
 21
56.432578349728637
 31
0.0
  0
LINE
  5
58
  8
AM_VIS
 10
107.95361920297459
 20
56.432578349728637
 30
0.0
 11
107.6395166389746
 21
56.432578349728637
 31
0.0
  0
LINE
  5
59
  8
AM_VIS
 10
107.6395166389746
 20
56.432578349728637
 30
0.0
 11
107.6395166389746
 21
52.932578349728637
 31
0.0
  0
LINE
  5
5A
  8
AM_VIS
 10
100.3254140749746
 20
52.932578349728637
 30
0.0
 11
100.3254140749746
 21
55.68097578572862
 31
0.0
  0
LINE
  5
5B
  8
AM_VIS
 10
100.3254140749746
 20
55.68097578572862
 30
0.0
 11
102.6321047799746
 21
52.932578349728637
 31
0.0
  0
LINE
  5
5C
  8
AM_VIS
 10
102.6321047799746
 20
52.932578349728637
 30
0.0
 11
102.70361920297459
 21
52.932578349728637
 31
0.0
  0
LINE
  5
5D
  8
AM_VIS
 10
102.70361920297459
 20
52.932578349728637
 30
0.0
 11
102.70361920297459
 21
56.432578349728637
 31
0.0
  0
LINE
  5
5E
  8
AM_VIS
 10
102.70361920297459
 20
56.432578349728637
 30
0.0
 11
102.3895166389746
 21
56.432578349728637
 31
0.0
  0
LINE
  5
5F
  8
AM_VIS
 10
102.3895166389746
 20
56.432578349728637
 30
0.0
 11
102.3895166389746
 21
53.677870817728618
 31
0.0
  0
LINE
  5
60
  8
AM_VIS
 10
102.3895166389746
 20
53.677870817728618
 30
0.0
 11
100.07721695997461
 21
56.432578349728637
 31
0.0
  0
LINE
  5
61
  8
AM_VIS
 10
100.07721695997461
 20
56.432578349728637
 30
0.0
 11
100.01131151097459
 21
56.432578349728637
 31
0.0
  0
LINE
  5
62
  8
AM_VIS
 10
100.01131151097459
 20
56.432578349728637
 30
0.0
 11
100.01131151097459
 21
52.932578349728637
 31
0.0
  0
LINE
  5
63
  8
AM_VIS
 10
100.01131151097459
 20
52.932578349728637
 30
0.0
 11
100.3254140749746
 21
52.932578349728637
 31
0.0
  0
LINE
  5
68
  8
AM_VIS
 10
161.2920259259746
 20
49.928673802728618
 30
0.0
 11
161.2920259259746
 21
46.928673802728618
 31
0.0
  0
LINE
  5
6A
  8
AM_VIS
 10
141.2920259259746
 20
46.928673802728618
 30
0.0
 11
141.2920259259746
 21
49.928673802728618
 31
0.0
  0
LINE
  5
6C
  8
AM_VIS
 10
161.2920259259746
 20
46.928673802728618
 30
0.0
 11
141.2920259259746
 21
46.928673802728618
 31
0.0
  0
LINE
  5
6E
  8
AM_VIS
 10
161.2920259259746
 20
177.42867380272861
 30
0.0
 11
161.2920259259746
 21
173.92867380272861
 31
0.0
  0
LINE
  5
70
  8
AM_VIS
 10
141.2920259259746
 20
177.42867380272861
 30
0.0
 11
161.2920259259746
 21
177.42867380272861
 31
0.0
  0
LINE
  5
72
  8
AM_VIS
 10
141.2920259259746
 20
173.92867380272861
 30
0.0
 11
141.2920259259746
 21
177.42867380272861
 31
0.0
  0
LINE
  5
75
  8
AM_VIS
 10
172.72098767497459
 20
50.428673802728632
 30
0.0
 11
204.78109696397459
 21
50.428673802728632
 31
0.0
  0
LINE
  5
76
  8
AM_VIS
 10
204.78109696397459
 20
50.428673802728632
 30
0.0
 11
204.78109696397459
 21
60.500281318728632
 31
0.0
  0
LINE
  5
77
  8
AM_VIS
 10
204.78109696397459
 20
60.500281318728632
 30
0.0
 11
172.72098767497459
 21
60.500281318728632
 31
0.0
  0
LINE
  5
78
  8
AM_VIS
 10
172.72098767497459
 20
60.500281318728632
 30
0.0
 11
172.72098767497459
 21
50.428673802728632
 31
0.0
  0
LINE
  5
7B
  8
AM_VIS
 10
95.792025925974656
 20
50.428673802728632
 30
0.0
 11
121.7920259259746
 21
50.428673802728632
 31
0.0
  0
LINE
  5
7C
  8
AM_VIS
 10
121.7920259259746
 20
50.428673802728632
 30
0.0
 11
121.7920259259746
 21
61.000281318728618
 31
0.0
  0
LINE
  5
7D
  8
AM_VIS
 10
121.7920259259746
 20
61.000281318728618
 30
0.0
 11
95.792025925974684
 21
61.000281318728618
 31
0.0
  0
LINE
  5
7E
  8
AM_VIS
 10
95.792025925974684
 20
61.000281318728618
 30
0.0
 11
95.792025925974656
 21
50.428673802728632
 31
0.0
  0
LINE
  5
7F
  8
AM_VIS
 10
122.2920258859747
 20
49.928673802728618
 30
0.0
 11
172.2209877259746
 21
49.928673802728618
 31
0.0
  0
LINE
  5
80
  8
AM_VIS
 10
95.292025885974667
 20
49.928673802728618
 30
0.0
 11
122.2920258859746
 21
49.928673802728618
 31
0.0
  0
LINE
  5
81
  8
AM_VIS
 10
91.29202592597467
 20
49.928673802728639
 30
0.0
 11
95.292025885974653
 21
49.928673802728618
 31
0.0
  0
LINE
  5
82
  8
AM_VIS
 10
205.28109692597459
 20
49.928673802728618
 30
0.0
 11
211.2920259259746
 21
49.928673802728611
 31
0.0
  0
LINE
  5
83
  8
AM_VIS
 10
172.2209877259746
 20
49.928673802728618
 30
0.0
 11
205.28109692597459
 21
49.928673802728618
 31
0.0
  0
LINE
  5
84
  8
AM_VIS
 10
211.29202592597471
 20
173.92867380272861
 30
0.0
 11
91.292025925974698
 21
173.92867380272861
 31
0.0
  0
LINE
  5
B5
  8
AM_VIS
 10
91.292025925974656
 20
50.300281342728638
 30
0.0
 11
91.292025925974656
 21
49.928673802728511
 31
0.0
  0
LINE
  5
B6
  8
AM_VIS
 10
91.292025925974698
 20
173.92867380272861
 30
0.0
 11
91.292025925974698
 21
173.5570662627286
 31
0.0
  0
LINE
  5
B7
  8
AM_VIS
 10
211.29202592597471
 20
173.92867380272861
 30
0.0
 11
211.29202592597471
 21
173.55706626272851
 31
0.0
  0
LINE
  5
B8
  8
AM_VIS
 10
211.2920259259746
 20
50.300281342728603
 30
0.0
 11
211.2920259259746
 21
49.928673802728511
 31
0.0
  0
LINE
  5
B9
  8
AM_VIS
 10
205.28109696397459
 20
50.3002813148969
 30
0.0
 11
205.28109696397459
 21
49.928673802728618
 31
0.0
  0
LINE
  5
BA
  8
AM_VIS
 10
205.28109696397459
 20
61.000281318728618
 30
0.0
 11
172.22098767497459
 21
61.000281318728618
 31
0.0
  0
LINE
  5
C6
  8
AM_VIS
 10
95.292025925974656
 20
50.300281316878241
 30
0.0
 11
95.292025925974656
 21
49.928673802728618
 31
0.0
  0
LINE
  5
C7
  8
AM_VIS
 10
122.2920259259746
 20
61.500281318728618
 30
0.0
 11
95.292025925974684
 21
61.500281318728618
 31
0.0
  0
ARC
  5
10A
  8
AM_VIS
 10
116.3931188219746
 20
54.720071616500157
 30
0.0
 40
2.1999740185349719
 50
180.00337463812281
 51
359.99662536187708
  0
ARC
  5
10B
  8
AM_VIS
 10
116.3931188219746
 20
54.719812465957098
 30
0.0
 40
2.1999740185349719
 50
0.0033746381228359
 51
179.99662536187711
  0
ARC
  5
10C
  8
AM_VIS
 10
116.3931188219746
 20
54.71994204172865
 30
0.0
 40
2.4183654309999829
 50
359.9999999999996
 51
180.0000000235041
  0
ARC
  5
10D
  8
AM_VIS
 10
116.3931188219746
 20
54.719942041728629
 30
0.0
 40
2.4183654310000118
 50
180.00000002350339
 51
0.0000000000003053
  0
LINE
  5
10E
  8
AM_VIS
 10
91.292025925974627
 20
50.300281342728717
 30
0.0
 11
91.292025925974684
 21
173.55706626272851
 31
0.0
  0
LINE
  5
10F
  8
AM_VIS
 10
211.2920259259746
 20
50.300281342728688
 30
0.0
 11
211.29202592597471
 21
173.55706626272851
 31
0.0
  0
LINE
  5
110
  8
AM_VIS
 10
172.22098767497459
 20
49.928673802728589
 30
0.0
 11
172.22098767497459
 21
50.300281318264709
 31
0.0
  0
LINE
  5
111
  8
AM_VIS
 10
122.2920259259746
 20
50.300281318264688
 30
0.0
 11
122.2920259259746
 21
49.928673802728618
 31
0.0
  0
LINE
  5
112
  8
AM_VIS
 10
205.28109696397459
 20
61.000281318728597
 30
0.0
 11
205.28109696397459
 21
50.300281314896729
 31
0.0
  0
LINE
  5
113
  8
AM_VIS
 10
172.22098767497459
 20
50.300281318848292
 30
0.0
 11
172.22098767497459
 21
61.00028131872871
 31
0.0
  0
LINE
  5
116
  8
AM_VIS
 10
95.292025925974684
 20
61.500281318728518
 30
0.0
 11
95.292025925974684
 21
50.300281316878127
 31
0.0
  0
LINE
  5
117
  8
AM_VIS
 10
122.2920259259746
 20
50.300281320034202
 30
0.0
 11
122.2920259259746
 21
61.500281318728653
 31
0.0
  0
LINE
  5
15F
  8
AM_VIS
 10
-29.183613218612891
 20
177.42867380272861
 30
0.0
 11
-29.183613218612891
 21
133.92867381391201
 31
0.0
  0
LINE
  5
160
  8
AM_HID
 10
-29.183613218612891
 20
133.92867381391201
 30
0.0
 11
-29.183613218612891
 21
130.69867380272859
 31
0.0
  0
LINE
  5
161
  8
AM_VIS
 10
-29.183613218612891
 20
130.69867380272859
 30
0.0
 11
-29.183613218612891
 21
95.104092731306935
 31
0.0
  0
LINE
  5
162
  8
AM_HID
 10
-29.183613218612891
 20
95.104092731306935
 30
0.0
 11
-29.183613218612891
 21
95.077429095728647
 31
0.0
  0
LINE
  5
163
  8
AM_VIS
 10
-24.78361321861291
 20
46.928673802728653
 30
0.0
 11
-24.78361321861291
 21
50.428673802728653
 31
0.0
  0
LINE
  5
164
  8
AM_VIS
 10
-34.183613218612891
 20
46.928673802728653
 30
0.0
 11
-24.783613218612881
 21
46.928673802728653
 31
0.0
  0
LINE
  5
165
  8
AM_HID
 10
-29.183613218612891
 20
95.077429095728647
 30
0.0
 11
-29.503576845257609
 21
95.077429095728647
 31
0.0
  0
LINE
  5
166
  8
AM_VIS
 10
-29.503576845257641
 20
95.077429095728647
 30
0.0
 11
-31.683613218612919
 21
95.077429095728647
 31
0.0
  0
LINE
  5
167
  8
AM_VIS
 10
-31.683613218612891
 20
96.926002192728674
 30
0.0
 11
-31.683613218612891
 21
95.077429095728647
 31
0.0
  0
LINE
  5
168
  8
AM_VIS
 10
-34.183613218612891
 20
95.077429095728675
 30
0.0
 11
-31.683613218612891
 21
96.926002192728674
 31
0.0
  0
LINE
  5
169
  8
AM_VIS
 10
-34.183613218612891
 20
46.928673802728653
 30
0.0
 11
-34.183613218612891
 21
95.077429095728675
 31
0.0
  0
LINE
  5
16A
  8
AM_VIS
 10
-24.78361321861291
 20
173.42867380272861
 30
0.0
 11
-24.78361321861291
 21
177.42867380272861
 31
0.0
  0
LINE
  5
16B
  8
AM_VIS
 10
-24.78361321861291
 20
177.42867380272861
 30
0.0
 11
-29.183613218612919
 21
177.42867380272861
 31
0.0
  0
LINE
  5
16C
  8
AM_VIS
 10
-33.681175984612899
 20
131.15853130272859
 30
0.0
 11
-33.035981882526009
 21
133.7393077090762
 31
0.0
  0
LINE
  5
171
  8
AM_VIS
 10
70.586386781387077
 20
61.000281318728639
 30
0.0
 11
70.586386781387077
 21
50.428673802728639
 31
0.0
  0
LINE
  5
172
  8
AM_VIS
 10
-24.28361321861291
 20
49.92867380272866
 30
0.0
 11
64.916386781387075
 21
49.928673802728639
 31
0.0
  0
LINE
  5
173
  8
AM_VIS
 10
64.916386781387118
 20
173.92867380272861
 30
0.0
 11
-24.28361321861291
 21
173.92867380272861
 31
0.0
  0
LINE
  5
174
  8
AM_VIS
 10
-23.73614470061289
 20
91.928673767468666
 30
0.0
 11
-23.73614470061289
 21
58.298673802728651
 31
0.0
  0
LINE
  5
176
  8
AM_VIS
 10
-23.73614470061289
 20
165.55867380272861
 30
0.0
 11
-23.73614470061289
 21
133.9286738307886
 31
0.0
  0
LINE
  5
177
  8
AM_VIS
 10
-28.8886403596129
 20
95.358707022728638
 30
0.0
 11
-28.8886403596129
 21
130.69867380272859
 31
0.0
  0
LINE
  5
178
  8
AM_VIS
 10
-24.78361321861291
 20
58.298673802728651
 30
0.0
 11
-24.78361321861291
 21
91.928673771275285
 31
0.0
  0
LINE
  5
17A
  8
AM_VIS
 10
-24.78361321861291
 20
133.92867382754349
 30
0.0
 11
-24.78361321861291
 21
165.55867380272861
 31
0.0
  0
LINE
  5
17B
  8
AM_VIS
 10
-23.73614470061289
 20
58.298673802728651
 30
0.0
 11
-24.78361321861291
 21
58.298673802728651
 31
0.0
  0
LINE
  5
17C
  8
AM_VIS
 10
-24.78361321861291
 20
58.298673802728651
 30
0.0
 11
-24.78361321861291
 21
50.428673802638841
 31
0.0
  0
LINE
  5
17D
  8
AM_VIS
 10
-33.459401729612921
 20
94.747777021728666
 30
0.0
 11
-29.117878989612901
 21
95.109570583728654
 31
0.0
  0
LINE
  5
17E
  8
AM_VIS
 10
-23.73614470061289
 20
91.928673802728653
 30
0.0
 11
-33.43864035961289
 21
91.928673802728667
 31
0.0
  0
LINE
  5
17F
  8
AM_VIS
 10
-33.688640359612918
 20
92.178673802728667
 30
0.0
 11
-33.688640359612918
 21
94.498640582626095
 31
0.0
  0
LINE
  5
180
  8
AM_VIS
 10
-24.78361321861291
 20
165.55867380272861
 30
0.0
 11
-23.73614470061289
 21
165.55867380272861
 31
0.0
  0
LINE
  5
181
  8
AM_VIS
 10
-32.793446257664179
 20
133.92867380272861
 30
0.0
 11
-23.73614470061289
 21
133.92867380272861
 31
0.0
  0
LINE
  5
182
  8
AM_VIS
 10
-30.3562560586129
 20
129.6265503907286
 30
0.0
 11
-32.314564061743617
 21
127.5376885205892
 31
0.0
  0
LINE
  5
183
  8
AM_VIS
 10
-33.688640359612918
 20
127.7086738027286
 30
0.0
 11
-33.688640359612918
 21
131.09789739662611
 31
0.0
  0
LINE
  5
184
  8
AM_VIS
 10
-32.49694836270907
 20
127.4586738027286
 30
0.0
 11
-33.43864035970909
 21
127.4586738027286
 31
0.0
  0
LINE
  5
185
  8
AM_VIS
 10
-30.288640359612909
 20
130.44867380272859
 30
0.0
 11
-30.288640359612909
 21
129.79753567268381
 31
0.0
  0
LINE
  5
186
  8
AM_VIS
 10
-28.8886403596129
 20
130.69867380272859
 30
0.0
 11
-30.038640359664178
 21
130.69867380272859
 31
0.0
  0
LINE
  5
187
  8
AM_VIS
 10
-24.78361321861291
 20
173.42867380272861
 30
0.0
 11
-24.78361321861291
 21
165.55867380272861
 31
0.0
  0
LINE
  5
199
  8
AM_VIS
 10
65.433695735250495
 20
50.428673802728639
 30
0.0
 11
70.586386781387077
 21
50.428673802728639
 31
0.0
  0
LINE
  5
19B
  8
AM_VIS
 10
67.980385746127226
 20
61.000281318728639
 30
0.0
 11
70.586386781387091
 21
61.000281318728639
 31
0.0
  0
ARC
  5
1BA
  8
AM_VIS
 10
64.916386799993219
 20
50.428673805868677
 30
0.0
 40
0.5000000031400523
 50
270.00000021390667
 51
345.12062389846523
  0
ARC
  5
1BB
  8
AM_VIS
 10
64.916386799993205
 20
173.42867379958849
 30
0.0
 40
0.5000000031401016
 50
14.879376101539229
 51
89.999999786089205
  0
ARC
  5
214
  8
AM_VIS
 10
-32.793446257612878
 20
133.67867380272861
 30
0.0
 40
0.2500000000000213
 50
90.000000011757351
 51
165.9637565055454
  0
ARC
  5
215
  8
AM_VIS
 10
-33.43864035961257
 20
131.0978973967286
 30
0.0
 40
0.2500000000003322
 50
165.96375658766939
 51
180.0000000234952
  0
ARC
  5
216
  8
AM_VIS
 10
-32.496948362612947
 20
127.7086738027287
 30
0.0
 40
0.2500000000000853
 50
269.99999997796709
 51
316.8476102535281
  0
ARC
  5
217
  8
AM_HID
 10
-32.496969616068007
 20
127.7087228374742
 30
0.0
 40
0.2500490336487044
 50
270.00486949327279
 51
316.84274536792759
  0
ARC
  5
218
  8
AM_VIS
 10
-24.283613218612881
 20
50.428673802728653
 30
0.0
 40
0.5000000000000124
 50
180.00000001029011
 51
269.99999999999432
  0
ARC
  5
219
  8
AM_VIS
 10
-33.43864035961294
 20
94.498640582728669
 30
0.0
 40
0.2499999999999741
 50
94.763641709756314
 51
180.00000002350819
  0
ARC
  5
21A
  8
AM_VIS
 10
-33.43864035961289
 20
92.178673802728667
 30
0.0
 40
0.2500000000000107
 50
180.00000000000321
 51
270.00000000000318
  0
ARC
  5
21B
  8
AM_VIS
 10
-29.13864035961296
 20
95.358707022728709
 30
0.0
 40
0.2500000000000377
 50
274.76364170976808
 51
359.99999999998693
  0
ARC
  5
21C
  8
AM_VIS
 10
-24.28361321861291
 20
173.42867380272861
 30
0.0
 40
0.4999999999999999
 50
89.999999999999986
 51
180.0
  0
ARC
  5
21D
  8
AM_VIS
 10
-33.43864035961289
 20
127.7086738027286
 30
0.0
 40
0.2500000000000107
 50
180.00000000000159
 51
269.99999997795572
  0
ARC
  5
21E
  8
AM_VIS
 10
-30.538640359612941
 20
129.79753567272871
 30
0.0
 40
0.2500000000000325
 50
316.84761029734602
 51
359.99999998970821
  0
ARC
  5
21F
  8
AM_VIS
 10
-30.038640359612909
 20
130.44867380272859
 30
0.0
 40
0.25
 50
90.000000011749236
 51
179.99999999999909
  0
ARC
  5
220
  8
AM_VIS
 10
-166.55433887254739
 20
111.9286738027286
 30
0.0
 40
240.0014547857489
 50
345.12071357114462
 51
14.87928642885529
  0
ARC
  5
221
  8
AM_HID
 10
64.916386781387061
 20
50.428673802728703
 30
0.0
 40
0.500000000000057
 50
270.00000000000159
 51
345.12062127454209
  0
ARC
  5
222
  8
AM_HID
 10
-166.5225959160212
 20
111.92137781324141
 30
0.0
 40
239.96890269395371
 50
345.12045099066989
 51
347.74876533498048
  0
ARC
  5
227
  8
AM_VIS
 10
-166.51970167297509
 20
111.92071691356919
 30
0.0
 40
239.96593578565449
 50
347.7487729834013
 51
347.87091008875842
  0
ARC
  5
228
  8
AM_HID
 10
-166.51970167297509
 20
111.92071691356919
 30
0.0
 40
239.96593578565449
 50
345.15214314108692
 51
347.7487729834013
  0
ARC
  5
229
  8
AM_VIS
 10
-166.51970167297509
 20
111.92071691356919
 30
0.0
 40
239.96593578565449
 50
345.12042604816662
 51
345.15214314108692
  0
TEXT
  5
341
  8
0
 10
138.08660475384039
 20
117.91001035553791
 30
0.0
 40
8.5785595282085012
  1
PULS
  0
TEXT
  5
343
  8
0
 10
135.35924974755881
 20
110.1702776808213
 30
0.0
 40
4.5
  1
Power Supply
  0
TEXT
  5
345
  8
0
 10
138.63731030987429
 20
101.9773306344804
 30
0.0
 40
4.75
  1
SL10.100
  0
TEXT
  5
346
  8
0
 10
123.26416651213709
 20
70.129437087062215
 30
0.0
 40
4.75
  1
www.puls-power.com
  0
LINE
  5
36E
  8
AM_VIS
 10
177.20027059118991
 20
55.54585962172861
 30
0.0
 11
178.23232187318999
 21
55.54585962172861
 31
0.0
  0
LINE
  5
36F
  8
AM_VIS
 10
178.23232187318999
 20
55.859962185728598
 30
0.0
 11
177.20027059118991
 21
55.859962185728598
 31
0.0
  0
LINE
  5
370
  8
AM_VIS
 10
177.20027059118991
 20
55.859962185728598
 30
0.0
 11
177.20027059118991
 21
55.54585962172861
 31
0.0
  0
LINE
  5
371
  8
AM_VIS
 10
178.23232187318999
 20
55.54585962172861
 30
0.0
 11
178.23232187318999
 21
54.513808339728612
 31
0.0
  0
LINE
  5
372
  8
AM_VIS
 10
178.23232187318999
 20
54.513808339728612
 30
0.0
 11
178.5464244371899
 21
54.513808339728612
 31
0.0
  0
LINE
  5
373
  8
AM_VIS
 10
178.5464244371899
 20
54.513808339728612
 30
0.0
 11
178.5464244371899
 21
55.54585962172861
 31
0.0
  0
LINE
  5
374
  8
AM_VIS
 10
178.5464244371899
 20
55.54585962172861
 30
0.0
 11
179.5784757191899
 21
55.54585962172861
 31
0.0
  0
LINE
  5
375
  8
AM_VIS
 10
179.5784757191899
 20
55.54585962172861
 30
0.0
 11
179.5784757191899
 21
55.859962185728598
 31
0.0
  0
LINE
  5
376
  8
AM_VIS
 10
179.5784757191899
 20
55.859962185728598
 30
0.0
 11
178.5464244371899
 21
55.859962185728598
 31
0.0
  0
LINE
  5
377
  8
AM_VIS
 10
178.5464244371899
 20
55.859962185728598
 30
0.0
 11
178.5464244371899
 21
56.892013467728631
 31
0.0
  0
LINE
  5
378
  8
AM_VIS
 10
178.5464244371899
 20
56.892013467728631
 30
0.0
 11
178.23232187318999
 21
56.892013467728631
 31
0.0
  0
LINE
  5
379
  8
AM_VIS
 10
178.23232187318999
 20
56.892013467728631
 30
0.0
 11
178.23232187318999
 21
55.859962185728598
 31
0.0
  0
ENDSEC
  0
EOF
