  0
SECTION
  2
HEADER
  9
$ACADVER
  1
AC1015
  9
$ACADMAINTVER
 70
    18
  9
$DWGCODEPAGE
  3
ANSI_1252
  9
$INSBASE
 10
0.0
 20
0.0
 30
0.0
  9
$EXTMIN
 10
0.0
 20
0.0
 30
0.0
  9
$EXTMAX
 10
279.4
 20
215.9
 30
0.0
  9
$LIMMIN
 10
0.0
 20
0.0
  9
$LIMMAX
 10
279.4
 20
215.9
  9
$ORTHOMODE
 70
     0
  9
$REGENMODE
 70
     1
  9
$FILLMODE
 70
     1
  9
$QTEXTMODE
 70
     0
  9
$MIRRTEXT
 70
     0
  9
$LTSCALE
 40
1.0
  9
$ATTMODE
 70
     1
  9
$TEXTSIZE
 40
0.2
  9
$TRACEWID
 40
0.05
  9
$TEXTSTYLE
  7
Standard
  9
$CLAYER
  8
0
  9
$CELTYPE
  6
ByLayer
  9
$CECOLOR
 62
   256
  9
$CELTSCALE
 40
1.0
  9
$DISPSILH
 70
     0
  9
$DIMSCALE
 40
1.0
  9
$DIMASZ
 40
1.799999999999999
  9
$DIMEXO
 40
0.0625
  9
$DIMDLI
 40
0.38
  9
$DIMRND
 40
0.0
  9
$DIMDLE
 40
0.0
  9
$DIMEXE
 40
0.18
  9
$DIMTP
 40
0.0
  9
$DIMTM
 40
0.0
  9
$DIMTXT
 40
0.3499999940395355
  9
$DIMCEN
 40
0.09
  9
$DIMTSZ
 40
0.0
  9
$DIMTOL
 70
     0
  9
$DIMLIM
 70
     0
  9
$DIMTIH
 70
     1
  9
$DIMTOH
 70
     1
  9
$DIMSE1
 70
     0
  9
$DIMSE2
 70
     0
  9
$DIMTAD
 70
     0
  9
$DIMZIN
 70
     0
  9
$DIMBLK
  1

  9
$DIMASO
 70
     1
  9
$DIMSHO
 70
     1
  9
$DIMPOST
  1

  9
$DIMAPOST
  1

  9
$DIMALT
 70
     0
  9
$DIMALTD
 70
     2
  9
$DIMALTF
 40
25.4
  9
$DIMLFAC
 40
1.0
  9
$DIMTOFL
 70
     0
  9
$DIMTVP
 40
0.0
  9
$DIMTIX
 70
     0
  9
$DIMSOXD
 70
     0
  9
$DIMSAH
 70
     0
  9
$DIMBLK1
  1

  9
$DIMBLK2
  1

  9
$DIMSTYLE
  2
Standard
  9
$DIMCLRD
 70
     0
  9
$DIMCLRE
 70
     0
  9
$DIMCLRT
 70
     0
  9
$DIMTFAC
 40
1.0
  9
$DIMGAP
 40
0.09
  9
$DIMJUST
 70
     0
  9
$DIMSD1
 70
     0
  9
$DIMSD2
 70
     0
  9
$DIMTOLJ
 70
     1
  9
$DIMTZIN
 70
     0
  9
$DIMALTZ
 70
     0
  9
$DIMALTTZ
 70
     0
  9
$DIMUPT
 70
     0
  9
$DIMDEC
 70
     4
  9
$DIMTDEC
 70
     4
  9
$DIMALTU
 70
     2
  9
$DIMALTTD
 70
     2
  9
$DIMTXSTY
  7
Standard
  9
$DIMAUNIT
 70
     0
  9
$DIMADEC
 70
     0
  9
$DIMALTRND
 40
0.0
  9
$DIMAZIN
 70
     0
  9
$DIMDSEP
 70
    46
  9
$DIMATFIT
 70
     3
  9
$DIMFRAC
 70
     0
  9
$DIMLDRBLK
  1

  9
$DIMLUNIT
 70
     2
  9
$DIMLWD
 70
    -2
  9
$DIMLWE
 70
    -2
  9
$DIMTMOVE
 70
     0
  9
$LUNITS
 70
     2
  9
$LUPREC
 70
     4
  9
$SKETCHINC
 40
0.1
  9
$FILLETRAD
 40
0.0
  9
$AUNITS
 70
     0
  9
$AUPREC
 70
     0
  9
$MENU
  1
.
  9
$ELEVATION
 40
0.0
  9
$PELEVATION
 40
0.0
  9
$THICKNESS
 40
0.0
  9
$LIMCHECK
 70
     0
  9
$CHAMFERA
 40
0.0
  9
$CHAMFERB
 40
0.0
  9
$CHAMFERC
 40
0.0
  9
$CHAMFERD
 40
0.0
  9
$SKPOLY
 70
     0
  9
$TDCREATE
 40
2456846.596170857
  9
$TDUCREATE
 40
2456846.512837523
  9
$TDUPDATE
 40
2456846.596170857
  9
$TDUUPDATE
 40
2456846.512837523
  9
$TDINDWG
 40
0.0000095370
  9
$TDUSRTIMER
 40
0.0000095370
  9
$USRTIMER
 70
     1
  9
$ANGBASE
 50
0.0
  9
$ANGDIR
 70
     0
  9
$PDMODE
 70
     0
  9
$PDSIZE
 40
0.0
  9
$PLINEWID
 40
0.0
  9
$SPLFRAME
 70
     0
  9
$SPLINETYPE
 70
     6
  9
$SPLINESEGS
 70
     8
  9
$HANDSEED
  5
5D1
  9
$SURFTAB1
 70
     6
  9
$SURFTAB2
 70
     6
  9
$SURFTYPE
 70
     6
  9
$SURFU
 70
     6
  9
$SURFV
 70
     6
  9
$UCSBASE
  2

  9
$UCSNAME
  2

  9
$UCSORG
 10
0.0
 20
0.0
 30
0.0
  9
$UCSXDIR
 10
1.0
 20
0.0
 30
0.0
  9
$UCSYDIR
 10
0.0
 20
1.0
 30
0.0
  9
$UCSORTHOREF
  2

  9
$UCSORTHOVIEW
 70
     0
  9
$UCSORGTOP
 10
0.0
 20
0.0
 30
0.0
  9
$UCSORGBOTTOM
 10
0.0
 20
0.0
 30
0.0
  9
$UCSORGLEFT
 10
0.0
 20
0.0
 30
0.0
  9
$UCSORGRIGHT
 10
0.0
 20
0.0
 30
0.0
  9
$UCSORGFRONT
 10
0.0
 20
0.0
 30
0.0
  9
$UCSORGBACK
 10
0.0
 20
0.0
 30
0.0
  9
$PUCSBASE
  2

  9
$PUCSNAME
  2

  9
$PUCSORG
 10
0.0
 20
0.0
 30
0.0
  9
$PUCSXDIR
 10
1.0
 20
0.0
 30
0.0
  9
$PUCSYDIR
 10
0.0
 20
1.0
 30
0.0
  9
$PUCSORTHOREF
  2

  9
$PUCSORTHOVIEW
 70
     0
  9
$PUCSORGTOP
 10
0.0
 20
0.0
 30
0.0
  9
$PUCSORGBOTTOM
 10
0.0
 20
0.0
 30
0.0
  9
$PUCSORGLEFT
 10
0.0
 20
0.0
 30
0.0
  9
$PUCSORGRIGHT
 10
0.0
 20
0.0
 30
0.0
  9
$PUCSORGFRONT
 10
0.0
 20
0.0
 30
0.0
  9
$PUCSORGBACK
 10
0.0
 20
0.0
 30
0.0
  9
$USERI1
 70
     0
  9
$USERI2
 70
     0
  9
$USERI3
 70
     0
  9
$USERI4
 70
     0
  9
$USERI5
 70
     0
  9
$USERR1
 40
0.0
  9
$USERR2
 40
0.0
  9
$USERR3
 40
0.0
  9
$USERR4
 40
0.0
  9
$USERR5
 40
0.0
  9
$WORLDVIEW
 70
     1
  9
$SHADEDGE
 70
     3
  9
$SHADEDIF
 70
    70
  9
$TILEMODE
 70
     1
  9
$MAXACTVP
 70
    64
  9
$PINSBASE
 10
0.0
 20
0.0
 30
0.0
  9
$PLIMCHECK
 70
     0
  9
$PEXTMIN
 10
0.0
 20
0.0
 30
0.0
  9
$PEXTMAX
 10
279.4
 20
215.9
 30
0.0
  9
$PLIMMIN
 10
0.0
 20
0.0
  9
$PLIMMAX
 10
279.4
 20
215.9
  9
$UNITMODE
 70
     0
  9
$VISRETAIN
 70
     1
  9
$PLINEGEN
 70
     0
  9
$PSLTSCALE
 70
     1
  9
$TREEDEPTH
 70
  3020
  9
$CMLSTYLE
  2
Standard
  9
$CMLJUST
 70
     0
  9
$CMLSCALE
 40
1.0
  9
$PROXYGRAPHICS
 70
     1
  9
$MEASUREMENT
 70
     1
  9
$CELWEIGHT
370
    -1
  9
$ENDCAPS
280
     0
  9
$JOINSTYLE
280
     0
  9
$LWDISPLAY
290
     0
  9
$INSUNITS
 70
     4
  9
$HYPERLINKBASE
  1

  9
$STYLESHEET
  1

  9
$XEDIT
290
     1
  9
$CEPSNTYPE
380
     0
  9
$PSTYLEMODE
290
     1
  9
$FINGERPRINTGUID
  2
{A9BB2592-38AE-4A4E-AD25-B2992391A1DB}
  9
$VERSIONGUID
  2
{D947F340-15B2-4E53-BF56-7FC3C9E4B27D}
  9
$EXTNAMES
290
     1
  9
$PSVPSCALE
 40
0.0
  9
$OLESTARTUP
290
     0
  0
ENDSEC
  0
SECTION
  2
CLASSES
  0
CLASS
  1
ACDBDICTIONARYWDFLT
  2
AcDbDictionaryWithDefault
  3
ObjectDBX Classes
 90
        0
280
     0
281
     0
  0
CLASS
  1
MATERIAL
  2
AcDbMaterial
  3
ObjectDBX Classes
 90
     1153
280
     0
281
     0
  0
CLASS
  1
VISUALSTYLE
  2
AcDbVisualStyle
  3
ObjectDBX Classes
 90
     4095
280
     0
281
     0
  0
CLASS
  1
SCALE
  2
AcDbScale
  3
ObjectDBX Classes
 90
     1153
280
     0
281
     0
  0
CLASS
  1
TABLESTYLE
  2
AcDbTableStyle
  3
ObjectDBX Classes
 90
     4095
280
     0
281
     0
  0
CLASS
  1
MLEADERSTYLE
  2
AcDbMLeaderStyle
  3
ACDB_MLEADERSTYLE_CLASS
 90
     4095
280
     0
281
     0
  0
CLASS
  1
DICTIONARYVAR
  2
AcDbDictionaryVar
  3
ObjectDBX Classes
 90
        0
280
     0
281
     0
  0
CLASS
  1
CELLSTYLEMAP
  2
AcDbCellStyleMap
  3
ObjectDBX Classes
 90
     1152
280
     0
281
     0
  0
CLASS
  1
ACDBPLACEHOLDER
  2
AcDbPlaceHolder
  3
ObjectDBX Classes
 90
        0
280
     0
281
     0
  0
CLASS
  1
LAYOUT
  2
AcDbLayout
  3
ObjectDBX Classes
 90
        0
280
     0
281
     0
  0
ENDSEC
  0
SECTION
  2
TABLES
  0
TABLE
  2
VPORT
  5
8
330
0
100
AcDbSymbolTable
 70
     1
  0
VPORT
  5
5F
330
8
100
AcDbSymbolTableRecord
100
AcDbViewportTableRecord
  2
*Active
 70
     0
 10
0.0
 20
0.0
 11
1.0
 21
1.0
 12
139.7
 22
107.95
 13
0.0
 23
0.0
 14
1.0
 24
1.0
 15
0.0
 25
0.0
 16
0.0
 26
0.0
 36
1.0
 17
0.0
 27
0.0
 37
0.0
 40
215.9
 41
1.294117647058823
 42
50.0
 43
0.0
 44
0.0
 50
0.0
 51
0.0
 71
     0
 72
   100
 73
     1
 74
     1
 75
     0
 76
     0
 77
     0
 78
     0
281
     0
 65
     1
110
0.0
120
0.0
130
0.0
111
1.0
121
0.0
131
0.0
112
0.0
122
1.0
132
0.0
 79
     0
146
0.0
  0
ENDTAB
  0
TABLE
  2
LTYPE
  5
5
330
0
100
AcDbSymbolTable
 70
    59
  0
LTYPE
  5
63
330
5
100
AcDbSymbolTableRecord
100
AcDbLinetypeTableRecord
  2
ByBlock
 70
     0
  3

 72
    65
 73
     0
 40
0.0
  0
LTYPE
  5
64
330
5
100
AcDbSymbolTableRecord
100
AcDbLinetypeTableRecord
  2
ByLayer
 70
     0
  3

 72
    65
 73
     0
 40
0.0
  0
LTYPE
  5
65
330
5
100
AcDbSymbolTableRecord
100
AcDbLinetypeTableRecord
  2
Continuous
 70
     0
  3
Solid line
 72
    65
 73
     0
 40
0.0
  0
LTYPE
  5
7D
330
5
100
AcDbSymbolTableRecord
100
AcDbLinetypeTableRecord
  2
Section_View_Lines
 70
     0
  3
Section View Lines
 72
    65
 73
     4
 40
0.8406
 49
0.6614
 74
     0
 49
-0.0827
 74
     0
 49
0.0138
 74
     0
 49
-0.0827
 74
     0
  0
LTYPE
  5
7E
330
5
100
AcDbSymbolTableRecord
100
AcDbLinetypeTableRecord
  2
CHAIN
 70
     0
  3
Chain ____ _ ____ _ ____ _ ____ _ ____ _ ____
 72
    65
 73
     4
 40
0.3543
 49
0.2362
 74
     0
 49
-0.0295
 74
     0
 49
0.0591
 74
     0
 49
-0.0295
 74
     0
  0
LTYPE
  5
7F
330
5
100
AcDbSymbolTableRecord
100
AcDbLinetypeTableRecord
  2
DASH_DOT
 70
     0
  3
Dash dot _._._._._._._._._._._._._._._.
 72
    65
 73
     4
 40
0.37
 49
0.24
 74
     0
 49
-0.06
 74
     0
 49
0.01
 74
     0
 49
-0.06
 74
     0
  0
LTYPE
  5
80
330
5
100
AcDbSymbolTableRecord
100
AcDbLinetypeTableRecord
  2
DASH_DOUBLE_DOT
 70
     0
  3
Dash Double Dot __ __ . __ __ . __ __ . __ _
 72
    65
 73
     6
 40
0.4398
 49
0.24
 74
     0
 49
-0.06
 74
     0
 49
0.0098
 74
     0
 49
-0.06
 74
     0
 49
0.01
 74
     0
 49
-0.06
 74
     0
  0
LTYPE
  5
81
330
5
100
AcDbSymbolTableRecord
100
AcDbLinetypeTableRecord
  2
DASH_TRIPLE_DOT
 70
     0
  3
Dash Triple-Dot _ . . . _ . . . _ . . . _
 72
    65
 73
     8
 40
0.51
 49
0.24
 74
     0
 49
-0.06
 74
     0
 49
0.01
 74
     0
 49
-0.06
 74
     0
 49
0.01
 74
     0
 49
-0.06
 74
     0
 49
0.01
 74
     0
 49
-0.06
 74
     0
  0
LTYPE
  5
82
330
5
100
AcDbSymbolTableRecord
100
AcDbLinetypeTableRecord
  2
DASHED
 70
     0
  3
Dashed __ __ __ __ __ __ __ __ __ __ __ __ __ _
 72
    65
 73
     2
 40
0.2067
 49
0.1654
 74
     0
 49
-0.0413
 74
     0
  0
LTYPE
  5
83
330
5
100
AcDbSymbolTableRecord
100
AcDbLinetypeTableRecord
  2
DASHED_SPACE
 70
     0
  3
Dashed Space _._._._._._._._._._._._._._._.
 72
    65
 73
     2
 40
0.2067
 49
0.1654
 74
     0
 49
-0.0413
 74
     0
  0
LTYPE
  5
84
330
5
100
AcDbSymbolTableRecord
100
AcDbLinetypeTableRecord
  2
DOTTED
 70
     0
  3
Dotted . . . . . . . . . . . . . . . . . . . . 
 72
    65
 73
     2
 40
0.0482
 49
0.0069
 74
     0
 49
-0.0413
 74
     0
  0
LTYPE
  5
85
330
5
100
AcDbSymbolTableRecord
100
AcDbLinetypeTableRecord
  2
DOUBLE_DASH_CHAIN
 70
     0
  3
Double Dash Chain ___ _ _ ___ _ _ ___ _ _ ___ _
 72
    65
 73
     6
 40
1.240299999999999
 49
0.6614
 74
     0
 49
-0.0827
 74
     0
 49
0.1654
 74
     0
 49
-0.0827
 74
     0
 49
0.1654
 74
     0
 49
-0.0827
 74
     0
  0
LTYPE
  5
86
330
5
100
AcDbSymbolTableRecord
100
AcDbLinetypeTableRecord
  2
DOUBLE_DASH_DOT
 70
     0
  3
Double Dash Dot __ __ . __ __ . __ __ . __ _
 72
    65
 73
     6
 40
0.67
 49
0.24
 74
     0
 49
-0.06
 74
     0
 49
0.24
 74
     0
 49
-0.06
 74
     0
 49
0.01
 74
     0
 49
-0.06
 74
     0
  0
LTYPE
  5
87
330
5
100
AcDbSymbolTableRecord
100
AcDbLinetypeTableRecord
  2
DOUBLE_DASH_DOUBLE_DOT
 70
     0
  3
Double-dash double-dot _ _ . . _ _ . . _
 72
    65
 73
     8
 40
0.7400000000000001
 49
0.24
 74
     0
 49
-0.06
 74
     0
 49
0.24
 74
     0
 49
-0.06
 74
     0
 49
0.01
 74
     0
 49
-0.06
 74
     0
 49
0.01
 74
     0
 49
-0.06
 74
     0
  0
LTYPE
  5
88
330
5
100
AcDbSymbolTableRecord
100
AcDbLinetypeTableRecord
  2
DOUBLE_DASH_TRIPLE_DOT
 70
     0
  3
Double Dash Triple Dot __ __ . . . __ __ . . .
 72
    65
 73
    10
 40
0.8100000000000001
 49
0.24
 74
     0
 49
-0.06
 74
     0
 49
0.24
 74
     0
 49
-0.06
 74
     0
 49
0.01
 74
     0
 49
-0.06
 74
     0
 49
0.01
 74
     0
 49
-0.06
 74
     0
 49
0.01
 74
     0
 49
-0.06
 74
     0
  0
LTYPE
  5
89
330
5
100
AcDbSymbolTableRecord
100
AcDbLinetypeTableRecord
  2
LONG_DASH_DOTTED
 70
     0
  3
Long-Dash Dot ____ . ____ . ____ . ____ . _
 72
    65
 73
     4
 40
0.3001
 49
0.2362
 74
     0
 49
-0.0295
 74
     0
 49
0.0049
 74
     0
 49
-0.0295
 74
     0
  0
LTYPE
  5
8A
330
5
100
AcDbSymbolTableRecord
100
AcDbLinetypeTableRecord
  2
LONG_DASH_DOUBLE_DOT
 70
     0
  3
Long Dash Double Dot ____ . . ____ . . ____ . .
 72
    65
 73
     6
 40
0.3345
 49
0.2362
 74
     0
 49
-0.0295
 74
     0
 49
0.0049
 74
     0
 49
-0.0295
 74
     0
 49
0.0049
 74
     0
 49
-0.0295
 74
     0
  0
LTYPE
  5
8B
330
5
100
AcDbSymbolTableRecord
100
AcDbLinetypeTableRecord
  2
LONG_DASH_TRIPLE_DOT
 70
     0
  3
Long Dash Triple Dot ____ ... ____ ... ____
 72
    65
 73
     8
 40
0.75
 49
0.48
 74
     0
 49
-0.06
 74
     0
 49
0.01
 74
     0
 49
-0.06
 74
     0
 49
0.01
 74
     0
 49
-0.06
 74
     0
 49
0.01
 74
     0
 49
-0.06
 74
     0
  0
LTYPE
  5
8C
330
5
100
AcDbSymbolTableRecord
100
AcDbLinetypeTableRecord
  2
BORDER
 70
     0
  3
Border __ __ . __ __ . __ __ . __ __ . __ __ .
 72
    65
 73
     6
 40
44.45
 49
12.7
 74
     0
 49
-6.349999999999999
 74
     0
 49
12.7
 74
     0
 49
-6.349999999999999
 74
     0
 49
0.0
 74
     0
 49
-6.349999999999999
 74
     0
  0
LTYPE
  5
8D
330
5
100
AcDbSymbolTableRecord
100
AcDbLinetypeTableRecord
  2
BORDER2
 70
     0
  3
Border (.5x) __.__.__.__.__.__.__.__.__.__.__.
 72
    65
 73
     6
 40
22.225
 49
6.349999999999999
 74
     0
 49
-3.174999999999999
 74
     0
 49
6.349999999999999
 74
     0
 49
-3.174999999999999
 74
     0
 49
0.0
 74
     0
 49
-3.174999999999999
 74
     0
  0
LTYPE
  5
8E
330
5
100
AcDbSymbolTableRecord
100
AcDbLinetypeTableRecord
  2
BORDERX2
 70
     0
  3
Border (2x) ____  ____  .  ____  ____  .  ___
 72
    65
 73
     6
 40
88.9
 49
25.4
 74
     0
 49
-12.7
 74
     0
 49
25.4
 74
     0
 49
-12.7
 74
     0
 49
0.0
 74
     0
 49
-12.7
 74
     0
  0
LTYPE
  5
8F
330
5
100
AcDbSymbolTableRecord
100
AcDbLinetypeTableRecord
  2
CENTER
 70
     0
  3
Center ____ _ ____ _ ____ _ ____ _ ____ _ ____
 72
    65
 73
     4
 40
50.8
 49
31.75
 74
     0
 49
-6.349999999999999
 74
     0
 49
6.349999999999999
 74
     0
 49
-6.349999999999999
 74
     0
  0
LTYPE
  5
90
330
5
100
AcDbSymbolTableRecord
100
AcDbLinetypeTableRecord
  2
CENTER2
 70
     0
  3
Center (.5x) ___ _ ___ _ ___ _ ___ _ ___ _ ___
 72
    65
 73
     4
 40
28.575
 49
19.05
 74
     0
 49
-3.174999999999999
 74
     0
 49
3.174999999999999
 74
     0
 49
-3.174999999999999
 74
     0
  0
LTYPE
  5
91
330
5
100
AcDbSymbolTableRecord
100
AcDbLinetypeTableRecord
  2
CENTERX2
 70
     0
  3
Center (2x) ________  __  ________  __  _____
 72
    65
 73
     4
 40
101.6
 49
63.5
 74
     0
 49
-12.7
 74
     0
 49
12.7
 74
     0
 49
-12.7
 74
     0
  0
LTYPE
  5
92
330
5
100
AcDbSymbolTableRecord
100
AcDbLinetypeTableRecord
  2
DASHDOT2
 70
     0
  3
Dash dot (.5x) _._._._._._._._._._._._._._._.
 72
    65
 73
     4
 40
12.7
 49
6.349999999999999
 74
     0
 49
-3.174999999999999
 74
     0
 49
0.0
 74
     0
 49
-3.174999999999999
 74
     0
  0
LTYPE
  5
93
330
5
100
AcDbSymbolTableRecord
100
AcDbLinetypeTableRecord
  2
DASHDOTX2
 70
     0
  3
Dash dot (2x) ____  .  ____  .  ____  .  ___
 72
    65
 73
     4
 40
50.8
 49
25.4
 74
     0
 49
-12.7
 74
     0
 49
0.0
 74
     0
 49
-12.7
 74
     0
  0
LTYPE
  5
94
330
5
100
AcDbSymbolTableRecord
100
AcDbLinetypeTableRecord
  2
DASHED2
 70
     0
  3
Dashed (.5x) _ _ _ _ _ _ _ _ _ _ _ _ _ _ _ _ _
 72
    65
 73
     2
 40
9.524999999999998
 49
6.349999999999999
 74
     0
 49
-3.174999999999999
 74
     0
  0
LTYPE
  5
95
330
5
100
AcDbSymbolTableRecord
100
AcDbLinetypeTableRecord
  2
DASHEDX2
 70
     0
  3
Dashed (2x) ____  ____  ____  ____  ____  ___
 72
    65
 73
     2
 40
38.1
 49
25.4
 74
     0
 49
-12.7
 74
     0
  0
LTYPE
  5
96
330
5
100
AcDbSymbolTableRecord
100
AcDbLinetypeTableRecord
  2
DIVIDE
 70
     0
  3
Divide ____ . . ____ . . ____ . . ____ . . ____
 72
    65
 73
     6
 40
31.75
 49
12.7
 74
     0
 49
-6.349999999999999
 74
     0
 49
0.0
 74
     0
 49
-6.349999999999999
 74
     0
 49
0.0
 74
     0
 49
-6.349999999999999
 74
     0
  0
LTYPE
  5
97
330
5
100
AcDbSymbolTableRecord
100
AcDbLinetypeTableRecord
  2
DIVIDE2
 70
     0
  3
Divide (.5x) __..__..__..__..__..__..__..__.._
 72
    65
 73
     6
 40
15.875
 49
6.349999999999999
 74
     0
 49
-3.174999999999999
 74
     0
 49
0.0
 74
     0
 49
-3.174999999999999
 74
     0
 49
0.0
 74
     0
 49
-3.174999999999999
 74
     0
  0
LTYPE
  5
98
330
5
100
AcDbSymbolTableRecord
100
AcDbLinetypeTableRecord
  2
DIVIDEX2
 70
     0
  3
Divide (2x) ________  .  .  ________  .  .  _
 72
    65
 73
     6
 40
63.49999999999999
 49
25.4
 74
     0
 49
-12.7
 74
     0
 49
0.0
 74
     0
 49
-12.7
 74
     0
 49
0.0
 74
     0
 49
-12.7
 74
     0
  0
LTYPE
  5
99
330
5
100
AcDbSymbolTableRecord
100
AcDbLinetypeTableRecord
  2
DOT
 70
     0
  3
Dot . . . . . . . . . . . . . . . . . . . . . .
 72
    65
 73
     2
 40
6.349999999999999
 49
0.0
 74
     0
 49
-6.349999999999999
 74
     0
  0
LTYPE
  5
9A
330
5
100
AcDbSymbolTableRecord
100
AcDbLinetypeTableRecord
  2
DOT2
 70
     0
  3
Dot (.5x) .....................................
 72
    65
 73
     2
 40
3.174999999999999
 49
0.0
 74
     0
 49
-3.174999999999999
 74
     0
  0
LTYPE
  5
9B
330
5
100
AcDbSymbolTableRecord
100
AcDbLinetypeTableRecord
  2
DOTX2
 70
     0
  3
Dot (2x) .  .  .  .  .  .  .  .  .  .  .  .  . 
 72
    65
 73
     2
 40
12.7
 49
0.0
 74
     0
 49
-12.7
 74
     0
  0
LTYPE
  5
9C
330
5
100
AcDbSymbolTableRecord
100
AcDbLinetypeTableRecord
  2
HIDDEN
 70
     0
  3
Hidden __ __ __ __ __ __ __ __ __ __ __ __ __ _
 72
    65
 73
     2
 40
9.524999999999998
 49
6.349999999999999
 74
     0
 49
-3.174999999999999
 74
     0
  0
LTYPE
  5
9D
330
5
100
AcDbSymbolTableRecord
100
AcDbLinetypeTableRecord
  2
HIDDEN2
 70
     0
  3
Hidden (.5x) _ _ _ _ _ _ _ _ _ _ _ _ _ _ _ _ _
 72
    65
 73
     2
 40
4.762499999999999
 49
3.174999999999999
 74
     0
 49
-1.587499999999999
 74
     0
  0
LTYPE
  5
9E
330
5
100
AcDbSymbolTableRecord
100
AcDbLinetypeTableRecord
  2
HIDDENX2
 70
     0
  3
Hidden (2x) ____ ____ ____ ____ ____ ____ ____
 72
    65
 73
     2
 40
19.05
 49
12.7
 74
     0
 49
-6.349999999999999
 74
     0
  0
LTYPE
  5
9F
330
5
100
AcDbSymbolTableRecord
100
AcDbLinetypeTableRecord
  2
PHANTOM
 70
     0
  3
Phantom ______  __  __  ______  __  __  ______
 72
    65
 73
     6
 40
63.5
 49
31.75
 74
     0
 49
-6.349999999999999
 74
     0
 49
6.349999999999999
 74
     0
 49
-6.349999999999999
 74
     0
 49
6.349999999999999
 74
     0
 49
-6.349999999999999
 74
     0
  0
LTYPE
  5
A0
330
5
100
AcDbSymbolTableRecord
100
AcDbLinetypeTableRecord
  2
PHANTOM2
 70
     0
  3
Phantom (.5x) ___ _ _ ___ _ _ ___ _ _ ___ _ _
 72
    65
 73
     6
 40
31.75
 49
15.875
 74
     0
 49
-3.174999999999999
 74
     0
 49
3.174999999999999
 74
     0
 49
-3.174999999999999
 74
     0
 49
3.174999999999999
 74
     0
 49
-3.174999999999999
 74
     0
  0
LTYPE
  5
A1
330
5
100
AcDbSymbolTableRecord
100
AcDbLinetypeTableRecord
  2
PHANTOMX2
 70
     0
  3
Phantom (2x) ____________    ____    ____   _
 72
    65
 73
     6
 40
127.0
 49
63.5
 74
     0
 49
-12.7
 74
     0
 49
12.7
 74
     0
 49
-12.7
 74
     0
 49
12.7
 74
     0
 49
-12.7
 74
     0
  0
LTYPE
  5
A2
330
5
100
AcDbSymbolTableRecord
100
AcDbLinetypeTableRecord
  2
ACAD_ISO02W100
 70
     0
  3
ISO dash __ __ __ __ __ __ __ __ __ __ __ __ __
 72
    65
 73
     2
 40
15.0
 49
12.0
 74
     0
 49
-3.0
 74
     0
  0
LTYPE
  5
A3
330
5
100
AcDbSymbolTableRecord
100
AcDbLinetypeTableRecord
  2
ACAD_ISO03W100
 70
     0
  3
ISO dash space __    __    __    __    __    __
 72
    65
 73
     2
 40
30.0
 49
12.0
 74
     0
 49
-18.0
 74
     0
  0
LTYPE
  5
A4
330
5
100
AcDbSymbolTableRecord
100
AcDbLinetypeTableRecord
  2
ACAD_ISO04W100
 70
     0
  3
ISO long-dash dot ____ . ____ . ____ . ____ . _
 72
    65
 73
     4
 40
30.0
 49
24.0
 74
     0
 49
-3.0
 74
     0
 49
0.0
 74
     0
 49
-3.0
 74
     0
  0
LTYPE
  5
A5
330
5
100
AcDbSymbolTableRecord
100
AcDbLinetypeTableRecord
  2
ACAD_ISO05W100
 70
     0
  3
ISO long-dash double-dot ____ .. ____ .. ____ .
 72
    65
 73
     6
 40
33.0
 49
24.0
 74
     0
 49
-3.0
 74
     0
 49
0.0
 74
     0
 49
-3.0
 74
     0
 49
0.0
 74
     0
 49
-3.0
 74
     0
  0
LTYPE
  5
A6
330
5
100
AcDbSymbolTableRecord
100
AcDbLinetypeTableRecord
  2
ACAD_ISO06W100
 70
     0
  3
ISO long-dash triple-dot ____ ... ____ ... ____
 72
    65
 73
     8
 40
36.0
 49
24.0
 74
     0
 49
-3.0
 74
     0
 49
0.0
 74
     0
 49
-3.0
 74
     0
 49
0.0
 74
     0
 49
-3.0
 74
     0
 49
0.0
 74
     0
 49
-3.0
 74
     0
  0
LTYPE
  5
A7
330
5
100
AcDbSymbolTableRecord
100
AcDbLinetypeTableRecord
  2
ACAD_ISO07W100
 70
     0
  3
ISO dot . . . . . . . . . . . . . . . . . . . .
 72
    65
 73
     2
 40
3.0
 49
0.0
 74
     0
 49
-3.0
 74
     0
  0
LTYPE
  5
A8
330
5
100
AcDbSymbolTableRecord
100
AcDbLinetypeTableRecord
  2
ACAD_ISO08W100
 70
     0
  3
ISO long-dash short-dash ____ __ ____ __ ____ _
 72
    65
 73
     4
 40
36.0
 49
24.0
 74
     0
 49
-3.0
 74
     0
 49
6.0
 74
     0
 49
-3.0
 74
     0
  0
LTYPE
  5
A9
330
5
100
AcDbSymbolTableRecord
100
AcDbLinetypeTableRecord
  2
ACAD_ISO09W100
 70
     0
  3
ISO long-dash double-short-dash ____ __ __ ____
 72
    65
 73
     6
 40
45.0
 49
24.0
 74
     0
 49
-3.0
 74
     0
 49
6.0
 74
     0
 49
-3.0
 74
     0
 49
6.0
 74
     0
 49
-3.0
 74
     0
  0
LTYPE
  5
AA
330
5
100
AcDbSymbolTableRecord
100
AcDbLinetypeTableRecord
  2
ACAD_ISO10W100
 70
     0
  3
ISO dash dot __ . __ . __ . __ . __ . __ . __ .
 72
    65
 73
     4
 40
18.0
 49
12.0
 74
     0
 49
-3.0
 74
     0
 49
0.0
 74
     0
 49
-3.0
 74
     0
  0
LTYPE
  5
AB
330
5
100
AcDbSymbolTableRecord
100
AcDbLinetypeTableRecord
  2
ACAD_ISO11W100
 70
     0
  3
ISO double-dash dot __ __ . __ __ . __ __ . __ 
 72
    65
 73
     6
 40
33.0
 49
12.0
 74
     0
 49
-3.0
 74
     0
 49
12.0
 74
     0
 49
-3.0
 74
     0
 49
0.0
 74
     0
 49
-3.0
 74
     0
  0
LTYPE
  5
AC
330
5
100
AcDbSymbolTableRecord
100
AcDbLinetypeTableRecord
  2
ACAD_ISO12W100
 70
     0
  3
ISO dash double-dot __ . . __ . . __ . . __ . .
 72
    65
 73
     6
 40
21.0
 49
12.0
 74
     0
 49
-3.0
 74
     0
 49
0.0
 74
     0
 49
-3.0
 74
     0
 49
0.0
 74
     0
 49
-3.0
 74
     0
  0
LTYPE
  5
AD
330
5
100
AcDbSymbolTableRecord
100
AcDbLinetypeTableRecord
  2
ACAD_ISO13W100
 70
     0
  3
ISO double-dash double-dot __ __ . . __ __ . . 
 72
    65
 73
     8
 40
36.0
 49
12.0
 74
     0
 49
-3.0
 74
     0
 49
12.0
 74
     0
 49
-3.0
 74
     0
 49
0.0
 74
     0
 49
-3.0
 74
     0
 49
0.0
 74
     0
 49
-3.0
 74
     0
  0
LTYPE
  5
AE
330
5
100
AcDbSymbolTableRecord
100
AcDbLinetypeTableRecord
  2
ACAD_ISO14W100
 70
     0
  3
ISO dash triple-dot __ . . . __ . . . __ . . . 
 72
    65
 73
     8
 40
24.0
 49
12.0
 74
     0
 49
-3.0
 74
     0
 49
0.0
 74
     0
 49
-3.0
 74
     0
 49
0.0
 74
     0
 49
-3.0
 74
     0
 49
0.0
 74
     0
 49
-3.0
 74
     0
  0
LTYPE
  5
AF
330
5
100
AcDbSymbolTableRecord
100
AcDbLinetypeTableRecord
  2
ACAD_ISO15W100
 70
     0
  3
ISO double-dash triple-dot __ __ . . . __ __ . 
 72
    65
 73
    10
 40
39.0
 49
12.0
 74
     0
 49
-3.0
 74
     0
 49
12.0
 74
     0
 49
-3.0
 74
     0
 49
0.0
 74
     0
 49
-3.0
 74
     0
 49
0.0
 74
     0
 49
-3.0
 74
     0
 49
0.0
 74
     0
 49
-3.0
 74
     0
  0
LTYPE
  5
B2
330
5
100
AcDbSymbolTableRecord
100
AcDbLinetypeTableRecord
  2
FENCELINE1
 70
     0
  3
Fenceline circle ----0-----0----0-----0----0---
 72
    65
 73
     4
 40
36.83
 49
6.349999999999999
 74
     0
 49
-2.54
 74
     4
 75
   133
340
B1
 46
2.54
 50
0.0
 44
-2.54
 45
0.0
 49
-2.54
 74
     0
 49
25.4
 74
     0
  0
LTYPE
  5
B3
330
5
100
AcDbSymbolTableRecord
100
AcDbLinetypeTableRecord
  2
FENCELINE2
 70
     0
  3
Fenceline square ----[]-----[]----[]-----[]----
 72
    65
 73
     4
 40
36.83
 49
6.349999999999999
 74
     0
 49
-2.54
 74
     4
 75
   132
340
B1
 46
2.54
 50
0.0
 44
-2.54
 45
0.0
 49
-2.54
 74
     0
 49
25.4
 74
     0
  0
LTYPE
  5
B4
330
5
100
AcDbSymbolTableRecord
100
AcDbLinetypeTableRecord
  2
TRACKS
 70
     0
  3
Tracks -|-|-|-|-|-|-|-|-|-|-|-|-|-|-|-|-|-|-|-|
 72
    65
 73
     2
 40
7.62
 49
3.81
 74
     4
 75
   130
340
B1
 46
6.349999999999999
 50
0.0
 44
0.0
 45
0.0
 49
3.81
 74
     0
  0
LTYPE
  5
B5
330
5
100
AcDbSymbolTableRecord
100
AcDbLinetypeTableRecord
  2
BATTING
 70
     0
  3
Batting SSSSSSSSSSSSSSSSSSSSSSSSSSSSSSSSSSSSSSS
 72
    65
 73
     4
 40
10.16254
 49
0.00254
 74
     0
 49
-2.54
 74
     4
 75
   134
340
B1
 46
2.54
 50
0.0
 44
-2.54
 45
0.0
 49
-5.08
 74
     4
 75
   134
340
B1
 46
2.54
 50
180.0
 44
2.54
 45
0.0
 49
-2.54
 74
     0
  0
LTYPE
  5
B6
330
5
100
AcDbSymbolTableRecord
100
AcDbLinetypeTableRecord
  2
HOT_WATER_SUPPLY
 70
     0
  3
Hot water supply ---- HW ---- HW ---- HW ----
 72
    65
 73
     3
 40
22.86
 49
12.7
 74
     0
 49
-5.08
 74
     2
 75
     0
340
5D
 46
2.54
 50
0.0
 44
-2.54
 45
-1.27
  9
HW
 49
-5.08
 74
     0
  0
LTYPE
  5
B7
330
5
100
AcDbSymbolTableRecord
100
AcDbLinetypeTableRecord
  2
GAS_LINE
 70
     0
  3
Gas line ----GAS----GAS----GAS----GAS----GAS---
 72
    65
 73
     3
 40
24.13
 49
12.7
 74
     0
 49
-5.08
 74
     2
 75
     0
340
5D
 46
2.54
 50
0.0
 44
-2.54
 45
-1.27
  9
GAS
 49
-6.349999999999999
 74
     0
  0
LTYPE
  5
B8
330
5
100
AcDbSymbolTableRecord
100
AcDbLinetypeTableRecord
  2
ZIGZAG
 70
     0
  3
Zig zag /\/\/\/\/\/\/\/\/\/\/\/\/\/\/\/\/\/\/\/
 72
    65
 73
     4
 40
20.32254
 49
0.00254
 74
     0
 49
-5.08
 74
     4
 75
   131
340
B1
 46
5.08
 50
0.0
 44
-5.08
 45
0.0
 49
-10.16
 74
     4
 75
   131
340
B1
 46
5.08
 50
180.0
 44
5.08
 45
0.0
 49
-5.08
 74
     0
  0
ENDTAB
  0
TABLE
  2
LAYER
  5
2
330
0
100
AcDbSymbolTable
 70
    25
  0
LAYER
  5
5C
330
2
100
AcDbSymbolTableRecord
100
AcDbLayerTableRecord
  2
0
 70
     0
 62
     7
  6
Continuous
370
    -3
390
F
  0
LAYER
  5
C8
330
2
100
AcDbSymbolTableRecord
100
AcDbLayerTableRecord
  2
Sketch Geometry (ISO)
 70
     0
 62
     7
  6
Continuous
370
    25
390
F
  0
LAYER
  5
C9
330
2
100
AcDbSymbolTableRecord
100
AcDbLayerTableRecord
  2
Symbol (ISO)
 70
     0
 62
     7
  6
Continuous
370
    25
390
F
  0
LAYER
  5
CC
330
2
100
AcDbSymbolTableRecord
100
AcDbLayerTableRecord
  2
Visible (ISO)
 70
     0
 62
     7
  6
Continuous
370
    50
390
F
  0
LAYER
  5
CD
330
2
100
AcDbSymbolTableRecord
100
AcDbLayerTableRecord
  2
Visible Narrow (ISO)
 70
     0
 62
     7
  6
Continuous
370
    35
390
F
  0
ENDTAB
  0
TABLE
  2
STYLE
  5
3
330
0
100
AcDbSymbolTable
 70
    17
  0
STYLE
  5
5D
330
3
100
AcDbSymbolTableRecord
100
AcDbTextStyleTableRecord
  2
Standard
 70
     0
 40
0.0
 41
1.0
 50
0.0
 71
     0
 42
0.2
  3
isocpeur.ttf
  4

1001
ACAD
1000
ISOCPEUR
1071
      256
  0
STYLE
  5
62
330
3
100
AcDbSymbolTableRecord
100
AcDbTextStyleTableRecord
  2
Annotative
 70
     0
 40
0.0
 41
1.0
 50
0.0
 71
     0
 42
0.2
  3
txt
  4

1001
AcadAnnotative
1000
AnnotativeData
1002
{
1070
     1
1070
     1
1002
}
  0
STYLE
  5
B1
330
3
100
AcDbSymbolTableRecord
100
AcDbTextStyleTableRecord
  2

 70
     1
 40
0.0
 41
1.0
 50
0.0
 71
     0
 42
0.2
  3
ltypeshp.shx
  4

  0
STYLE
  5
D1
330
3
100
AcDbSymbolTableRecord
100
AcDbTextStyleTableRecord
  2
Alternative Text (GOST)
 70
     0
 40
0.0
 41
0.8000000119209289
 50
0.0
 71
     0
 42
0.2
  3
arial.ttf
  4

1001
ACAD
1000
Arial
1071
      256
  0
STYLE
  5
D2
330
3
100
AcDbSymbolTableRecord
100
AcDbTextStyleTableRecord
  2
Condensed Text (GOST)
 70
     0
 40
0.0
 41
0.8000000119209289
 50
0.0
 71
     0
 42
0.2
  3
GOST Common.ttf
  4

1001
ACAD
1000
GOST Common
1071
      256
  0
STYLE
  5
D3
330
3
100
AcDbSymbolTableRecord
100
AcDbTextStyleTableRecord
  2
Enlarged Text (GOST)
 70
     0
 40
0.0
 41
1.0
 50
0.0
 71
     0
 42
0.2
  3
GOST Common.ttf
  4

1001
ACAD
1000
GOST Common
1071
      256
  0
STYLE
  5
D4
330
3
100
AcDbSymbolTableRecord
100
AcDbTextStyleTableRecord
  2
Label Text (ANSI)
 70
     0
 40
0.0
 41
1.0
 50
0.0
 71
     0
 42
0.2
  3
tahoma.ttf
  4

1001
ACAD
1000
Tahoma
1071
      256
  0
STYLE
  5
D5
330
3
100
AcDbSymbolTableRecord
100
AcDbTextStyleTableRecord
  2
Label Text (DIN)
 70
     0
 40
0.0
 41
1.0
 50
0.0
 71
     0
 42
0.2
  3
isocpeur.ttf
  4

1001
ACAD
1000
ISOCPEUR
1071
      256
  0
STYLE
  5
D6
330
3
100
AcDbSymbolTableRecord
100
AcDbTextStyleTableRecord
  2
Label Text (ISO)
 70
     0
 40
0.0
 41
1.0
 50
0.0
 71
     0
 42
0.2
  3
tahoma.ttf
  4

1001
ACAD
1000
Tahoma
1071
      256
  0
STYLE
  5
D7
330
3
100
AcDbSymbolTableRecord
100
AcDbTextStyleTableRecord
  2
Label Text (JIS)
 70
     0
 40
0.0
 41
1.0
 50
0.0
 71
     0
 42
0.2
  3
tahoma.ttf
  4

1001
ACAD
1000
Tahoma
1071
      256
  0
STYLE
  5
D8
330
3
100
AcDbSymbolTableRecord
100
AcDbTextStyleTableRecord
  2
Note Text (ANSI)
 70
     0
 40
0.0
 41
1.0
 50
0.0
 71
     0
 42
0.2
  3
tahoma.ttf
  4

1001
ACAD
1000
Tahoma
1071
      256
  0
STYLE
  5
D9
330
3
100
AcDbSymbolTableRecord
100
AcDbTextStyleTableRecord
  2
Note Text (DIN)
 70
     0
 40
0.0
 41
1.0
 50
0.0
 71
     0
 42
0.2
  3
isocpeur.ttf
  4

1001
ACAD
1000
ISOCPEUR
1071
      256
  0
STYLE
  5
DA
330
3
100
AcDbSymbolTableRecord
100
AcDbTextStyleTableRecord
  2
Note Text (ISO)
 70
     0
 40
0.0
 41
1.0
 50
0.0
 71
     0
 42
0.2
  3
tahoma.ttf
  4

1001
ACAD
1000
Tahoma
1071
      256
  0
STYLE
  5
DB
330
3
100
AcDbSymbolTableRecord
100
AcDbTextStyleTableRecord
  2
Note Text (JIS)
 70
     0
 40
0.0
 41
1.0
 50
0.0
 71
     0
 42
0.2
  3
tahoma.ttf
  4

1001
ACAD
1000
Tahoma
1071
      256
  0
STYLE
  5
DC
330
3
100
AcDbSymbolTableRecord
100
AcDbTextStyleTableRecord
  2
Notiztext (DIN) 1mm
 70
     0
 40
0.0
 41
1.0
 50
0.0
 71
     0
 42
0.2
  3
isocpeur.ttf
  4

1001
ACAD
1000
ISOCPEUR
1071
      256
  0
STYLE
  5
DD
330
3
100
AcDbSymbolTableRecord
100
AcDbTextStyleTableRecord
  2
Notiztext (DIN) 2_5mm
 70
     0
 40
0.0
 41
1.0
 50
0.0
 71
     0
 42
0.2
  3
isocpeur.ttf
  4

1001
ACAD
1000
ISOCPEUR
1071
      256
  0
STYLE
  5
DE
330
3
100
AcDbSymbolTableRecord
100
AcDbTextStyleTableRecord
  2
Regular Text (GOST)
 70
     0
 40
0.0
 41
1.0
 50
0.0
 71
     0
 42
0.2
  3
GOST Common.ttf
  4

1001
ACAD
1000
GOST Common
1071
      256
  0
ENDTAB
  0
TABLE
  2
VIEW
  5
6
330
0
100
AcDbSymbolTable
 70
     0
  0
ENDTAB
  0
TABLE
  2
UCS
  5
7
330
0
100
AcDbSymbolTable
 70
     0
  0
ENDTAB
  0
TABLE
  2
APPID
  5
9
330
0
100
AcDbSymbolTable
 70
     3
  0
APPID
  5
5E
330
9
100
AcDbSymbolTableRecord
100
AcDbRegAppTableRecord
  2
ACAD
 70
     0
  0
APPID
  5
66
330
9
100
AcDbSymbolTableRecord
100
AcDbRegAppTableRecord
  2
AcadAnnotative
 70
     0
  0
APPID
  5
70
330
9
100
AcDbSymbolTableRecord
100
AcDbRegAppTableRecord
  2
ACAD_MLEADERVER
 70
     0
  0
ENDTAB
  0
TABLE
  2
DIMSTYLE
  5
A
330
0
100
AcDbSymbolTable
 70
    11
100
AcDbDimStyleTable
 71
     0
  0
DIMSTYLE
105
60
330
A
100
AcDbSymbolTableRecord
100
AcDbDimStyleTableRecord
  2
Standard
 70
     0
340
5D
  0
DIMSTYLE
105
61
330
A
100
AcDbSymbolTableRecord
100
AcDbDimStyleTableRecord
  2
Annotative
 70
     0
340
5D
1001
AcadAnnotative
1000
AnnotativeData
1002
{
1070
     1
1070
     1
1002
}
  0
DIMSTYLE
105
DF
330
A
100
AcDbSymbolTableRecord
100
AcDbDimStyleTableRecord
  2
Default - Method 2a (DIN)
 70
     0
 41
2.5
 42
0.8
 43
5.999999999999999
 44
3.174999999999999
 45
0.00000001
 46
10.0
 77
     1
 78
     8
 79
     2
140
3.5
143
0.03937
147
0.8
170
     1
171
     3
172
     1
176
   256
177
   256
178
   256
179
     2
271
     2
272
     2
274
     3
278
    44
284
     8
286
     8
340
D9
371
    -1
372
    -1
  0
DIMSTYLE
105
E0
330
A
100
AcDbSymbolTableRecord
100
AcDbDimStyleTableRecord
  2
Default - Method 2a (DIN)$7
 70
     0
 41
2.5
 42
0.8
 43
5.999999999999999
 44
3.174999999999999
 45
0.00000001
 46
10.0
 77
     1
 78
     8
 79
     2
140
3.5
143
0.03937
147
0.8
170
     1
171
     3
172
     1
176
   256
177
   256
178
   256
179
     2
271
     2
272
     2
274
     3
278
    44
284
     8
286
     8
340
D9
371
    -1
372
    -1
  0
DIMSTYLE
105
E1
330
A
100
AcDbSymbolTableRecord
100
AcDbDimStyleTableRecord
  2
Default - Method 2b (DIN)
 70
     0
 41
2.5
 42
0.0
 43
5.999999999999999
 44
3.174999999999999
 45
0.00000001
 46
10.0
 77
     1
 78
     8
 79
     2
140
3.5
143
0.03937
147
0.8
171
     3
172
     1
176
   256
177
   256
178
   256
271
     2
272
     2
274
     3
278
    44
284
     8
286
     8
340
D9
371
    -1
372
    -1
  0
DIMSTYLE
105
E2
330
A
100
AcDbSymbolTableRecord
100
AcDbDimStyleTableRecord
  2
Default - Method 2b (DIN)$7
 70
     0
 41
2.5
 42
0.0
 43
5.999999999999999
 44
3.174999999999999
 45
0.00000001
 46
10.0
 77
     1
 78
     8
 79
     2
140
3.5
143
0.03937
147
0.8
171
     3
172
     1
176
   256
177
   256
178
   256
271
     2
272
     2
274
     3
278
    44
284
     8
286
     8
340
D9
371
    -1
372
    -1
  0
DIMSTYLE
105
E3
330
A
100
AcDbSymbolTableRecord
100
AcDbDimStyleTableRecord
  2
Default (DIN)
 70
     0
 41
2.5
 42
0.8
 43
5.999999999999999
 44
3.174999999999999
 45
0.00000001
 46
10.0
 73
     0
 74
     0
 77
     1
140
3.5
143
0.03937
147
0.8
171
     3
172
     1
176
   256
177
   256
178
   256
271
     2
272
     2
274
     3
278
    44
340
D9
371
    -1
372
    -1
  0
DIMSTYLE
105
E4
330
A
100
AcDbSymbolTableRecord
100
AcDbDimStyleTableRecord
  2
Default (DIN)$7
 70
     0
 41
2.5
 42
0.8
 43
5.999999999999999
 44
3.174999999999999
 45
0.00000001
 46
10.0
 73
     0
 74
     0
 77
     1
140
3.5
143
0.03937
147
0.8
171
     3
172
     1
176
   256
177
   256
178
   256
271
     2
272
     2
274
     3
278
    44
340
D9
371
    -1
372
    -1
  0
DIMSTYLE
105
E5
330
A
100
AcDbSymbolTableRecord
100
AcDbDimStyleTableRecord
  2
Alternate (ISO)
 70
     0
 41
2.5
340
5D
342
E6
  0
DIMSTYLE
105
F7
330
A
100
AcDbSymbolTableRecord
100
AcDbDimStyleTableRecord
  2
Datum (ISO)
 70
     0
 41
2.5
340
5D
342
E6
  0
DIMSTYLE
105
106
330
A
100
AcDbSymbolTableRecord
100
AcDbDimStyleTableRecord
  2
Large (ISO)
 70
     0
 41
5.0
340
5D
342
E6
  0
ENDTAB
  0
TABLE
  2
BLOCK_RECORD
  5
1
330
0
100
AcDbSymbolTable
 70
     5
  0
BLOCK_RECORD
  5
75
330
1
100
AcDbSymbolTableRecord
100
AcDbBlockTableRecord
  2
*Model_Space
340
78
  0
BLOCK_RECORD
  5
71
330
1
100
AcDbSymbolTableRecord
100
AcDbBlockTableRecord
  2
*Paper_Space
340
74
  0
BLOCK_RECORD
  5
79
330
1
100
AcDbSymbolTableRecord
100
AcDbBlockTableRecord
  2
*Paper_Space0
340
7C
  0
BLOCK_RECORD
  5
E6
330
1
100
AcDbSymbolTableRecord
100
AcDbBlockTableRecord
  2
_Closed
340
0
  0
BLOCK_RECORD
  5
ED
330
1
100
AcDbSymbolTableRecord
100
AcDbBlockTableRecord
  2
DatumFilled45
340
0
  0
BLOCK_RECORD
  5
F8
330
1
100
AcDbSymbolTableRecord
100
AcDbBlockTableRecord
  2
Filled-1
340
0
  0
BLOCK_RECORD
  5
107
330
1
100
AcDbSymbolTableRecord
100
AcDbBlockTableRecord
  2
BURRS
340
0
  0
ENDTAB
  0
ENDSEC
  0
SECTION
  2
BLOCKS
  0
BLOCK
  5
76
330
75
100
AcDbEntity
  8
0
100
AcDbBlockBegin
  2
*Model_Space
 70
     0
 10
0.0
 20
0.0
 30
0.0
  3
*Model_Space
  1

  0
ENDBLK
  5
77
330
75
100
AcDbEntity
  8
0
100
AcDbBlockEnd
  0
BLOCK
  5
72
330
71
100
AcDbEntity
 67
     1
  8
0
100
AcDbBlockBegin
  2
*Paper_Space
 70
     0
 10
0.0
 20
0.0
 30
0.0
  3
*Paper_Space
  1

  0
ENDBLK
  5
73
330
71
100
AcDbEntity
 67
     1
  8
0
100
AcDbBlockEnd
  0
BLOCK
  5
7A
330
79
100
AcDbEntity
 67
     1
  8
0
100
AcDbBlockBegin
  2
*Paper_Space0
 70
     0
 10
0.0
 20
0.0
 30
0.0
  3
*Paper_Space0
  1

  0
ENDBLK
  5
7B
330
79
100
AcDbEntity
 67
     1
  8
0
100
AcDbBlockEnd
  0
BLOCK
  5
EB
330
E6
100
AcDbEntity
  8
0
100
AcDbBlockBegin
  2
_Closed
 70
     0
 10
0.0
 20
0.0
 30
0.0
  3
_Closed
  1

  0
LINE
  5
E7
330
E6
100
AcDbEntity
  8
0
  6
ByBlock
 62
     0
370
    -2
100
AcDbLine
 10
-1.0
 20
0.1666666666666666
 30
0.0
 11
0.0
 21
0.0
 31
0.0
  0
LINE
  5
E8
330
E6
100
AcDbEntity
  8
0
  6
ByBlock
 62
     0
370
    -2
100
AcDbLine
 10
0.0
 20
0.0
 30
0.0
 11
-1.0
 21
-0.1666666666666666
 31
0.0
  0
LINE
  5
E9
330
E6
100
AcDbEntity
  8
0
  6
ByBlock
 62
     0
370
    -2
100
AcDbLine
 10
-1.0
 20
0.1666666666666666
 30
0.0
 11
-1.0
 21
-0.1666666666666666
 31
0.0
  0
LINE
  5
EA
330
E6
100
AcDbEntity
  8
0
  6
ByBlock
 62
     0
370
    -2
100
AcDbLine
 10
0.0
 20
0.0
 30
0.0
 11
-1.0
 21
0.0
 31
0.0
  0
ENDBLK
  5
EC
330
E6
100
AcDbEntity
  8
0
100
AcDbBlockEnd
  0
BLOCK
  5
EE
330
ED
100
AcDbEntity
  8
0
100
AcDbBlockBegin
  2
DatumFilled45
 70
     0
 10
0.0
 20
0.0
 30
0.0
  3
DatumFilled45
  1

  0
POLYLINE
  5
F0
330
ED
100
AcDbEntity
  8
0
 62
     0
100
AcDb2dPolyline
 66
     1
 10
0.0
 20
0.0
 30
0.0
 70
   128
  0
VERTEX
  5
F1
330
F0
100
AcDbEntity
  8
0
 62
     0
100
AcDbVertex
100
AcDb2dVertex
 10
0.0
 20
1.0
 30
0.0
  0
VERTEX
  5
F2
330
F0
100
AcDbEntity
  8
0
 62
     0
100
AcDbVertex
100
AcDb2dVertex
 10
0.0
 20
-1.0
 30
0.0
  0
VERTEX
  5
F4
330
F0
100
AcDbEntity
  8
0
 62
     0
100
AcDbVertex
100
AcDb2dVertex
 10
-1.0
 20
0.0
 30
0.0
  0
VERTEX
  5
F5
330
F0
100
AcDbEntity
  8
0
 62
     0
100
AcDbVertex
100
AcDb2dVertex
 10
0.0
 20
1.0
 30
0.0
  0
SEQEND
  5
F3
330
F0
100
AcDbEntity
  8
0
 62
     0
  0
SOLID
  5
F6
330
ED
100
AcDbEntity
  8
0
 62
     0
100
AcDbTrace
 10
0.0
 20
1.0
 30
0.0
 11
0.0
 21
-1.0
 31
0.0
 12
-1.0
 22
0.0
 32
0.0
 13
0.0
 23
1.0
 33
0.0
  0
ENDBLK
  5
EF
330
ED
100
AcDbEntity
  8
0
100
AcDbBlockEnd
  0
BLOCK
  5
F9
330
F8
100
AcDbEntity
  8
0
100
AcDbBlockBegin
  2
Filled-1
 70
     0
 10
0.0
 20
0.0
 30
0.0
  3
Filled-1
  1

  0
LINE
  5
FB
330
F8
100
AcDbEntity
  8
0
 62
     0
100
AcDbLine
 10
-1.0
 20
0.0
 30
0.0
 11
0.0
 21
0.0
 31
0.0
  0
POLYLINE
  5
FC
330
F8
100
AcDbEntity
  8
0
 62
     0
100
AcDb2dPolyline
 66
     1
 10
0.0
 20
0.0
 30
0.0
 70
   128
  0
VERTEX
  5
FD
330
FC
100
AcDbEntity
  8
0
 62
     0
100
AcDbVertex
100
AcDb2dVertex
 10
-1.0
 20
-0.1
 30
0.0
  0
VERTEX
  5
FE
330
FC
100
AcDbEntity
  8
0
 62
     0
100
AcDbVertex
100
AcDb2dVertex
 10
0.0
 20
0.0
 30
0.0
  0
VERTEX
  5
100
330
FC
100
AcDbEntity
  8
0
 62
     0
100
AcDbVertex
100
AcDb2dVertex
 10
-1.0
 20
0.1
 30
0.0
  0
VERTEX
  5
101
330
FC
100
AcDbEntity
  8
0
 62
     0
100
AcDbVertex
100
AcDb2dVertex
 10
-1.0
 20
-0.1
 30
0.0
  0
SEQEND
  5
FF
330
FC
100
AcDbEntity
  8
0
 62
     0
  0
SOLID
  5
102
330
F8
100
AcDbEntity
  8
0
 62
     0
100
AcDbTrace
 10
-1.0
 20
-0.1
 30
0.0
 11
0.0
 21
0.0
 31
0.0
 12
-1.0
 22
0.1
 32
0.0
 13
-1.0
 23
-0.1
 33
0.0
  0
LINE
  5
103
330
F8
100
AcDbEntity
  8
0
 62
     0
100
AcDbLine
 10
-1.0
 20
-0.1
 30
0.0
 11
0.0
 21
0.0
 31
0.0
  0
LINE
  5
104
330
F8
100
AcDbEntity
  8
0
 62
     0
100
AcDbLine
 10
0.0
 20
0.0
 30
0.0
 11
-1.0
 21
0.1
 31
0.0
  0
LINE
  5
105
330
F8
100
AcDbEntity
  8
0
 62
     0
100
AcDbLine
 10
-1.0
 20
0.1
 30
0.0
 11
-1.0
 21
-0.1
 31
0.0
  0
ENDBLK
  5
FA
330
F8
100
AcDbEntity
  8
0
100
AcDbBlockEnd
  0
BLOCK
  5
108
330
107
100
AcDbEntity
  8
0
100
AcDbBlockBegin
  2
BURRS
 70
     0
 10
0.0
 20
0.0
 30
0.0
  3
BURRS
  1

  0
LINE
  5
10A
330
107
100
AcDbEntity
  8
Sketch Geometry (ISO)
100
AcDbLine
 10
-2.706659223078435
 20
9.652672597864366
 30
0.0
 11
-2.706659223078435
 21
-1.256956598549159
 31
0.0
  0
LINE
  5
10B
330
107
100
AcDbEntity
  8
Sketch Geometry (ISO)
100
AcDbLine
 10
-2.706659223078435
 20
-1.256956598549159
 30
0.0
 11
10.8387266231013
 21
-1.256956598549159
 31
0.0
  0
LINE
  5
10C
330
107
100
AcDbEntity
  8
Sketch Geometry (ISO)
100
AcDbLine
 10
-2.706659223078435
 20
-1.256956598549159
 30
0.0
 11
-6.908444326616995
 21
-5.458741702087124
 31
0.0
  0
LINE
  5
10D
330
107
100
AcDbEntity
  8
Sketch Geometry (ISO)
100
AcDbLine
 10
-6.908444326616995
 20
-5.458741702087124
 30
0.0
 11
-10.8387266231013
 21
-5.458741702087124
 31
0.0
  0
LINE
  5
10E
330
107
100
AcDbEntity
  8
Sketch Geometry (ISO)
100
AcDbLine
 10
-6.908444326616995
 20
-5.458741702087124
 30
0.0
 11
-4.658474244797656
 21
-4.107202051212119
 31
0.0
  0
LINE
  5
10F
330
107
100
AcDbEntity
  8
Sketch Geometry (ISO)
100
AcDbLine
 10
-4.658474244797656
 20
-4.107202051212119
 30
0.0
 11
-5.493587060994213
 21
-3.272089235015442
 31
0.0
  0
LINE
  5
110
330
107
100
AcDbEntity
  8
Sketch Geometry (ISO)
100
AcDbLine
 10
-5.493587060994213
 20
-3.272089235015442
 30
0.0
 11
-6.908444326616995
 21
-5.458741702087124
 31
0.0
  0
LINE
  5
111
330
107
100
AcDbEntity
  8
Sketch Geometry (ISO)
100
AcDbLine
 10
-6.908444326616995
 20
-5.458741702087124
 30
0.0
 11
-6.908444326616995
 21
-9.652672597864366
 31
0.0
  0
MTEXT
  5
112
330
107
100
AcDbEntity
  8
Symbol (ISO)
100
AcDbMText
 10
-0.7458564093501208
 20
9.66437016309527
 30
0.0
 40
3.499999940395355
 41
0.0
 71
     1
 72
     1
  1
+0,05\P-0,2
  7
Note Text (DIN)
 73
     2
 44
1.068348050117492
1001
ACAD
1000
MTEXTBEGIN
1070
    73
1070
     2
1070
    44
1040
1.068348050117492
1070
    74
1070
     0
1000
MTEXTEND
  0
ENDBLK
  5
109
330
107
100
AcDbEntity
  8
0
100
AcDbBlockEnd
  0
ENDSEC
  0
SECTION
  2
ENTITIES
  0
CIRCLE
  5
114
330
75
100
AcDbEntity
  8
Visible (ISO)
100
AcDbCircle
 10
45.24323706505457
 20
173.4047770501851
 30
0.0
 40
1.6002
  0
CIRCLE
  5
115
330
75
100
AcDbEntity
  8
Visible (ISO)
100
AcDbCircle
 10
51.59323706505458
 20
92.63277705018516
 30
0.0
 40
1.6002
  0
CIRCLE
  5
116
330
75
100
AcDbEntity
  8
Visible (ISO)
100
AcDbCircle
 10
38.89323706505458
 20
92.63277705018516
 30
0.0
 40
1.6002
  0
ARC
  5
117
330
75
100
AcDbEntity
  8
Visible (ISO)
100
AcDbCircle
 10
49.33263706505457
 20
167.1817770501851
 30
0.0
 40
1.206499999999997
100
AcDbArc
 50
55.99534879181229
 51
304.0350546644298
  0
LINE
  5
118
330
75
100
AcDbEntity
  8
Visible (ISO)
100
AcDbLine
 10
56.67323706505458
 20
68.75677705018516
 30
0.0
 11
55.20003706505459
 21
68.75677705018516
 31
0.0
  0
ARC
  5
119
330
75
100
AcDbEntity
  8
Visible (ISO)
100
AcDbCircle
 10
53.98083706511058
 20
68.75677705024116
 30
0.0
 40
1.219199999944007
100
AcDbArc
 50
0.0
 51
90.00000000263161
  0
LINE
  5
11A
330
75
100
AcDbEntity
  8
Visible (ISO)
100
AcDbLine
 10
53.98083706505459
 20
69.97597705018517
 30
0.0
 11
50.19623706505459
 21
69.97597705018517
 31
0.0
  0
ARC
  5
11B
330
75
100
AcDbEntity
  8
Visible (ISO)
100
AcDbCircle
 10
50.19623706499857
 20
68.75677705024116
 30
0.0
 40
1.219199999943998
100
AcDbArc
 50
89.99999999736832
 51
180.0
  0
LINE
  5
11C
330
75
100
AcDbEntity
  8
Visible (ISO)
100
AcDbLine
 10
48.97703706505457
 20
68.75677705018516
 30
0.0
 11
33.81323706505458
 21
68.75677705018516
 31
0.0
  0
LINE
  5
11D
330
75
100
AcDbEntity
  8
Visible (ISO)
100
AcDbLine
 10
33.81323706505458
 20
68.75677705018516
 30
0.0
 11
33.81323706505458
 21
97.24677705018525
 31
0.0
  0
LINE
  5
11E
330
75
100
AcDbEntity
  8
Visible (ISO)
100
AcDbLine
 10
33.81323706505458
 20
162.2467770501852
 30
0.0
 11
33.81323706505458
 21
178.2307770501851
 31
0.0
  0
ARC
  5
11F
330
75
100
AcDbEntity
  8
Visible (ISO)
100
AcDbCircle
 10
34.8292370650079
 20
178.2307770502319
 30
0.0
 40
1.015999999953325
100
AcDbArc
 50
89.99999999736791
 51
180.0
  0
LINE
  5
120
330
75
100
AcDbEntity
  8
Visible (ISO)
100
AcDbLine
 10
34.82923706505458
 20
179.2467770501852
 30
0.0
 11
48.97703706505457
 21
179.2467770501852
 31
0.0
  0
ARC
  5
121
330
75
100
AcDbEntity
  8
Visible (ISO)
100
AcDbCircle
 10
50.19623706499857
 20
179.2467770501292
 30
0.0
 40
1.219199999943993
100
AcDbArc
 50
180.0
 51
270.0000000026333
  0
LINE
  5
122
330
75
100
AcDbEntity
  8
Visible (ISO)
100
AcDbLine
 10
50.19623706505459
 20
178.0275770501852
 30
0.0
 11
53.98083706505459
 21
178.0275770501852
 31
0.0
  0
ARC
  5
123
330
75
100
AcDbEntity
  8
Visible (ISO)
100
AcDbCircle
 10
53.98083706511059
 20
179.2467770501292
 30
0.0
 40
1.219199999944002
100
AcDbArc
 50
269.9999999973679
 51
0.0
  0
LINE
  5
124
330
75
100
AcDbEntity
  8
Visible (ISO)
100
AcDbLine
 10
55.20003706505459
 20
179.2467770501852
 30
0.0
 11
56.67323706505458
 21
179.2467770501852
 31
0.0
  0
LINE
  5
125
330
75
100
AcDbEntity
  8
Visible (ISO)
100
AcDbLine
 10
56.67323706505458
 20
179.2467770501852
 30
0.0
 11
56.67323706505458
 21
168.1837246949451
 31
0.0
  0
LINE
  5
126
330
75
100
AcDbEntity
  8
Visible (ISO)
100
AcDbLine
 10
56.67323706505458
 20
166.1837246245503
 30
0.0
 11
56.67323706505458
 21
162.2467770501852
 31
0.0
  0
LINE
  5
127
330
75
100
AcDbEntity
  8
Visible (ISO)
100
AcDbLine
 10
56.67323706505458
 20
97.24677705018525
 30
0.0
 11
56.67323706505458
 21
68.75677705018516
 31
0.0
  0
LINE
  5
128
330
75
100
AcDbEntity
  8
Visible (ISO)
100
AcDbLine
 10
37.44402356472229
 20
70.70372648180553
 30
0.0
 11
35.00578649667497
 21
73.14196354985286
 31
0.0
  0
LINE
  5
129
330
75
100
AcDbEntity
  8
Visible (ISO)
100
AcDbLine
 10
35.43005056538689
 20
73.56622761856479
 30
0.0
 11
37.86828763343422
 21
71.12799055051747
 31
0.0
  0
LINE
  5
12A
330
75
100
AcDbEntity
  8
Visible (ISO)
100
AcDbLine
 10
42.44402356472228
 20
70.70372648180553
 30
0.0
 11
40.00578649667496
 21
73.14196354985286
 31
0.0
  0
LINE
  5
12B
330
75
100
AcDbEntity
  8
Visible (ISO)
100
AcDbLine
 10
40.43005056538689
 20
73.56622761856479
 30
0.0
 11
42.86828763343421
 21
71.12799055051747
 31
0.0
  0
LINE
  5
12C
330
75
100
AcDbEntity
  8
Visible (ISO)
100
AcDbLine
 10
45.43005056538689
 20
73.56622761856479
 30
0.0
 11
47.86828763343421
 21
71.12799055051747
 31
0.0
  0
LINE
  5
12D
330
75
100
AcDbEntity
  8
Visible (ISO)
100
AcDbLine
 10
47.44402356472228
 20
70.70372648180553
 30
0.0
 11
45.00578649667496
 21
73.14196354985286
 31
0.0
  0
CIRCLE
  5
12E
330
75
100
AcDbEntity
  8
Visible (ISO)
100
AcDbCircle
 10
36.43703706505459
 20
72.13497705018517
 30
0.0
 40
1.75
  0
CIRCLE
  5
12F
330
75
100
AcDbEntity
  8
Visible (ISO)
100
AcDbCircle
 10
41.43703706505458
 20
72.13497705018517
 30
0.0
 40
1.75
  0
CIRCLE
  5
130
330
75
100
AcDbEntity
  8
Visible (ISO)
100
AcDbCircle
 10
46.43703706505458
 20
72.13497705018517
 30
0.0
 40
1.75
  0
LINE
  5
131
330
75
100
AcDbEntity
  8
Visible (ISO)
100
AcDbLine
 10
48.93703706505458
 20
75.00045294173769
 30
0.0
 11
48.93703706505458
 21
76.33497705018516
 31
0.0
  0
LINE
  5
132
330
75
100
AcDbEntity
  8
Visible (ISO)
100
AcDbLine
 10
48.93703706505458
 20
69.70045294173769
 30
0.0
 11
48.93703706505458
 21
75.00045294173769
 31
0.0
  0
LINE
  5
133
330
75
100
AcDbEntity
  8
Visible (ISO)
100
AcDbLine
 10
48.93703706505458
 20
68.83497705018516
 30
0.0
 11
48.93703706505458
 21
69.70045294173769
 31
0.0
  0
LINE
  5
134
330
75
100
AcDbEntity
  8
Visible (ISO)
100
AcDbLine
 10
33.93703706505459
 20
76.33497705018516
 30
0.0
 11
33.93703706505459
 21
75.00045294173769
 31
0.0
  0
LINE
  5
135
330
75
100
AcDbEntity
  8
Visible (ISO)
100
AcDbLine
 10
48.93703706505458
 20
75.00045294173769
 30
0.0
 11
33.93703706505459
 21
75.00045294173769
 31
0.0
  0
LINE
  5
136
330
75
100
AcDbEntity
  8
Visible (ISO)
100
AcDbLine
 10
33.93703706505459
 20
76.33497705018516
 30
0.0
 11
48.93703706505458
 21
76.33497705018516
 31
0.0
  0
LINE
  5
137
330
75
100
AcDbEntity
  8
Visible (ISO)
100
AcDbLine
 10
33.93703706505459
 20
75.00045294173769
 30
0.0
 11
33.93703706505459
 21
69.70045294173769
 31
0.0
  0
LINE
  5
138
330
75
100
AcDbEntity
  8
Visible (ISO)
100
AcDbLine
 10
48.93703706505458
 20
69.70045294173769
 30
0.0
 11
33.93703706505459
 21
69.70045294173769
 31
0.0
  0
LINE
  5
139
330
75
100
AcDbEntity
  8
Visible (ISO)
100
AcDbLine
 10
33.93703706505459
 20
69.70045294173769
 30
0.0
 11
33.93703706505459
 21
68.83497705018516
 31
0.0
  0
LINE
  5
13A
330
75
100
AcDbEntity
  8
Visible (ISO)
100
AcDbLine
 10
48.93703706505458
 20
68.83497705018516
 30
0.0
 11
33.93703706505459
 21
68.83497705018516
 31
0.0
  0
LINE
  5
13B
330
75
100
AcDbEntity
  8
Visible (ISO)
100
AcDbLine
 10
33.34323706505458
 20
162.2467770501852
 30
0.0
 11
34.11323706505458
 21
162.2467770501852
 31
0.0
  0
LINE
  5
13C
330
75
100
AcDbEntity
  8
Visible (ISO)
100
AcDbLine
 10
33.34323706505458
 20
97.24677705018525
 30
0.0
 11
33.34323706505458
 21
162.2467770501852
 31
0.0
  0
LINE
  5
13D
330
75
100
AcDbEntity
  8
Visible (ISO)
100
AcDbLine
 10
33.34323706505458
 20
97.24677705018525
 30
0.0
 11
34.11323706505458
 21
97.24677705018525
 31
0.0
  0
LINE
  5
13E
330
75
100
AcDbEntity
  8
Visible Narrow (ISO)
100
AcDbLine
 10
34.11323706505458
 20
97.24677705018525
 30
0.0
 11
34.11323706505458
 21
162.2467770501852
 31
0.0
  0
LINE
  5
13F
330
75
100
AcDbEntity
  8
Visible (ISO)
100
AcDbLine
 10
57.14323706505457
 20
97.24677705018525
 30
0.0
 11
57.14323706505457
 21
162.2467770501852
 31
0.0
  0
LINE
  5
140
330
75
100
AcDbEntity
  8
Visible (ISO)
100
AcDbLine
 10
56.37323706505458
 20
162.2467770501852
 30
0.0
 11
57.14323706505457
 21
162.2467770501852
 31
0.0
  0
LINE
  5
141
330
75
100
AcDbEntity
  8
Visible Narrow (ISO)
100
AcDbLine
 10
56.37323706505458
 20
97.24677705018525
 30
0.0
 11
56.37323706505458
 21
162.2467770501852
 31
0.0
  0
LINE
  5
142
330
75
100
AcDbEntity
  8
Visible (ISO)
100
AcDbLine
 10
56.37323706505458
 20
97.24677705018525
 30
0.0
 11
57.14323706505457
 21
97.24677705018525
 31
0.0
  0
LINE
  5
143
330
75
100
AcDbEntity
  8
Visible (ISO)
100
AcDbLine
 10
56.37323706505458
 20
162.2467770501852
 30
0.0
 11
34.11323706505458
 21
162.2467770501852
 31
0.0
  0
LINE
  5
144
330
75
100
AcDbEntity
  8
Visible (ISO)
100
AcDbLine
 10
56.37323706505458
 20
97.24677705018525
 30
0.0
 11
34.11323706505458
 21
97.24677705018525
 31
0.0
  0
POLYLINE
  5
145
330
75
100
AcDbEntity
  8
Visible (ISO)
100
AcDb2dPolyline
 66
     1
 10
0.0
 20
0.0
 30
0.0
 70
   128
  0
VERTEX
  5
146
330
145
100
AcDbEntity
  8
Visible (ISO)
100
AcDbVertex
100
AcDb2dVertex
 10
46.05646927116075
 20
86.42923373191353
 30
0.0
  0
VERTEX
  5
147
330
145
100
AcDbEntity
  8
Visible (ISO)
100
AcDbVertex
100
AcDb2dVertex
 10
45.93220111189046
 20
86.43127891628738
 30
0.0
  0
VERTEX
  5
149
330
145
100
AcDbEntity
  8
Visible (ISO)
100
AcDbVertex
100
AcDb2dVertex
 10
45.81444967744508
 20
86.43741461842056
 30
0.0
  0
VERTEX
  5
14A
330
145
100
AcDbEntity
  8
Visible (ISO)
100
AcDbVertex
100
AcDb2dVertex
 10
45.7032148933188
 20
86.44764083831306
 30
0.0
  0
VERTEX
  5
14B
330
145
100
AcDbEntity
  8
Visible (ISO)
100
AcDbVertex
100
AcDb2dVertex
 10
45.59849683401743
 20
86.46195742695327
 30
0.0
  0
VERTEX
  5
14C
330
145
100
AcDbEntity
  8
Visible (ISO)
100
AcDbVertex
100
AcDb2dVertex
 10
45.50029542503515
 20
86.48036453335281
 30
0.0
  0
VERTEX
  5
14D
330
145
100
AcDbEntity
  8
Visible (ISO)
100
AcDbVertex
100
AcDb2dVertex
 10
45.40861070362487
 20
86.50286215751167
 30
0.0
  0
VERTEX
  5
14E
330
145
100
AcDbEntity
  8
Visible (ISO)
100
AcDbVertex
100
AcDb2dVertex
 10
45.32344267909983
 20
86.52945015041824
 30
0.0
  0
VERTEX
  5
14F
330
145
100
AcDbEntity
  8
Visible (ISO)
100
AcDbVertex
100
AcDb2dVertex
 10
45.24479132817694
 20
86.56012881009575
 30
0.0
  0
VERTEX
  5
150
330
145
100
AcDbEntity
  8
Visible (ISO)
100
AcDbVertex
100
AcDb2dVertex
 10
45.17265666093343
 20
86.59489783852096
 30
0.0
  0
VERTEX
  5
151
330
145
100
AcDbEntity
  8
Visible (ISO)
100
AcDbVertex
100
AcDb2dVertex
 10
45.10703867507735
 20
86.63375723569389
 30
0.0
  0
VERTEX
  5
152
330
145
100
AcDbEntity
  8
Visible (ISO)
100
AcDbVertex
100
AcDb2dVertex
 10
45.04793737290063
 20
86.67670715062614
 30
0.0
  0
VERTEX
  5
153
330
145
100
AcDbEntity
  8
Visible (ISO)
100
AcDbVertex
100
AcDb2dVertex
 10
44.99535275829592
 20
86.72374758331772
 30
0.0
  0
VERTEX
  5
154
330
145
100
AcDbEntity
  8
Visible (ISO)
100
AcDbVertex
100
AcDb2dVertex
 10
44.94782107157269
 20
86.77395630090233
 30
0.0
  0
VERTEX
  5
155
330
145
100
AcDbEntity
  8
Visible (ISO)
100
AcDbVertex
100
AcDb2dVertex
 10
44.90387857166687
 20
86.82641047446724
 30
0.0
  0
VERTEX
  5
156
330
145
100
AcDbEntity
  8
Visible (ISO)
100
AcDbVertex
100
AcDb2dVertex
 10
44.8635252772049
 20
86.88111055104728
 30
0.0
  0
VERTEX
  5
157
330
145
100
AcDbEntity
  8
Visible (ISO)
100
AcDbVertex
100
AcDb2dVertex
 10
44.82676115093389
 20
86.93805623261924
 30
0.0
  0
VERTEX
  5
158
330
145
100
AcDbEntity
  8
Visible (ISO)
100
AcDbVertex
100
AcDb2dVertex
 10
44.79358621148029
 20
86.99724781720634
 30
0.0
  0
VERTEX
  5
159
330
145
100
AcDbEntity
  8
Visible (ISO)
100
AcDbVertex
100
AcDb2dVertex
 10
44.76400047747055
 20
87.05868500678535
 30
0.0
  0
VERTEX
  5
15A
330
145
100
AcDbEntity
  8
Visible (ISO)
100
AcDbVertex
100
AcDb2dVertex
 10
44.73800394890466
 20
87.1223680993795
 30
0.0
  0
VERTEX
  5
15B
330
145
100
AcDbEntity
  8
Visible (ISO)
100
AcDbVertex
100
AcDb2dVertex
 10
44.71559655127683
 20
87.18829679696556
 30
0.0
  0
VERTEX
  5
15C
330
145
100
AcDbEntity
  8
Visible (ISO)
100
AcDbVertex
100
AcDb2dVertex
 10
44.69677839634576
 20
87.25647139756675
 30
0.0
  0
VERTEX
  5
15D
330
145
100
AcDbEntity
  8
Visible (ISO)
100
AcDbVertex
100
AcDb2dVertex
 10
44.68154940960565
 20
87.32689160315986
 30
0.0
  0
VERTEX
  5
15E
330
145
100
AcDbEntity
  8
Visible (ISO)
100
AcDbVertex
100
AcDb2dVertex
 10
44.6699095910565
 20
87.39955771176811
 30
0.0
  0
VERTEX
  5
15F
330
145
100
AcDbEntity
  8
Visible (ISO)
100
AcDbVertex
100
AcDb2dVertex
 10
44.6618590152041
 20
87.47446942536827
 30
0.0
  0
SEQEND
  5
148
330
145
100
AcDbEntity
  8
Visible (ISO)
  0
POLYLINE
  5
160
330
75
100
AcDbEntity
  8
Visible (ISO)
100
AcDb2dPolyline
 66
     1
 10
0.0
 20
0.0
 30
0.0
 70
   128
  0
VERTEX
  5
161
330
160
100
AcDbEntity
  8
Visible (ISO)
100
AcDbVertex
100
AcDb2dVertex
 10
47.38755692002931
 20
87.45714503734108
 30
0.0
  0
VERTEX
  5
162
330
160
100
AcDbEntity
  8
Visible (ISO)
100
AcDbVertex
100
AcDb2dVertex
 10
47.3850529289023
 20
87.38565969674583
 30
0.0
  0
VERTEX
  5
164
330
160
100
AcDbEntity
  8
Visible (ISO)
100
AcDbVertex
100
AcDb2dVertex
 10
47.37754125354448
 20
87.31557268111702
 30
0.0
  0
VERTEX
  5
165
330
160
100
AcDbEntity
  8
Visible (ISO)
100
AcDbVertex
100
AcDb2dVertex
 10
47.36502174494424
 20
87.24688428847786
 30
0.0
  0
VERTEX
  5
166
330
160
100
AcDbEntity
  8
Visible (ISO)
100
AcDbVertex
100
AcDb2dVertex
 10
47.34749440310159
 20
87.17959451882835
 30
0.0
  0
VERTEX
  5
167
330
160
100
AcDbEntity
  8
Visible (ISO)
100
AcDbVertex
100
AcDb2dVertex
 10
47.32495907900491
 20
87.1137033721685
 30
0.0
  0
VERTEX
  5
168
330
160
100
AcDbEntity
  8
Visible (ISO)
100
AcDbVertex
100
AcDb2dVertex
 10
47.29741607067743
 20
87.0492108484983
 30
0.0
  0
VERTEX
  5
169
330
160
100
AcDbEntity
  8
Visible (ISO)
100
AcDbVertex
100
AcDb2dVertex
 10
47.26486522910753
 20
86.98611694781776
 30
0.0
  0
VERTEX
  5
16A
330
160
100
AcDbEntity
  8
Visible (ISO)
100
AcDbVertex
100
AcDb2dVertex
 10
47.22730670330682
 20
86.92442137210365
 30
0.0
  0
VERTEX
  5
16B
330
160
100
AcDbEntity
  8
Visible (ISO)
100
AcDbVertex
100
AcDb2dVertex
 10
47.18528155443826
 20
86.86527508704658
 30
0.0
  0
VERTEX
  5
16C
330
160
100
AcDbEntity
  8
Visible (ISO)
100
AcDbVertex
100
AcDb2dVertex
 10
47.13933143971124
 20
86.80982786624428
 30
0.0
  0
VERTEX
  5
16D
330
160
100
AcDbEntity
  8
Visible (ISO)
100
AcDbVertex
100
AcDb2dVertex
 10
47.08945621011415
 20
86.7580806037664
 30
0.0
  0
VERTEX
  5
16E
330
160
100
AcDbEntity
  8
Visible (ISO)
100
AcDbVertex
100
AcDb2dVertex
 10
47.0356560146586
 20
86.7100325545549
 30
0.0
  0
VERTEX
  5
16F
330
160
100
AcDbEntity
  8
Visible (ISO)
100
AcDbVertex
100
AcDb2dVertex
 10
46.97793070433298
 20
86.66568401663299
 30
0.0
  0
VERTEX
  5
170
330
160
100
AcDbEntity
  8
Visible (ISO)
100
AcDbVertex
100
AcDb2dVertex
 10
46.91628042814889
 20
86.62503499000068
 30
0.0
  0
VERTEX
  5
171
330
160
100
AcDbEntity
  8
Visible (ISO)
100
AcDbVertex
100
AcDb2dVertex
 10
46.85070503709474
 20
86.58808532564636
 30
0.0
  0
VERTEX
  5
172
330
160
100
AcDbEntity
  8
Visible (ISO)
100
AcDbVertex
100
AcDb2dVertex
 10
46.78120468018213
 20
86.55483517258163
 30
0.0
  0
VERTEX
  5
173
330
160
100
AcDbEntity
  8
Visible (ISO)
100
AcDbVertex
100
AcDb2dVertex
 10
46.7073505019919
 20
86.52539733259674
 30
0.0
  0
VERTEX
  5
174
330
160
100
AcDbEntity
  8
Visible (ISO)
100
AcDbVertex
100
AcDb2dVertex
 10
46.62871424315134
 20
86.49988460748192
 30
0.0
  0
VERTEX
  5
175
330
160
100
AcDbEntity
  8
Visible (ISO)
100
AcDbVertex
100
AcDb2dVertex
 10
46.54529560563722
 20
86.47829669921394
 30
0.0
  0
VERTEX
  5
176
330
160
100
AcDbEntity
  8
Visible (ISO)
100
AcDbVertex
100
AcDb2dVertex
 10
46.45709488747278
 20
86.46063405482765
 30
0.0
  0
VERTEX
  5
177
330
160
100
AcDbEntity
  8
Visible (ISO)
100
AcDbVertex
100
AcDb2dVertex
 10
46.36411186514059
 20
86.44689637629982
 30
0.0
  0
VERTEX
  5
178
330
160
100
AcDbEntity
  8
Visible (ISO)
100
AcDbVertex
100
AcDb2dVertex
 10
46.26634653864065
 20
86.43708381264206
 30
0.0
  0
VERTEX
  5
179
330
160
100
AcDbEntity
  8
Visible (ISO)
100
AcDbVertex
100
AcDb2dVertex
 10
46.16379905698457
 20
86.43119621484276
 30
0.0
  0
VERTEX
  5
17A
330
160
100
AcDbEntity
  8
Visible (ISO)
100
AcDbVertex
100
AcDb2dVertex
 10
46.05646927116075
 20
86.42923373191353
 30
0.0
  0
SEQEND
  5
163
330
160
100
AcDbEntity
  8
Visible (ISO)
  0
POLYLINE
  5
17B
330
75
100
AcDbEntity
  8
Visible (ISO)
100
AcDb2dPolyline
 66
     1
 10
0.0
 20
0.0
 30
0.0
 70
   128
  0
VERTEX
  5
17C
330
17B
100
AcDbEntity
  8
Visible (ISO)
100
AcDbVertex
100
AcDb2dVertex
 10
46.01315837559858
 20
88.4994934818029
 30
0.0
  0
VERTEX
  5
17D
330
17B
100
AcDbEntity
  8
Visible (ISO)
100
AcDbVertex
100
AcDb2dVertex
 10
46.16005446968237
 20
88.46626597850319
 30
0.0
  0
VERTEX
  5
17F
330
17B
100
AcDbEntity
  8
Visible (ISO)
100
AcDbVertex
100
AcDb2dVertex
 10
46.29612278399625
 20
88.43299347369667
 30
0.0
  0
VERTEX
  5
180
330
17B
100
AcDbEntity
  8
Visible (ISO)
100
AcDbVertex
100
AcDb2dVertex
 10
46.42136339304605
 20
88.39967566936012
 30
0.0
  0
VERTEX
  5
181
330
17B
100
AcDbEntity
  8
Visible (ISO)
100
AcDbVertex
100
AcDb2dVertex
 10
46.53577629683176
 20
88.36631256549354
 30
0.0
  0
VERTEX
  5
182
330
17B
100
AcDbEntity
  8
Visible (ISO)
100
AcDbVertex
100
AcDb2dVertex
 10
46.63936142084756
 20
88.33290475814338
 30
0.0
  0
VERTEX
  5
183
330
17B
100
AcDbEntity
  8
Visible (ISO)
100
AcDbVertex
100
AcDb2dVertex
 10
46.73211891410509
 20
88.29945135323997
 30
0.0
  0
VERTEX
  5
184
330
17B
100
AcDbEntity
  8
Visible (ISO)
100
AcDbVertex
100
AcDb2dVertex
 10
46.81404862759271
 20
88.26595324485298
 30
0.0
  0
VERTEX
  5
185
330
17B
100
AcDbEntity
  8
Visible (ISO)
100
AcDbVertex
100
AcDb2dVertex
 10
46.88515071032205
 20
88.23240983693596
 30
0.0
  0
VERTEX
  5
186
330
17B
100
AcDbEntity
  8
Visible (ISO)
100
AcDbVertex
100
AcDb2dVertex
 10
46.94860566613832
 20
88.19785136191841
 30
0.0
  0
VERTEX
  5
187
330
17B
100
AcDbEntity
  8
Visible (ISO)
100
AcDbVertex
100
AcDb2dVertex
 10
47.00759414789835
 20
88.16130775420662
 30
0.0
  0
VERTEX
  5
188
330
17B
100
AcDbEntity
  8
Visible (ISO)
100
AcDbVertex
100
AcDb2dVertex
 10
47.06211630461374
 20
88.1227793118238
 30
0.0
  0
VERTEX
  5
189
330
17B
100
AcDbEntity
  8
Visible (ISO)
100
AcDbVertex
100
AcDb2dVertex
 10
47.11217183826128
 20
88.08226543872352
 30
0.0
  0
VERTEX
  5
18A
330
17B
100
AcDbEntity
  8
Visible (ISO)
100
AcDbVertex
100
AcDb2dVertex
 10
47.15776104686418
 20
88.03976673095222
 30
0.0
  0
VERTEX
  5
18B
330
17B
100
AcDbEntity
  8
Visible (ISO)
100
AcDbVertex
100
AcDb2dVertex
 10
47.19888393042245
 20
87.99528289048668
 30
0.0
  0
VERTEX
  5
18C
330
17B
100
AcDbEntity
  8
Visible (ISO)
100
AcDbVertex
100
AcDb2dVertex
 10
47.23554019091287
 20
87.94881391732689
 30
0.0
  0
VERTEX
  5
18D
330
17B
100
AcDbEntity
  8
Visible (ISO)
100
AcDbVertex
100
AcDb2dVertex
 10
47.26773012635866
 20
87.90035981147285
 30
0.0
  0
VERTEX
  5
18E
330
17B
100
AcDbEntity
  8
Visible (ISO)
100
AcDbVertex
100
AcDb2dVertex
 10
47.29581449387231
 20
87.85016882627006
 30
0.0
  0
VERTEX
  5
18F
330
17B
100
AcDbEntity
  8
Visible (ISO)
100
AcDbVertex
100
AcDb2dVertex
 10
47.32015434858957
 20
87.79848891704078
 30
0.0
  0
VERTEX
  5
190
330
17B
100
AcDbEntity
  8
Visible (ISO)
100
AcDbVertex
100
AcDb2dVertex
 10
47.34074954149881
 20
87.74532038180824
 30
0.0
  0
VERTEX
  5
191
330
17B
100
AcDbEntity
  8
Visible (ISO)
100
AcDbVertex
100
AcDb2dVertex
 10
47.35760022161165
 20
87.69066292254921
 30
0.0
  0
VERTEX
  5
192
330
17B
100
AcDbEntity
  8
Visible (ISO)
100
AcDbVertex
100
AcDb2dVertex
 10
47.37070623991647
 20
87.63451683728691
 30
0.0
  0
VERTEX
  5
193
330
17B
100
AcDbEntity
  8
Visible (ISO)
100
AcDbVertex
100
AcDb2dVertex
 10
47.3800677454249
 20
87.57688182799812
 30
0.0
  0
VERTEX
  5
194
330
17B
100
AcDbEntity
  8
Visible (ISO)
100
AcDbVertex
100
AcDb2dVertex
 10
47.3856845891253
 20
87.51775789468284
 30
0.0
  0
VERTEX
  5
195
330
17B
100
AcDbEntity
  8
Visible (ISO)
100
AcDbVertex
100
AcDb2dVertex
 10
47.38755692002931
 20
87.45714503734108
 30
0.0
  0
SEQEND
  5
17E
330
17B
100
AcDbEntity
  8
Visible (ISO)
  0
POLYLINE
  5
196
330
75
100
AcDbEntity
  8
Visible (ISO)
100
AcDb2dPolyline
 66
     1
 10
0.0
 20
0.0
 30
0.0
 70
   128
  0
VERTEX
  5
197
330
196
100
AcDbEntity
  8
Visible (ISO)
100
AcDbVertex
100
AcDb2dVertex
 10
45.70132006166139
 20
88.60921460597511
 30
0.0
  0
VERTEX
  5
198
330
196
100
AcDbEntity
  8
Visible (ISO)
100
AcDbVertex
100
AcDb2dVertex
 10
45.70716504213968
 20
88.60418158977028
 30
0.0
  0
VERTEX
  5
19A
330
196
100
AcDbEntity
  8
Visible (ISO)
100
AcDbVertex
100
AcDb2dVertex
 10
45.71363158730426
 20
88.59918880670067
 30
0.0
  0
VERTEX
  5
19B
330
196
100
AcDbEntity
  8
Visible (ISO)
100
AcDbVertex
100
AcDb2dVertex
 10
45.72071973440805
 20
88.59423625676628
 30
0.0
  0
VERTEX
  5
19C
330
196
100
AcDbEntity
  8
Visible (ISO)
100
AcDbVertex
100
AcDb2dVertex
 10
45.72842944619813
 20
88.58932364194389
 30
0.0
  0
VERTEX
  5
19D
330
196
100
AcDbEntity
  8
Visible (ISO)
100
AcDbVertex
100
AcDb2dVertex
 10
45.73676079718032
 20
88.5844509622335
 30
0.0
  0
VERTEX
  5
19E
330
196
100
AcDbEntity
  8
Visible (ISO)
100
AcDbVertex
100
AcDb2dVertex
 10
45.74571371284881
 20
88.57961881368156
 30
0.0
  0
VERTEX
  5
19F
330
196
100
AcDbEntity
  8
Visible (ISO)
100
AcDbVertex
100
AcDb2dVertex
 10
45.7552882304565
 20
88.57482660024162
 30
0.0
  0
VERTEX
  5
1A0
330
196
100
AcDbEntity
  8
Visible (ISO)
100
AcDbVertex
100
AcDb2dVertex
 10
45.76548431275049
 20
88.57007432191368
 30
0.0
  0
VERTEX
  5
1A1
330
196
100
AcDbEntity
  8
Visible (ISO)
100
AcDbVertex
100
AcDb2dVertex
 10
45.77630203423658
 20
88.56536227672096
 30
0.0
  0
VERTEX
  5
1A2
330
196
100
AcDbEntity
  8
Visible (ISO)
100
AcDbVertex
100
AcDb2dVertex
 10
45.78774132040897
 20
88.56069016664024
 30
0.0
  0
VERTEX
  5
1A3
330
196
100
AcDbEntity
  8
Visible (ISO)
100
AcDbVertex
100
AcDb2dVertex
 10
45.79980220852056
 20
88.55605828969475
 30
0.0
  0
VERTEX
  5
1A4
330
196
100
AcDbEntity
  8
Visible (ISO)
100
AcDbVertex
100
AcDb2dVertex
 10
45.81248466131845
 20
88.55146664588447
 30
0.0
  0
VERTEX
  5
1A5
330
196
100
AcDbEntity
  8
Visible (ISO)
100
AcDbVertex
100
AcDb2dVertex
 10
45.82578871605554
 20
88.5469149371862
 30
0.0
  0
VERTEX
  5
1A6
330
196
100
AcDbEntity
  8
Visible (ISO)
100
AcDbVertex
100
AcDb2dVertex
 10
45.83971437273183
 20
88.54240346162315
 30
0.0
  0
VERTEX
  5
1A7
330
196
100
AcDbEntity
  8
Visible (ISO)
100
AcDbVertex
100
AcDb2dVertex
 10
45.85426163134733
 20
88.5379319211721
 30
0.0
  0
VERTEX
  5
1A8
330
196
100
AcDbEntity
  8
Visible (ISO)
100
AcDbVertex
100
AcDb2dVertex
 10
45.86943041739622
 20
88.53350061385627
 30
0.0
  0
VERTEX
  5
1A9
330
196
100
AcDbEntity
  8
Visible (ISO)
100
AcDbVertex
100
AcDb2dVertex
 10
45.88522087989011
 20
88.52910953967567
 30
0.0
  0
VERTEX
  5
1AA
330
196
100
AcDbEntity
  8
Visible (ISO)
100
AcDbVertex
100
AcDb2dVertex
 10
45.90163286981741
 20
88.52475840060707
 30
0.0
  0
VERTEX
  5
1AB
330
196
100
AcDbEntity
  8
Visible (ISO)
100
AcDbVertex
100
AcDb2dVertex
 10
45.9186664616839
 20
88.52044719665046
 30
0.0
  0
VERTEX
  5
1AC
330
196
100
AcDbEntity
  8
Visible (ISO)
100
AcDbVertex
100
AcDb2dVertex
 10
45.93632165548959
 20
88.51617622582908
 30
0.0
  0
VERTEX
  5
1AD
330
196
100
AcDbEntity
  8
Visible (ISO)
100
AcDbVertex
100
AcDb2dVertex
 10
45.95459845123449
 20
88.51194548814293
 30
0.0
  0
VERTEX
  5
1AE
330
196
100
AcDbEntity
  8
Visible (ISO)
100
AcDbVertex
100
AcDb2dVertex
 10
45.97349684891859
 20
88.50775468556877
 30
0.0
  0
VERTEX
  5
1AF
330
196
100
AcDbEntity
  8
Visible (ISO)
100
AcDbVertex
100
AcDb2dVertex
 10
45.99301684854188
 20
88.50360411612983
 30
0.0
  0
VERTEX
  5
1B0
330
196
100
AcDbEntity
  8
Visible (ISO)
100
AcDbVertex
100
AcDb2dVertex
 10
46.01315837559858
 20
88.4994934818029
 30
0.0
  0
SEQEND
  5
199
330
196
100
AcDbEntity
  8
Visible (ISO)
  0
POLYLINE
  5
1B1
330
75
100
AcDbEntity
  8
Visible (ISO)
100
AcDb2dPolyline
 66
     1
 10
0.0
 20
0.0
 30
0.0
 70
   128
  0
VERTEX
  5
1B2
330
1B1
100
AcDbEntity
  8
Visible (ISO)
100
AcDbVertex
100
AcDb2dVertex
 10
45.63202265856424
 20
88.73625982015129
 30
0.0
  0
VERTEX
  5
1B3
330
1B1
100
AcDbEntity
  8
Visible (ISO)
100
AcDbVertex
100
AcDb2dVertex
 10
45.63214294818798
 20
88.73050499169822
 30
0.0
  0
VERTEX
  5
1B5
330
1B1
100
AcDbEntity
  8
Visible (ISO)
100
AcDbVertex
100
AcDb2dVertex
 10
45.63250389156499
 20
88.72479039638038
 30
0.0
  0
VERTEX
  5
1B6
330
1B1
100
AcDbEntity
  8
Visible (ISO)
100
AcDbVertex
100
AcDb2dVertex
 10
45.63310541418949
 20
88.71911573617454
 30
0.0
  0
VERTEX
  5
1B7
330
1B1
100
AcDbEntity
  8
Visible (ISO)
100
AcDbVertex
100
AcDb2dVertex
 10
45.63394759056726
 20
88.71348130910392
 30
0.0
  0
VERTEX
  5
1B8
330
1B1
100
AcDbEntity
  8
Visible (ISO)
100
AcDbVertex
100
AcDb2dVertex
 10
45.63503034619251
 20
88.70788711516853
 30
0.0
  0
VERTEX
  5
1B9
330
1B1
100
AcDbEntity
  8
Visible (ISO)
100
AcDbVertex
100
AcDb2dVertex
 10
45.63635375557104
 20
88.70233285634514
 30
0.0
  0
VERTEX
  5
1BA
330
1B1
100
AcDbEntity
  8
Visible (ISO)
100
AcDbVertex
100
AcDb2dVertex
 10
45.63791774419704
 20
88.69681883065696
 30
0.0
  0
VERTEX
  5
1BB
330
1B1
100
AcDbEntity
  8
Visible (ISO)
100
AcDbVertex
100
AcDb2dVertex
 10
45.63972234932342
 20
88.69134474008079
 30
0.0
  0
VERTEX
  5
1BC
330
1B1
100
AcDbEntity
  8
Visible (ISO)
100
AcDbVertex
100
AcDb2dVertex
 10
45.64176760820308
 20
88.68591088263984
 30
0.0
  0
VERTEX
  5
1BD
330
1B1
100
AcDbEntity
  8
Visible (ISO)
100
AcDbVertex
100
AcDb2dVertex
 10
45.64405344633022
 20
88.6805169603109
 30
0.0
  0
VERTEX
  5
1BE
330
1B1
100
AcDbEntity
  8
Visible (ISO)
100
AcDbVertex
100
AcDb2dVertex
 10
45.64657993821064
 20
88.67516327111717
 30
0.0
  0
VERTEX
  5
1BF
330
1B1
100
AcDbEntity
  8
Visible (ISO)
100
AcDbVertex
100
AcDb2dVertex
 10
45.64934700933853
 20
88.66984981505867
 30
0.0
  0
VERTEX
  5
1C0
330
1B1
100
AcDbEntity
  8
Visible (ISO)
100
AcDbVertex
100
AcDb2dVertex
 10
45.6523546969668
 20
88.66457629411216
 30
0.0
  0
VERTEX
  5
1C1
330
1B1
100
AcDbEntity
  8
Visible (ISO)
100
AcDbVertex
100
AcDb2dVertex
 10
45.65560303834835
 20
88.65934270827766
 30
0.0
  0
VERTEX
  5
1C2
330
1B1
100
AcDbEntity
  8
Visible (ISO)
100
AcDbVertex
100
AcDb2dVertex
 10
45.65909195897737
 20
88.65414965360161
 30
0.0
  0
VERTEX
  5
1C3
330
1B1
100
AcDbEntity
  8
Visible (ISO)
100
AcDbVertex
100
AcDb2dVertex
 10
45.66282149610677
 20
88.64899623601433
 30
0.0
  0
VERTEX
  5
1C4
330
1B1
100
AcDbEntity
  8
Visible (ISO)
100
AcDbVertex
100
AcDb2dVertex
 10
45.66679164973655
 20
88.64388334958549
 30
0.0
  0
VERTEX
  5
1C5
330
1B1
100
AcDbEntity
  8
Visible (ISO)
100
AcDbVertex
100
AcDb2dVertex
 10
45.67100245711961
 20
88.63881039826866
 30
0.0
  0
VERTEX
  5
1C6
330
1B1
100
AcDbEntity
  8
Visible (ISO)
100
AcDbVertex
100
AcDb2dVertex
 10
45.67545384375015
 20
88.63377738206382
 30
0.0
  0
VERTEX
  5
1C7
330
1B1
100
AcDbEntity
  8
Visible (ISO)
100
AcDbVertex
100
AcDb2dVertex
 10
45.68014584688106
 20
88.62878459899421
 30
0.0
  0
VERTEX
  5
1C8
330
1B1
100
AcDbEntity
  8
Visible (ISO)
100
AcDbVertex
100
AcDb2dVertex
 10
45.68507846651235
 20
88.62383204905983
 30
0.0
  0
VERTEX
  5
1C9
330
1B1
100
AcDbEntity
  8
Visible (ISO)
100
AcDbVertex
100
AcDb2dVertex
 10
45.69025173989692
 20
88.61891943423744
 30
0.0
  0
VERTEX
  5
1CA
330
1B1
100
AcDbEntity
  8
Visible (ISO)
100
AcDbVertex
100
AcDb2dVertex
 10
45.69566559252897
 20
88.61404675452705
 30
0.0
  0
VERTEX
  5
1CB
330
1B1
100
AcDbEntity
  8
Visible (ISO)
100
AcDbVertex
100
AcDb2dVertex
 10
45.70132006166139
 20
88.60921460597511
 30
0.0
  0
SEQEND
  5
1B4
330
1B1
100
AcDbEntity
  8
Visible (ISO)
  0
POLYLINE
  5
1CC
330
75
100
AcDbEntity
  8
Visible (ISO)
100
AcDb2dPolyline
 66
     1
 10
0.0
 20
0.0
 30
0.0
 70
   128
  0
VERTEX
  5
1CD
330
1CC
100
AcDbEntity
  8
Visible (ISO)
100
AcDbVertex
100
AcDb2dVertex
 10
45.95829796252409
 20
88.97302586047645
 30
0.0
  0
VERTEX
  5
1CE
330
1CC
100
AcDbEntity
  8
Visible (ISO)
100
AcDbVertex
100
AcDb2dVertex
 10
45.93190033195177
 20
88.9725546857595
 30
0.0
  0
VERTEX
  5
1D0
330
1CC
100
AcDbEntity
  8
Visible (ISO)
100
AcDbVertex
100
AcDb2dVertex
 10
45.90660561082521
 20
88.97114116160866
 30
0.0
  0
VERTEX
  5
1D1
330
1CC
100
AcDbEntity
  8
Visible (ISO)
100
AcDbVertex
100
AcDb2dVertex
 10
45.8824136501328
 20
88.96878499000068
 30
0.0
  0
VERTEX
  5
1D2
330
1CC
100
AcDbEntity
  8
Visible (ISO)
100
AcDbVertex
100
AcDb2dVertex
 10
45.85932452438036
 20
88.96548646895881
 30
0.0
  0
VERTEX
  5
1D3
330
1CC
100
AcDbEntity
  8
Visible (ISO)
100
AcDbVertex
100
AcDb2dVertex
 10
45.83733830807367
 20
88.96124559848304
 30
0.0
  0
VERTEX
  5
1D4
330
1CC
100
AcDbEntity
  8
Visible (ISO)
100
AcDbVertex
100
AcDb2dVertex
 10
45.81645477769533
 20
88.95606237857338
 30
0.0
  0
VERTEX
  5
1D5
330
1CC
100
AcDbEntity
  8
Visible (ISO)
100
AcDbVertex
100
AcDb2dVertex
 10
45.79667415676275
 20
88.94993680922981
 30
0.0
  0
VERTEX
  5
1D6
330
1CC
100
AcDbEntity
  8
Visible (ISO)
100
AcDbVertex
100
AcDb2dVertex
 10
45.77799637077013
 20
88.94286859242912
 30
0.0
  0
VERTEX
  5
1D7
330
1CC
100
AcDbEntity
  8
Visible (ISO)
100
AcDbVertex
100
AcDb2dVertex
 10
45.76042134521165
 20
88.93485802619453
 30
0.0
  0
VERTEX
  5
1D8
330
1CC
100
AcDbEntity
  8
Visible (ISO)
100
AcDbVertex
100
AcDb2dVertex
 10
45.74394919184604
 20
88.92590511052604
 30
0.0
  0
VERTEX
  5
1D9
330
1CC
100
AcDbEntity
  8
Visible (ISO)
100
AcDbVertex
100
AcDb2dVertex
 10
45.72857983616748
 20
88.91600984542366
 30
0.0
  0
VERTEX
  5
1DA
330
1CC
100
AcDbEntity
  8
Visible (ISO)
100
AcDbVertex
100
AcDb2dVertex
 10
45.71431331542888
 20
88.90517223088737
 30
0.0
  0
VERTEX
  5
1DB
330
1CC
100
AcDbEntity
  8
Visible (ISO)
100
AcDbVertex
100
AcDb2dVertex
 10
45.70116967169204
 20
88.89363277165886
 30
0.0
  0
VERTEX
  5
1DC
330
1CC
100
AcDbEntity
  8
Visible (ISO)
100
AcDbVertex
100
AcDb2dVertex
 10
45.68916894701877
 20
88.88163197247978
 30
0.0
  0
VERTEX
  5
1DD
330
1CC
100
AcDbEntity
  8
Visible (ISO)
100
AcDbVertex
100
AcDb2dVertex
 10
45.67831114140907
 20
88.86917013137336
 30
0.0
  0
VERTEX
  5
1DE
330
1CC
100
AcDbEntity
  8
Visible (ISO)
100
AcDbVertex
100
AcDb2dVertex
 10
45.66859629211584
 20
88.85624695031639
 30
0.0
  0
VERTEX
  5
1DF
330
1CC
100
AcDbEntity
  8
Visible (ISO)
100
AcDbVertex
100
AcDb2dVertex
 10
45.66002432463327
 20
88.84286272733207
 30
0.0
  0
VERTEX
  5
1E0
330
1CC
100
AcDbEntity
  8
Visible (ISO)
100
AcDbVertex
100
AcDb2dVertex
 10
45.65259531346717
 20
88.8290171643972
 30
0.0
  0
VERTEX
  5
1E1
330
1CC
100
AcDbEntity
  8
Visible (ISO)
100
AcDbVertex
100
AcDb2dVertex
 10
45.64630922136465
 20
88.81471055953499
 30
0.0
  0
VERTEX
  5
1E2
330
1CC
100
AcDbEntity
  8
Visible (ISO)
100
AcDbVertex
100
AcDb2dVertex
 10
45.64116604832569
 20
88.79994291274543
 30
0.0
  0
VERTEX
  5
1E3
330
1CC
100
AcDbEntity
  8
Visible (ISO)
100
AcDbVertex
100
AcDb2dVertex
 10
45.6371658316032
 20
88.78471392600532
 30
0.0
  0
VERTEX
  5
1E4
330
1CC
100
AcDbEntity
  8
Visible (ISO)
100
AcDbVertex
100
AcDb2dVertex
 10
45.63430849669138
 20
88.76902359931465
 30
0.0
  0
VERTEX
  5
1E5
330
1CC
100
AcDbEntity
  8
Visible (ISO)
100
AcDbVertex
100
AcDb2dVertex
 10
45.63259411809602
 20
88.75287223069664
 30
0.0
  0
VERTEX
  5
1E6
330
1CC
100
AcDbEntity
  8
Visible (ISO)
100
AcDbVertex
100
AcDb2dVertex
 10
45.63202265856424
 20
88.73625982015129
 30
0.0
  0
SEQEND
  5
1CF
330
1CC
100
AcDbEntity
  8
Visible (ISO)
  0
POLYLINE
  5
1E7
330
75
100
AcDbEntity
  8
Visible (ISO)
100
AcDb2dPolyline
 66
     1
 10
0.0
 20
0.0
 30
0.0
 70
   128
  0
VERTEX
  5
1E8
330
1E7
100
AcDbEntity
  8
Visible (ISO)
100
AcDbVertex
100
AcDb2dVertex
 10
46.41450587866464
 20
88.58611542193886
 30
0.0
  0
VERTEX
  5
1E9
330
1E7
100
AcDbEntity
  8
Visible (ISO)
100
AcDbVertex
100
AcDb2dVertex
 10
46.4081896489636
 20
88.61903953759666
 30
0.0
  0
VERTEX
  5
1EB
330
1E7
100
AcDbEntity
  8
Visible (ISO)
100
AcDbVertex
100
AcDb2dVertex
 10
46.40079070089021
 20
88.65044015853401
 30
0.0
  0
VERTEX
  5
1EC
330
1E7
100
AcDbEntity
  8
Visible (ISO)
100
AcDbVertex
100
AcDb2dVertex
 10
46.39230903444448
 20
88.68031639068123
 30
0.0
  0
VERTEX
  5
1ED
330
1E7
100
AcDbEntity
  8
Visible (ISO)
100
AcDbVertex
100
AcDb2dVertex
 10
46.38274450061479
 20
88.70866912810798
 30
0.0
  0
VERTEX
  5
1EE
330
1E7
100
AcDbEntity
  8
Visible (ISO)
100
AcDbVertex
100
AcDb2dVertex
 10
46.37209724841276
 20
88.73549777476783
 30
0.0
  0
VERTEX
  5
1EF
330
1E7
100
AcDbEntity
  8
Visible (ISO)
100
AcDbVertex
100
AcDb2dVertex
 10
46.36036727783838
 20
88.760802628684
 30
0.0
  0
VERTEX
  5
1F0
330
1E7
100
AcDbEntity
  8
Visible (ISO)
100
AcDbVertex
100
AcDb2dVertex
 10
46.34755443988004
 20
88.78458339183326
 30
0.0
  0
VERTEX
  5
1F1
330
1E7
100
AcDbEntity
  8
Visible (ISO)
100
AcDbVertex
100
AcDb2dVertex
 10
46.33365888354936
 20
88.80684036223884
 30
0.0
  0
VERTEX
  5
1F2
330
1E7
100
AcDbEntity
  8
Visible (ISO)
100
AcDbVertex
100
AcDb2dVertex
 10
46.31868053434053
 20
88.82757353990074
 30
0.0
  0
VERTEX
  5
1F3
330
1E7
100
AcDbEntity
  8
Visible (ISO)
100
AcDbVertex
100
AcDb2dVertex
 10
46.30261939225355
 20
88.84678262679573
 30
0.0
  0
VERTEX
  5
1F4
330
1E7
100
AcDbEntity
  8
Visible (ISO)
100
AcDbVertex
100
AcDb2dVertex
 10
46.28547553179422
 20
88.86446792094703
 30
0.0
  0
VERTEX
  5
1F5
330
1E7
100
AcDbEntity
  8
Visible (ISO)
100
AcDbVertex
100
AcDb2dVertex
 10
46.26724887845674
 20
88.88062942235466
 30
0.0
  0
VERTEX
  5
1F6
330
1E7
100
AcDbEntity
  8
Visible (ISO)
100
AcDbVertex
100
AcDb2dVertex
 10
46.2478993481175
 20
88.89538723437782
 30
0.0
  0
VERTEX
  5
1F7
330
1E7
100
AcDbEntity
  8
Visible (ISO)
100
AcDbVertex
100
AcDb2dVertex
 10
46.22738678214708
 20
88.90886175839897
 30
0.0
  0
VERTEX
  5
1F8
330
1E7
100
AcDbEntity
  8
Visible (ISO)
100
AcDbVertex
100
AcDb2dVertex
 10
46.20571132955709
 20
88.92105269639488
 30
0.0
  0
VERTEX
  5
1F9
330
1E7
100
AcDbEntity
  8
Visible (ISO)
100
AcDbVertex
100
AcDb2dVertex
 10
46.18287284133592
 20
88.931960644412
 30
0.0
  0
VERTEX
  5
1FA
330
1E7
100
AcDbEntity
  8
Visible (ISO)
100
AcDbVertex
100
AcDb2dVertex
 10
46.15887139198938
 20
88.94158530442711
 30
0.0
  0
VERTEX
  5
1FB
330
1E7
100
AcDbEntity
  8
Visible (ISO)
100
AcDbVertex
100
AcDb2dVertex
 10
46.13370698151746
 20
88.9499266764402
 30
0.0
  0
VERTEX
  5
1FC
330
1E7
100
AcDbEntity
  8
Visible (ISO)
100
AcDbVertex
100
AcDb2dVertex
 10
46.10737960992017
 20
88.95698476045128
 30
0.0
  0
VERTEX
  5
1FD
330
1E7
100
AcDbEntity
  8
Visible (ISO)
100
AcDbVertex
100
AcDb2dVertex
 10
46.0798892026917
 20
88.96275955646034
 30
0.0
  0
VERTEX
  5
1FE
330
1E7
100
AcDbEntity
  8
Visible (ISO)
100
AcDbVertex
100
AcDb2dVertex
 10
46.05123583433786
 20
88.96725106446739
 30
0.0
  0
VERTEX
  5
1FF
330
1E7
100
AcDbEntity
  8
Visible (ISO)
100
AcDbVertex
100
AcDb2dVertex
 10
46.02141950485864
 20
88.97045928447242
 30
0.0
  0
VERTEX
  5
200
330
1E7
100
AcDbEntity
  8
Visible (ISO)
100
AcDbVertex
100
AcDb2dVertex
 10
45.99044021425405
 20
88.97238421647545
 30
0.0
  0
VERTEX
  5
201
330
1E7
100
AcDbEntity
  8
Visible (ISO)
100
AcDbVertex
100
AcDb2dVertex
 10
45.95829796252409
 20
88.97302586047645
 30
0.0
  0
SEQEND
  5
1EA
330
1E7
100
AcDbEntity
  8
Visible (ISO)
  0
LINE
  5
202
330
75
100
AcDbEntity
  8
Visible (ISO)
100
AcDbLine
 10
47.28938557083631
 20
88.63808841968394
 30
0.0
 11
46.41450584406017
 21
88.58611536660815
 31
0.0
  0
POLYLINE
  5
203
330
75
100
AcDbEntity
  8
Visible (ISO)
100
AcDb2dPolyline
 66
     1
 10
0.0
 20
0.0
 30
0.0
 70
   128
  0
VERTEX
  5
204
330
203
100
AcDbEntity
  8
Visible (ISO)
100
AcDbVertex
100
AcDb2dVertex
 10
46.05069447515169
 20
89.53317988126274
 30
0.0
  0
VERTEX
  5
205
330
203
100
AcDbEntity
  8
Visible (ISO)
100
AcDbVertex
100
AcDb2dVertex
 10
46.14502597806612
 20
89.53169632165428
 30
0.0
  0
VERTEX
  5
207
330
203
100
AcDbEntity
  8
Visible (ISO)
100
AcDbVertex
100
AcDb2dVertex
 10
46.23552765903631
 20
89.527244450736
 30
0.0
  0
VERTEX
  5
208
330
203
100
AcDbEntity
  8
Visible (ISO)
100
AcDbVertex
100
AcDb2dVertex
 10
46.32219951806226
 20
89.51982546060081
 30
0.0
  0
VERTEX
  5
209
330
203
100
AcDbEntity
  8
Visible (ISO)
100
AcDbVertex
100
AcDb2dVertex
 10
46.40504162964979
 20
89.5094393512487
 30
0.0
  0
VERTEX
  5
20A
330
203
100
AcDbEntity
  8
Visible (ISO)
100
AcDbVertex
100
AcDb2dVertex
 10
46.48405391929308
 20
89.49608493058677
 30
0.0
  0
VERTEX
  5
20B
330
203
100
AcDbEntity
  8
Visible (ISO)
100
AcDbVertex
100
AcDb2dVertex
 10
46.55923638699213
 20
89.47976339070793
 30
0.0
  0
VERTEX
  5
20C
330
203
100
AcDbEntity
  8
Visible (ISO)
100
AcDbVertex
100
AcDb2dVertex
 10
46.63058895824113
 20
89.46047353951927
 30
0.0
  0
VERTEX
  5
20D
330
203
100
AcDbEntity
  8
Visible (ISO)
100
AcDbVertex
100
AcDb2dVertex
 10
46.69811193106332
 20
89.43821656911369
 30
0.0
  0
VERTEX
  5
20E
330
203
100
AcDbEntity
  8
Visible (ISO)
100
AcDbVertex
100
AcDb2dVertex
 10
46.76180500743547
 20
89.41299247949119
 30
0.0
  0
VERTEX
  5
20F
330
203
100
AcDbEntity
  8
Visible (ISO)
100
AcDbVertex
100
AcDb2dVertex
 10
46.82166818735757
 20
89.38480007855888
 30
0.0
  0
VERTEX
  5
210
330
203
100
AcDbEntity
  8
Visible (ISO)
100
AcDbVertex
100
AcDb2dVertex
 10
46.87770161984125
 20
89.35364055840965
 30
0.0
  0
VERTEX
  5
211
330
203
100
AcDbEntity
  8
Visible (ISO)
100
AcDbVertex
100
AcDb2dVertex
 10
46.92990530488649
 20
89.3195127269506
 30
0.0
  0
VERTEX
  5
212
330
203
100
AcDbEntity
  8
Visible (ISO)
100
AcDbVertex
100
AcDb2dVertex
 10
46.97849963066736
 20
89.28213703839775
 30
0.0
  0
VERTEX
  5
213
330
203
100
AcDbEntity
  8
Visible (ISO)
100
AcDbVertex
100
AcDb2dVertex
 10
47.02370543239275
 20
89.24123245685096
 30
0.0
  0
VERTEX
  5
214
330
203
100
AcDbEntity
  8
Visible (ISO)
100
AcDbVertex
100
AcDb2dVertex
 10
47.06552241203943
 20
89.19679868428703
 30
0.0
  0
VERTEX
  5
215
330
203
100
AcDbEntity
  8
Visible (ISO)
100
AcDbVertex
100
AcDb2dVertex
 10
47.10395086763063
 20
89.14883601872917
 30
0.0
  0
VERTEX
  5
216
330
203
100
AcDbEntity
  8
Visible (ISO)
100
AcDbVertex
100
AcDb2dVertex
 10
47.13899050114313
 20
89.09734416215416
 30
0.0
  0
VERTEX
  5
217
330
203
100
AcDbEntity
  8
Visible (ISO)
100
AcDbVertex
100
AcDb2dVertex
 10
47.17064161060014
 20
89.04232341258522
 30
0.0
  0
VERTEX
  5
218
330
203
100
AcDbEntity
  8
Visible (ISO)
100
AcDbVertex
100
AcDb2dVertex
 10
47.19890389797845
 20
88.98377347199913
 30
0.0
  0
VERTEX
  5
219
330
203
100
AcDbEntity
  8
Visible (ISO)
100
AcDbVertex
100
AcDb2dVertex
 10
47.22377766130128
 20
88.92169434039589
 30
0.0
  0
VERTEX
  5
21A
330
203
100
AcDbEntity
  8
Visible (ISO)
100
AcDbVertex
100
AcDb2dVertex
 10
47.24526260254541
 20
88.85608661382194
 30
0.0
  0
VERTEX
  5
21B
330
203
100
AcDbEntity
  8
Visible (ISO)
100
AcDbVertex
100
AcDb2dVertex
 10
47.26335887072244
 20
88.78694939820762
 30
0.0
  0
VERTEX
  5
21C
330
203
100
AcDbEntity
  8
Visible (ISO)
100
AcDbVertex
100
AcDb2dVertex
 10
47.27806661484399
 20
88.7142835876226
 30
0.0
  0
VERTEX
  5
21D
330
203
100
AcDbEntity
  8
Visible (ISO)
100
AcDbVertex
100
AcDb2dVertex
 10
47.28938553688684
 20
88.6380882879972
 30
0.0
  0
SEQEND
  5
206
330
203
100
AcDbEntity
  8
Visible (ISO)
  0
POLYLINE
  5
21E
330
75
100
AcDbEntity
  8
Visible (ISO)
100
AcDb2dPolyline
 66
     1
 10
0.0
 20
0.0
 30
0.0
 70
   128
  0
VERTEX
  5
21F
330
21E
100
AcDbEntity
  8
Visible (ISO)
100
AcDbVertex
100
AcDb2dVertex
 10
44.77446727661052
 20
88.6554126760244
 30
0.0
  0
VERTEX
  5
220
330
21E
100
AcDbEntity
  8
Visible (ISO)
100
AcDbVertex
100
AcDb2dVertex
 10
44.7765651365892
 20
88.71275443046089
 30
0.0
  0
VERTEX
  5
222
330
21E
100
AcDbEntity
  8
Visible (ISO)
100
AcDbVertex
100
AcDb2dVertex
 10
44.78285875377813
 20
88.76928436963554
 30
0.0
  0
VERTEX
  5
223
330
21E
100
AcDbEntity
  8
Visible (ISO)
100
AcDbVertex
100
AcDb2dVertex
 10
44.79334812817731
 20
88.8250018975019
 30
0.0
  0
VERTEX
  5
224
330
21E
100
AcDbEntity
  8
Visible (ISO)
100
AcDbVertex
100
AcDb2dVertex
 10
44.80803322253385
 20
88.87990761010643
 30
0.0
  0
VERTEX
  5
225
330
21E
100
AcDbEntity
  8
Visible (ISO)
100
AcDbVertex
100
AcDb2dVertex
 10
44.82691403684774
 20
88.93400091140266
 30
0.0
  0
VERTEX
  5
226
330
21E
100
AcDbEntity
  8
Visible (ISO)
100
AcDbVertex
100
AcDb2dVertex
 10
44.84999060837188
 20
88.98728239743705
 30
0.0
  0
VERTEX
  5
227
330
21E
100
AcDbEntity
  8
Visible (ISO)
100
AcDbVertex
100
AcDb2dVertex
 10
44.87726293710628
 20
89.03975177018638
 30
0.0
  0
VERTEX
  5
228
330
21E
100
AcDbEntity
  8
Visible (ISO)
100
AcDbVertex
100
AcDb2dVertex
 10
44.90873100442448
 20
89.09140902965065
 30
0.0
  0
VERTEX
  5
229
330
21E
100
AcDbEntity
  8
Visible (ISO)
100
AcDbVertex
100
AcDb2dVertex
 10
44.94441736695924
 20
89.14130676000114
 30
0.0
  0
VERTEX
  5
22A
330
21E
100
AcDbEntity
  8
Visible (ISO)
100
AcDbVertex
100
AcDb2dVertex
 10
44.98434458134332
 20
89.18849754540916
 30
0.0
  0
VERTEX
  5
22B
330
21E
100
AcDbEntity
  8
Visible (ISO)
100
AcDbVertex
100
AcDb2dVertex
 10
45.02851264757672
 20
89.23298138587471
 30
0.0
  0
VERTEX
  5
22C
330
21E
100
AcDbEntity
  8
Visible (ISO)
100
AcDbVertex
100
AcDb2dVertex
 10
45.07692157497266
 20
89.274758579421
 30
0.0
  0
VERTEX
  5
22D
330
21E
100
AcDbEntity
  8
Visible (ISO)
100
AcDbVertex
100
AcDb2dVertex
 10
45.12957135887453
 20
89.31382823197838
 30
0.0
  0
VERTEX
  5
22E
330
21E
100
AcDbEntity
  8
Visible (ISO)
100
AcDbVertex
100
AcDb2dVertex
 10
45.18646200277479
 20
89.3501912376165
 30
0.0
  0
VERTEX
  5
22F
330
21E
100
AcDbEntity
  8
Visible (ISO)
100
AcDbVertex
100
AcDb2dVertex
 10
45.24759350085267
 20
89.38384759633537
 30
0.0
  0
VERTEX
  5
230
330
21E
100
AcDbEntity
  8
Visible (ISO)
100
AcDbVertex
100
AcDb2dVertex
 10
45.31296585892895
 20
89.41479671208854
 30
0.0
  0
VERTEX
  5
231
330
21E
100
AcDbEntity
  8
Visible (ISO)
100
AcDbVertex
100
AcDb2dVertex
 10
45.38354905528584
 20
89.44254267423149
 30
0.0
  0
VERTEX
  5
232
330
21E
100
AcDbEntity
  8
Visible (ISO)
100
AcDbVertex
100
AcDb2dVertex
 10
45.46031307635465
 20
89.46658957211967
 30
0.0
  0
VERTEX
  5
233
330
21E
100
AcDbEntity
  8
Visible (ISO)
100
AcDbVertex
100
AcDb2dVertex
 10
45.54325793144861
 20
89.4869362136602
 30
0.0
  0
VERTEX
  5
234
330
21E
100
AcDbEntity
  8
Visible (ISO)
100
AcDbVertex
100
AcDb2dVertex
 10
45.63238356468835
 20
89.50358438699241
 30
0.0
  0
VERTEX
  5
235
330
21E
100
AcDbEntity
  8
Visible (ISO)
100
AcDbVertex
100
AcDb2dVertex
 10
45.7276900505797
 20
89.51653230397697
 30
0.0
  0
VERTEX
  5
236
330
21E
100
AcDbEntity
  8
Visible (ISO)
100
AcDbVertex
100
AcDb2dVertex
 10
45.82917738912263
 20
89.52578115670677
 30
0.0
  0
VERTEX
  5
237
330
21E
100
AcDbEntity
  8
Visible (ISO)
100
AcDbVertex
100
AcDb2dVertex
 10
45.93684550581136
 20
89.53133034913536
 30
0.0
  0
VERTEX
  5
238
330
21E
100
AcDbEntity
  8
Visible (ISO)
100
AcDbVertex
100
AcDb2dVertex
 10
46.05069447515169
 20
89.53317988126274
 30
0.0
  0
SEQEND
  5
221
330
21E
100
AcDbEntity
  8
Visible (ISO)
  0
POLYLINE
  5
239
330
75
100
AcDbEntity
  8
Visible (ISO)
100
AcDb2dPolyline
 66
     1
 10
0.0
 20
0.0
 30
0.0
 70
   128
  0
VERTEX
  5
23A
330
239
100
AcDbEntity
  8
Visible (ISO)
100
AcDbVertex
100
AcDb2dVertex
 10
45.03721993622938
 20
88.075047018218
 30
0.0
  0
VERTEX
  5
23B
330
239
100
AcDbEntity
  8
Visible (ISO)
100
AcDbVertex
100
AcDb2dVertex
 10
45.01578005237141
 20
88.09427130429741
 30
0.0
  0
VERTEX
  5
23D
330
239
100
AcDbEntity
  8
Visible (ISO)
100
AcDbVertex
100
AcDb2dVertex
 10
44.99525249210754
 20
88.11392653195854
 30
0.0
  0
VERTEX
  5
23E
330
239
100
AcDbEntity
  8
Visible (ISO)
100
AcDbVertex
100
AcDb2dVertex
 10
44.97563729269066
 20
88.13401299922462
 30
0.0
  0
VERTEX
  5
23F
330
239
100
AcDbEntity
  8
Visible (ISO)
100
AcDbVertex
100
AcDb2dVertex
 10
44.95693439824143
 20
88.15453040807243
 30
0.0
  0
VERTEX
  5
240
330
239
100
AcDbEntity
  8
Visible (ISO)
100
AcDbVertex
100
AcDb2dVertex
 10
44.93914386463919
 20
88.17547905652519
 30
0.0
  0
VERTEX
  5
241
330
239
100
AcDbEntity
  8
Visible (ISO)
100
AcDbVertex
100
AcDb2dVertex
 10
44.92226565463105
 20
88.1968589445829
 30
0.0
  0
VERTEX
  5
242
330
239
100
AcDbEntity
  8
Visible (ISO)
100
AcDbVertex
100
AcDb2dVertex
 10
44.906299768217
 20
88.21866977422233
 30
0.0
  0
VERTEX
  5
243
330
239
100
AcDbEntity
  8
Visible (ISO)
100
AcDbVertex
100
AcDb2dVertex
 10
44.89124624264994
 20
88.24091154544349
 30
0.0
  0
VERTEX
  5
244
330
239
100
AcDbEntity
  8
Visible (ISO)
100
AcDbVertex
100
AcDb2dVertex
 10
44.87710504067698
 20
88.2635845562696
 30
0.0
  0
VERTEX
  5
245
330
239
100
AcDbEntity
  8
Visible (ISO)
100
AcDbVertex
100
AcDb2dVertex
 10
44.86387616229811
 20
88.28668880670067
 30
0.0
  0
VERTEX
  5
246
330
239
100
AcDbEntity
  8
Visible (ISO)
100
AcDbVertex
100
AcDb2dVertex
 10
44.85155962613979
 20
88.31022399871345
 30
0.0
  0
VERTEX
  5
247
330
239
100
AcDbEntity
  8
Visible (ISO)
100
AcDbVertex
100
AcDb2dVertex
 10
44.84015543220201
 20
88.33419043033119
 30
0.0
  0
VERTEX
  5
248
330
239
100
AcDbEntity
  8
Visible (ISO)
100
AcDbVertex
100
AcDb2dVertex
 10
44.82966359911123
 20
88.35858780353065
 30
0.0
  0
VERTEX
  5
249
330
239
100
AcDbEntity
  8
Visible (ISO)
100
AcDbVertex
100
AcDb2dVertex
 10
44.82008405236164
 20
88.38341641633506
 30
0.0
  0
VERTEX
  5
24A
330
239
100
AcDbEntity
  8
Visible (ISO)
100
AcDbVertex
100
AcDb2dVertex
 10
44.81141686645904
 20
88.4086759707212
 30
0.0
  0
VERTEX
  5
24B
330
239
100
AcDbEntity
  8
Visible (ISO)
100
AcDbVertex
100
AcDb2dVertex
 10
44.80366200415054
 20
88.43436676471229
 30
0.0
  0
VERTEX
  5
24C
330
239
100
AcDbEntity
  8
Visible (ISO)
100
AcDbVertex
100
AcDb2dVertex
 10
44.79681950268903
 20
88.46048879830833
 30
0.0
  0
VERTEX
  5
24D
330
239
100
AcDbEntity
  8
Visible (ISO)
100
AcDbVertex
100
AcDb2dVertex
 10
44.79088932482162
 20
88.4870417734861
 30
0.0
  0
VERTEX
  5
24E
330
239
100
AcDbEntity
  8
Visible (ISO)
100
AcDbVertex
100
AcDb2dVertex
 10
44.7858714705483
 20
88.51402569024559
 30
0.0
  0
VERTEX
  5
24F
330
239
100
AcDbEntity
  8
Visible (ISO)
100
AcDbVertex
100
AcDb2dVertex
 10
44.78176597712198
 20
88.54144114463325
 30
0.0
  0
VERTEX
  5
250
330
239
100
AcDbEntity
  8
Visible (ISO)
100
AcDbVertex
100
AcDb2dVertex
 10
44.77857280728975
 20
88.56928724257942
 30
0.0
  0
VERTEX
  5
251
330
239
100
AcDbEntity
  8
Visible (ISO)
100
AcDbVertex
100
AcDb2dVertex
 10
44.77629196105161
 20
88.59756458013054
 30
0.0
  0
VERTEX
  5
252
330
239
100
AcDbEntity
  8
Visible (ISO)
100
AcDbVertex
100
AcDb2dVertex
 10
44.77492343840757
 20
88.6262731572866
 30
0.0
  0
VERTEX
  5
253
330
239
100
AcDbEntity
  8
Visible (ISO)
100
AcDbVertex
100
AcDb2dVertex
 10
44.77446727661052
 20
88.6554126760244
 30
0.0
  0
SEQEND
  5
23C
330
239
100
AcDbEntity
  8
Visible (ISO)
  0
POLYLINE
  5
254
330
75
100
AcDbEntity
  8
Visible (ISO)
100
AcDb2dPolyline
 66
     1
 10
0.0
 20
0.0
 30
0.0
 70
   128
  0
VERTEX
  5
255
330
254
100
AcDbEntity
  8
Visible (ISO)
100
AcDbVertex
100
AcDb2dVertex
 10
45.90921227095285
 20
87.71123576371666
 30
0.0
  0
VERTEX
  5
256
330
254
100
AcDbEntity
  8
Visible (ISO)
100
AcDbVertex
100
AcDb2dVertex
 10
45.85881326553979
 20
87.72270488946434
 30
0.0
  0
VERTEX
  5
258
330
254
100
AcDbEntity
  8
Visible (ISO)
100
AcDbVertex
100
AcDb2dVertex
 10
45.80963734743753
 20
87.73449528424736
 30
0.0
  0
VERTEX
  5
259
330
254
100
AcDbEntity
  8
Visible (ISO)
100
AcDbVertex
100
AcDb2dVertex
 10
45.76168459115186
 20
87.74660605399605
 30
0.0
  0
VERTEX
  5
25A
330
254
100
AcDbEntity
  8
Visible (ISO)
100
AcDbVertex
100
AcDb2dVertex
 10
45.71495495942989
 20
87.75903809278007
 30
0.0
  0
VERTEX
  5
25B
330
254
100
AcDbEntity
  8
Visible (ISO)
100
AcDbVertex
100
AcDb2dVertex
 10
45.66944845227161
 20
87.77179080455299
 30
0.0
  0
VERTEX
  5
25C
330
254
100
AcDbEntity
  8
Visible (ISO)
100
AcDbVertex
100
AcDb2dVertex
 10
45.62516510692993
 20
87.7848641893148
 30
0.0
  0
VERTEX
  5
25D
330
254
100
AcDbEntity
  8
Visible (ISO)
100
AcDbVertex
100
AcDb2dVertex
 10
45.58210484889904
 20
87.79825854508873
 30
0.0
  0
VERTEX
  5
25E
330
254
100
AcDbEntity
  8
Visible (ISO)
100
AcDbVertex
100
AcDb2dVertex
 10
45.54026775268474
 20
87.81197357385154
 30
0.0
  0
VERTEX
  5
25F
330
254
100
AcDbEntity
  8
Visible (ISO)
100
AcDbVertex
100
AcDb2dVertex
 10
45.49965378103414
 20
87.82600957362648
 30
0.0
  0
VERTEX
  5
260
330
254
100
AcDbEntity
  8
Visible (ISO)
100
AcDbVertex
100
AcDb2dVertex
 10
45.46026295257369
 20
87.8403662463903
 30
0.0
  0
VERTEX
  5
261
330
254
100
AcDbEntity
  8
Visible (ISO)
100
AcDbVertex
100
AcDb2dVertex
 10
45.42209523005047
 20
87.85504389016624
 30
0.0
  0
VERTEX
  5
262
330
254
100
AcDbEntity
  8
Visible (ISO)
100
AcDbVertex
100
AcDb2dVertex
 10
45.38515065071741
 20
87.87004220693107
 30
0.0
  0
VERTEX
  5
263
330
254
100
AcDbEntity
  8
Visible (ISO)
100
AcDbVertex
100
AcDb2dVertex
 10
45.34942921457449
 20
87.88536149470802
 30
0.0
  0
VERTEX
  5
264
330
254
100
AcDbEntity
  8
Visible (ISO)
100
AcDbVertex
100
AcDb2dVertex
 10
45.31493088436881
 20
87.90100145547386
 30
0.0
  0
VERTEX
  5
265
330
254
100
AcDbEntity
  8
Visible (ISO)
100
AcDbVertex
100
AcDb2dVertex
 10
45.2816557066665
 20
87.91696238725181
 30
0.0
  0
VERTEX
  5
266
330
254
100
AcDbEntity
  8
Visible (ISO)
100
AcDbVertex
100
AcDb2dVertex
 10
45.24960364887127
 20
87.93324399201866
 30
0.0
  0
VERTEX
  5
267
330
254
100
AcDbEntity
  8
Visible (ISO)
100
AcDbVertex
100
AcDb2dVertex
 10
45.21877472495297
 20
87.94984656779762
 30
0.0
  0
VERTEX
  5
268
330
254
100
AcDbEntity
  8
Visible (ISO)
100
AcDbVertex
100
AcDb2dVertex
 10
45.18916893258327
 20
87.96676981656547
 30
0.0
  0
VERTEX
  5
269
330
254
100
AcDbEntity
  8
Visible (ISO)
100
AcDbVertex
100
AcDb2dVertex
 10
45.16078627176219
 20
87.98401403634544
 30
0.0
  0
VERTEX
  5
26A
330
254
100
AcDbEntity
  8
Visible (ISO)
100
AcDbVertex
100
AcDb2dVertex
 10
45.13362674248972
 20
88.0015789291143
 30
0.0
  0
VERTEX
  5
26B
330
254
100
AcDbEntity
  8
Visible (ISO)
100
AcDbVertex
100
AcDb2dVertex
 10
45.10769034476587
 20
88.01946479289528
 30
0.0
  0
VERTEX
  5
26C
330
254
100
AcDbEntity
  8
Visible (ISO)
100
AcDbVertex
100
AcDb2dVertex
 10
45.08297708091894
 20
88.03767132966514
 30
0.0
  0
VERTEX
  5
26D
330
254
100
AcDbEntity
  8
Visible (ISO)
100
AcDbVertex
100
AcDb2dVertex
 10
45.05948694629231
 20
88.05619883744713
 30
0.0
  0
VERTEX
  5
26E
330
254
100
AcDbEntity
  8
Visible (ISO)
100
AcDbVertex
100
AcDb2dVertex
 10
45.03721993622938
 20
88.075047018218
 30
0.0
  0
SEQEND
  5
257
330
254
100
AcDbEntity
  8
Visible (ISO)
  0
POLYLINE
  5
26F
330
75
100
AcDbEntity
  8
Visible (ISO)
100
AcDb2dPolyline
 66
     1
 10
0.0
 20
0.0
 30
0.0
 70
   128
  0
VERTEX
  5
270
330
26F
100
AcDbEntity
  8
Visible (ISO)
100
AcDbVertex
100
AcDb2dVertex
 10
46.38274450061479
 20
87.53510463445183
 30
0.0
  0
VERTEX
  5
271
330
26F
100
AcDbEntity
  8
Visible (ISO)
100
AcDbVertex
100
AcDb2dVertex
 10
46.37385178563753
 20
87.54278946130272
 30
0.0
  0
VERTEX
  5
273
330
26F
100
AcDbEntity
  8
Visible (ISO)
100
AcDbVertex
100
AcDb2dVertex
 10
46.36401657221475
 20
87.55044388978477
 30
0.0
  0
VERTEX
  5
274
330
26F
100
AcDbEntity
  8
Visible (ISO)
100
AcDbVertex
100
AcDb2dVertex
 10
46.35323900935808
 20
87.55806851594444
 30
0.0
  0
VERTEX
  5
275
330
26F
100
AcDbEntity
  8
Visible (ISO)
100
AcDbVertex
100
AcDb2dVertex
 10
46.3415190225617
 20
87.5656630417585
 30
0.0
  0
VERTEX
  5
276
330
26F
100
AcDbEntity
  8
Visible (ISO)
100
AcDbVertex
100
AcDb2dVertex
 10
46.32885661182561
 20
87.57322746722694
 30
0.0
  0
VERTEX
  5
277
330
26F
100
AcDbEntity
  8
Visible (ISO)
100
AcDbVertex
100
AcDb2dVertex
 10
46.31525177714983
 20
87.58076149432655
 30
0.0
  0
VERTEX
  5
278
330
26F
100
AcDbEntity
  8
Visible (ISO)
100
AcDbVertex
100
AcDb2dVertex
 10
46.30070451853433
 20
87.58826571910377
 30
0.0
  0
VERTEX
  5
279
330
26F
100
AcDbEntity
  8
Visible (ISO)
100
AcDbVertex
100
AcDb2dVertex
 10
46.28521483597913
 20
87.59573984353538
 30
0.0
  0
VERTEX
  5
27A
330
26F
100
AcDbEntity
  8
Visible (ISO)
100
AcDbVertex
100
AcDb2dVertex
 10
46.26878280399004
 20
87.6031841656446
 30
0.0
  0
VERTEX
  5
27B
330
26F
100
AcDbEntity
  8
Visible (ISO)
100
AcDbVertex
100
AcDb2dVertex
 10
46.25140827355543
 20
87.61059808938499
 30
0.0
  0
VERTEX
  5
27C
330
26F
100
AcDbEntity
  8
Visible (ISO)
100
AcDbVertex
100
AcDb2dVertex
 10
46.23309139368692
 20
87.61798191277977
 30
0.0
  0
VERTEX
  5
27D
330
26F
100
AcDbEntity
  8
Visible (ISO)
100
AcDbVertex
100
AcDb2dVertex
 10
46.21383208987871
 20
87.62533563582893
 30
0.0
  0
VERTEX
  5
27E
330
26F
100
AcDbEntity
  8
Visible (ISO)
100
AcDbVertex
100
AcDb2dVertex
 10
46.19363036213079
 20
87.63265955655571
 30
0.0
  0
VERTEX
  5
27F
330
26F
100
AcDbEntity
  8
Visible (ISO)
100
AcDbVertex
100
AcDb2dVertex
 10
46.17248628494897
 20
87.63995307891365
 30
0.0
  0
VERTEX
  5
280
330
26F
100
AcDbEntity
  8
Visible (ISO)
100
AcDbVertex
100
AcDb2dVertex
 10
46.15039970932165
 20
87.6472167989492
 30
0.0
  0
VERTEX
  5
281
330
26F
100
AcDbEntity
  8
Visible (ISO)
100
AcDbVertex
100
AcDb2dVertex
 10
46.12737078426042
 20
87.65445012061592
 30
0.0
  0
VERTEX
  5
282
330
26F
100
AcDbEntity
  8
Visible (ISO)
100
AcDbVertex
100
AcDb2dVertex
 10
46.10339943525949
 20
87.66165363996025
 30
0.0
  0
VERTEX
  5
283
330
26F
100
AcDbEntity
  8
Visible (ISO)
100
AcDbVertex
100
AcDb2dVertex
 10
46.07848558781305
 20
87.66882705895897
 30
0.0
  0
VERTEX
  5
284
330
26F
100
AcDbEntity
  8
Visible (ISO)
100
AcDbVertex
100
AcDb2dVertex
 10
46.05262939093271
 20
87.67597037761207
 30
0.0
  0
VERTEX
  5
285
330
26F
100
AcDbEntity
  8
Visible (ISO)
100
AcDbVertex
100
AcDb2dVertex
 10
46.02583084461847
 20
87.68308359591957
 30
0.0
  0
VERTEX
  5
286
330
26F
100
AcDbEntity
  8
Visible (ISO)
100
AcDbVertex
100
AcDb2dVertex
 10
45.99808979985872
 20
87.69016671388145
 30
0.0
  0
VERTEX
  5
287
330
26F
100
AcDbEntity
  8
Visible (ISO)
100
AcDbVertex
100
AcDb2dVertex
 10
45.96940640566507
 20
87.69721973149772
 30
0.0
  0
VERTEX
  5
288
330
26F
100
AcDbEntity
  8
Visible (ISO)
100
AcDbVertex
100
AcDb2dVertex
 10
45.93978051302591
 20
87.70424264876838
 30
0.0
  0
VERTEX
  5
289
330
26F
100
AcDbEntity
  8
Visible (ISO)
100
AcDbVertex
100
AcDb2dVertex
 10
45.90921227095285
 20
87.71123576371666
 30
0.0
  0
SEQEND
  5
272
330
26F
100
AcDbEntity
  8
Visible (ISO)
  0
POLYLINE
  5
28A
330
75
100
AcDbEntity
  8
Visible (ISO)
100
AcDb2dPolyline
 66
     1
 10
0.0
 20
0.0
 30
0.0
 70
   128
  0
VERTEX
  5
28B
330
28A
100
AcDbEntity
  8
Visible (ISO)
100
AcDbVertex
100
AcDb2dVertex
 10
46.48669067976633
 20
87.32721257417198
 30
0.0
  0
VERTEX
  5
28C
330
28A
100
AcDbEntity
  8
Visible (ISO)
100
AcDbVertex
100
AcDb2dVertex
 10
46.48651022670427
 20
87.33679700105186
 30
0.0
  0
VERTEX
  5
28E
330
28A
100
AcDbEntity
  8
Visible (ISO)
100
AcDbVertex
100
AcDb2dVertex
 10
46.48596871850648
 20
87.34630125968452
 30
0.0
  0
VERTEX
  5
28F
330
28A
100
AcDbEntity
  8
Visible (ISO)
100
AcDbVertex
100
AcDb2dVertex
 10
46.4850664531962
 20
87.35572564809318
 30
0.0
  0
VERTEX
  5
290
330
28A
100
AcDbEntity
  8
Visible (ISO)
100
AcDbVertex
100
AcDb2dVertex
 10
46.48380328176179
 20
87.3650695702314
 30
0.0
  0
VERTEX
  5
291
330
28A
100
AcDbEntity
  8
Visible (ISO)
100
AcDbVertex
100
AcDb2dVertex
 10
46.48217905519167
 20
87.37433302609916
 30
0.0
  0
VERTEX
  5
292
330
28A
100
AcDbEntity
  8
Visible (ISO)
100
AcDbVertex
100
AcDb2dVertex
 10
46.48019407150903
 20
87.38351661174293
 30
0.0
  0
VERTEX
  5
293
330
28A
100
AcDbEntity
  8
Visible (ISO)
100
AcDbVertex
100
AcDb2dVertex
 10
46.47784803269067
 20
87.39262002913948
 30
0.0
  0
VERTEX
  5
294
330
28A
100
AcDbEntity
  8
Visible (ISO)
100
AcDbVertex
100
AcDb2dVertex
 10
46.4751410877482
 20
87.40164298026558
 30
0.0
  0
VERTEX
  5
295
330
28A
100
AcDbEntity
  8
Visible (ISO)
100
AcDbVertex
100
AcDb2dVertex
 10
46.47207323668161
 20
87.41058606116768
 30
0.0
  0
VERTEX
  5
296
330
28A
100
AcDbEntity
  8
Visible (ISO)
100
AcDbVertex
100
AcDb2dVertex
 10
46.46864447949091
 20
87.41944867579933
 30
0.0
  0
VERTEX
  5
297
330
28A
100
AcDbEntity
  8
Visible (ISO)
100
AcDbVertex
100
AcDb2dVertex
 10
46.46485466716447
 20
87.42823112218376
 30
0.0
  0
VERTEX
  5
298
330
28A
100
AcDbEntity
  8
Visible (ISO)
100
AcDbVertex
100
AcDb2dVertex
 10
46.46070409772554
 20
87.43693340032097
 30
0.0
  0
VERTEX
  5
299
330
28A
100
AcDbEntity
  8
Visible (ISO)
100
AcDbVertex
100
AcDb2dVertex
 10
46.45619262216249
 20
87.44555551021095
 30
0.0
  0
VERTEX
  5
29A
330
28A
100
AcDbEntity
  8
Visible (ISO)
100
AcDbVertex
100
AcDb2dVertex
 10
46.45132009146371
 20
87.45409745185371
 30
0.0
  0
VERTEX
  5
29B
330
28A
100
AcDbEntity
  8
Visible (ISO)
100
AcDbVertex
100
AcDb2dVertex
 10
46.44608665464082
 20
87.46255892722603
 30
0.0
  0
VERTEX
  5
29C
330
28A
100
AcDbEntity
  8
Visible (ISO)
100
AcDbVertex
100
AcDb2dVertex
 10
46.44049231169382
 20
87.47094053237434
 30
0.0
  0
VERTEX
  5
29D
330
28A
100
AcDbEntity
  8
Visible (ISO)
100
AcDbVertex
100
AcDb2dVertex
 10
46.4345370626227
 20
87.47924167125221
 30
0.0
  0
VERTEX
  5
29E
330
28A
100
AcDbEntity
  8
Visible (ISO)
100
AcDbVertex
100
AcDb2dVertex
 10
46.42822090742746
 20
87.48746264188286
 30
0.0
  0
VERTEX
  5
29F
330
28A
100
AcDbEntity
  8
Visible (ISO)
100
AcDbVertex
100
AcDb2dVertex
 10
46.42154384610811
 20
87.4956037422895
 30
0.0
  0
VERTEX
  5
2A0
330
28A
100
AcDbEntity
  8
Visible (ISO)
100
AcDbVertex
100
AcDb2dVertex
 10
46.41450587866464
 20
87.5036643764257
 30
0.0
  0
VERTEX
  5
2A1
330
28A
100
AcDbEntity
  8
Visible (ISO)
100
AcDbVertex
100
AcDb2dVertex
 10
46.40710693059125
 20
87.51164454429146
 30
0.0
  0
VERTEX
  5
2A2
330
28A
100
AcDbEntity
  8
Visible (ISO)
100
AcDbVertex
100
AcDb2dVertex
 10
46.39934700188795
 20
87.51954484193321
 30
0.0
  0
VERTEX
  5
2A3
330
28A
100
AcDbEntity
  8
Visible (ISO)
100
AcDbVertex
100
AcDb2dVertex
 10
46.39122624156633
 20
87.52736497132774
 30
0.0
  0
VERTEX
  5
2A4
330
28A
100
AcDbEntity
  8
Visible (ISO)
100
AcDbVertex
100
AcDb2dVertex
 10
46.38274450061479
 20
87.53510463445183
 30
0.0
  0
SEQEND
  5
28D
330
28A
100
AcDbEntity
  8
Visible (ISO)
  0
POLYLINE
  5
2A5
330
75
100
AcDbEntity
  8
Visible (ISO)
100
AcDb2dPolyline
 66
     1
 10
0.0
 20
0.0
 30
0.0
 70
   128
  0
VERTEX
  5
2A6
330
2A5
100
AcDbEntity
  8
Visible (ISO)
100
AcDbVertex
100
AcDb2dVertex
 10
46.07379358468214
 20
87.01826173274513
 30
0.0
  0
VERTEX
  5
2A7
330
2A5
100
AcDbEntity
  8
Visible (ISO)
100
AcDbVertex
100
AcDb2dVertex
 10
46.1059058105723
 20
87.01891321151252
 30
0.0
  0
VERTEX
  5
2A9
330
2A5
100
AcDbEntity
  8
Visible (ISO)
100
AcDbVertex
100
AcDb2dVertex
 10
46.13679487464586
 20
87.02086824386116
 30
0.0
  0
VERTEX
  5
2AA
330
2A5
100
AcDbEntity
  8
Visible (ISO)
100
AcDbVertex
100
AcDb2dVertex
 10
46.16646085140863
 20
87.0241265317678
 30
0.0
  0
VERTEX
  5
2AB
330
2A5
100
AcDbEntity
  8
Visible (ISO)
100
AcDbVertex
100
AcDb2dVertex
 10
46.1949036663548
 20
87.02868837325569
 30
0.0
  0
VERTEX
  5
2AC
330
2A5
100
AcDbEntity
  8
Visible (ISO)
100
AcDbVertex
100
AcDb2dVertex
 10
46.22212331948438
 20
87.03455317227836
 30
0.0
  0
VERTEX
  5
2AD
330
2A5
100
AcDbEntity
  8
Visible (ISO)
100
AcDbVertex
100
AcDb2dVertex
 10
46.24811988530317
 20
87.04172152488228
 30
0.0
  0
VERTEX
  5
2AE
330
2A5
100
AcDbEntity
  8
Visible (ISO)
100
AcDbVertex
100
AcDb2dVertex
 10
46.27289328930536
 20
87.05019343106743
 30
0.0
  0
VERTEX
  5
2AF
330
2A5
100
AcDbEntity
  8
Visible (ISO)
100
AcDbVertex
100
AcDb2dVertex
 10
46.29644360599676
 20
87.05996829478737
 30
0.0
  0
VERTEX
  5
2B0
330
2A5
100
AcDbEntity
  8
Visible (ISO)
100
AcDbVertex
100
AcDb2dVertex
 10
46.31877076087156
 20
87.07104671208854
 30
0.0
  0
VERTEX
  5
2B1
330
2A5
100
AcDbEntity
  8
Visible (ISO)
100
AcDbVertex
100
AcDb2dVertex
 10
46.33987475392976
 20
87.08342838494774
 30
0.0
  0
VERTEX
  5
2B2
330
2A5
100
AcDbEntity
  8
Visible (ISO)
100
AcDbVertex
100
AcDb2dVertex
 10
46.35975565967718
 20
87.09711361138817
 30
0.0
  0
VERTEX
  5
2B3
330
2A5
100
AcDbEntity
  8
Visible (ISO)
100
AcDbVertex
100
AcDb2dVertex
 10
46.3784134781138
 20
87.11210179536339
 30
0.0
  0
VERTEX
  5
2B4
330
2A5
100
AcDbEntity
  8
Visible (ISO)
100
AcDbVertex
100
AcDb2dVertex
 10
46.39570769128957
 20
87.12793249099251
 30
0.0
  0
VERTEX
  5
2B5
330
2A5
100
AcDbEntity
  8
Visible (ISO)
100
AcDbVertex
100
AcDb2dVertex
 10
46.41149815378347
 20
87.14414376227852
 30
0.0
  0
VERTEX
  5
2B6
330
2A5
100
AcDbEntity
  8
Visible (ISO)
100
AcDbVertex
100
AcDb2dVertex
 10
46.42578471658388
 20
87.16073620526787
 30
0.0
  0
VERTEX
  5
2B7
330
2A5
100
AcDbEntity
  8
Visible (ISO)
100
AcDbVertex
100
AcDb2dVertex
 10
46.4385673796908
 20
87.17770981996055
 30
0.0
  0
VERTEX
  5
2B8
330
2A5
100
AcDbEntity
  8
Visible (ISO)
100
AcDbVertex
100
AcDb2dVertex
 10
46.44984636662164
 20
87.19506430833336
 30
0.0
  0
VERTEX
  5
2B9
330
2A5
100
AcDbEntity
  8
Visible (ISO)
100
AcDbVertex
100
AcDb2dVertex
 10
46.45962137935319
 20
87.21279967038627
 30
0.0
  0
VERTEX
  5
2BA
330
2A5
100
AcDbEntity
  8
Visible (ISO)
100
AcDbVertex
100
AcDb2dVertex
 10
46.46789256689706
 20
87.23091590611931
 30
0.0
  0
VERTEX
  5
2BB
330
2A5
100
AcDbEntity
  8
Visible (ISO)
100
AcDbVertex
100
AcDb2dVertex
 10
46.47465978024164
 20
87.24941331355568
 30
0.0
  0
VERTEX
  5
2BC
330
2A5
100
AcDbEntity
  8
Visible (ISO)
100
AcDbVertex
100
AcDb2dVertex
 10
46.47992331741014
 20
87.26829159467216
 30
0.0
  0
VERTEX
  5
2BD
330
2A5
100
AcDbEntity
  8
Visible (ISO)
100
AcDbVertex
100
AcDb2dVertex
 10
46.48368288037935
 20
87.28755104749199
 30
0.0
  0
VERTEX
  5
2BE
330
2A5
100
AcDbEntity
  8
Visible (ISO)
100
AcDbVertex
100
AcDb2dVertex
 10
46.48593876717248
 20
87.30719137399193
 30
0.0
  0
VERTEX
  5
2BF
330
2A5
100
AcDbEntity
  8
Visible (ISO)
100
AcDbVertex
100
AcDb2dVertex
 10
46.48669067976633
 20
87.32721257417198
 30
0.0
  0
SEQEND
  5
2A8
330
2A5
100
AcDbEntity
  8
Visible (ISO)
  0
POLYLINE
  5
2C0
330
75
100
AcDbEntity
  8
Visible (ISO)
100
AcDb2dPolyline
 66
     1
 10
0.0
 20
0.0
 30
0.0
 70
   128
  0
VERTEX
  5
2C1
330
2C0
100
AcDbEntity
  8
Visible (ISO)
100
AcDbVertex
100
AcDb2dVertex
 10
45.66089656410375
 20
87.2001673599958
 30
0.0
  0
VERTEX
  5
2C2
330
2C0
100
AcDbEntity
  8
Visible (ISO)
100
AcDbVertex
100
AcDb2dVertex
 10
45.6731429344193
 20
87.18532431333061
 30
0.0
  0
VERTEX
  5
2C4
330
2C0
100
AcDbEntity
  8
Visible (ISO)
100
AcDbVertex
100
AcDb2dVertex
 10
45.68582039532819
 20
87.17111277787681
 30
0.0
  0
VERTEX
  5
2C5
330
2C0
100
AcDbEntity
  8
Visible (ISO)
100
AcDbVertex
100
AcDb2dVertex
 10
45.69892894683042
 20
87.15753305165764
 30
0.0
  0
VERTEX
  5
2C6
330
2C0
100
AcDbEntity
  8
Visible (ISO)
100
AcDbVertex
100
AcDb2dVertex
 10
45.71246858892599
 20
87.14458513467308
 30
0.0
  0
VERTEX
  5
2C7
330
2C0
100
AcDbEntity
  8
Visible (ISO)
100
AcDbVertex
100
AcDb2dVertex
 10
45.72643935886779
 20
87.13226843087669
 30
0.0
  0
VERTEX
  5
2C8
330
2C0
100
AcDbEntity
  8
Visible (ISO)
100
AcDbVertex
100
AcDb2dVertex
 10
45.74084121940294
 20
87.12058353631492
 30
0.0
  0
VERTEX
  5
2C9
330
2C0
100
AcDbEntity
  8
Visible (ISO)
100
AcDbVertex
100
AcDb2dVertex
 10
45.75567420778432
 20
87.10953015296455
 30
0.0
  0
VERTEX
  5
2CA
330
2C0
100
AcDbEntity
  8
Visible (ISO)
100
AcDbVertex
100
AcDb2dVertex
 10
45.77093828675905
 20
87.0991085788488
 30
0.0
  0
VERTEX
  5
2CB
330
2C0
100
AcDbEntity
  8
Visible (ISO)
100
AcDbVertex
100
AcDb2dVertex
 10
45.78663345632711
 20
87.08931851594444
 30
0.0
  0
VERTEX
  5
2CC
330
2C0
100
AcDbEntity
  8
Visible (ISO)
100
AcDbVertex
100
AcDb2dVertex
 10
45.80275971648851
 20
87.08015996425148
 30
0.0
  0
VERTEX
  5
2CD
330
2C0
100
AcDbEntity
  8
Visible (ISO)
100
AcDbVertex
100
AcDb2dVertex
 10
45.81931714174905
 20
87.07163322179313
 30
0.0
  0
VERTEX
  5
2CE
330
2C0
100
AcDbEntity
  8
Visible (ISO)
100
AcDbVertex
100
AcDb2dVertex
 10
45.83630565760294
 20
87.06373799054619
 30
0.0
  0
VERTEX
  5
2CF
330
2C0
100
AcDbEntity
  8
Visible (ISO)
100
AcDbVertex
100
AcDb2dVertex
 10
45.85372518954435
 20
87.05647456853386
 30
0.0
  0
VERTEX
  5
2D0
330
2C0
100
AcDbEntity
  8
Visible (ISO)
100
AcDbVertex
100
AcDb2dVertex
 10
45.87157588658491
 20
87.0498423597097
 30
0.0
  0
VERTEX
  5
2D1
330
2C0
100
AcDbEntity
  8
Visible (ISO)
100
AcDbVertex
100
AcDb2dVertex
 10
45.88985774872461
 20
87.04384196012016
 30
0.0
  0
VERTEX
  5
2D2
330
2C0
100
AcDbEntity
  8
Visible (ISO)
100
AcDbVertex
100
AcDb2dVertex
 10
45.90857062695184
 20
87.03847336976524
 30
0.0
  0
VERTEX
  5
2D3
330
2C0
100
AcDbEntity
  8
Visible (ISO)
100
AcDbVertex
100
AcDb2dVertex
 10
45.92771467027822
 20
87.03373629062172
 30
0.0
  0
VERTEX
  5
2D4
330
2C0
100
AcDbEntity
  8
Visible (ISO)
100
AcDbVertex
100
AcDb2dVertex
 10
45.94728972969213
 20
87.02963072268959
 30
0.0
  0
VERTEX
  5
2D5
330
2C0
100
AcDbEntity
  8
Visible (ISO)
100
AcDbVertex
100
AcDb2dVertex
 10
45.96729595420518
 20
87.02615666596885
 30
0.0
  0
VERTEX
  5
2D6
330
2C0
100
AcDbEntity
  8
Visible (ISO)
100
AcDbVertex
100
AcDb2dVertex
 10
45.98773326931158
 20
87.02331441848274
 30
0.0
  0
VERTEX
  5
2D7
330
2C0
100
AcDbEntity
  8
Visible (ISO)
100
AcDbVertex
100
AcDb2dVertex
 10
46.00860174951711
 20
87.02110398023124
 30
0.0
  0
VERTEX
  5
2D8
330
2C0
100
AcDbEntity
  8
Visible (ISO)
100
AcDbVertex
100
AcDb2dVertex
 10
46.02990124581018
 20
87.01952475516792
 30
0.0
  0
VERTEX
  5
2D9
330
2C0
100
AcDbEntity
  8
Visible (ISO)
100
AcDbVertex
100
AcDb2dVertex
 10
46.05163190720239
 20
87.01857733933922
 30
0.0
  0
VERTEX
  5
2DA
330
2C0
100
AcDbEntity
  8
Visible (ISO)
100
AcDbVertex
100
AcDb2dVertex
 10
46.07379358468214
 20
87.01826173274513
 30
0.0
  0
SEQEND
  5
2C3
330
2C0
100
AcDbEntity
  8
Visible (ISO)
  0
POLYLINE
  5
2DB
330
75
100
AcDbEntity
  8
Visible (ISO)
100
AcDb2dPolyline
 66
     1
 10
0.0
 20
0.0
 30
0.0
 70
   128
  0
VERTEX
  5
2DC
330
2DB
100
AcDbEntity
  8
Visible (ISO)
100
AcDbVertex
100
AcDb2dVertex
 10
45.5454009046928
 20
87.52932983844276
 30
0.0
  0
VERTEX
  5
2DD
330
2DB
100
AcDbEntity
  8
Visible (ISO)
100
AcDbVertex
100
AcDb2dVertex
 10
45.54790731725851
 20
87.51146424024101
 30
0.0
  0
VERTEX
  5
2DF
330
2DB
100
AcDbEntity
  8
Visible (ISO)
100
AcDbVertex
100
AcDb2dVertex
 10
45.55061426220098
 20
87.49395954816337
 30
0.0
  0
VERTEX
  5
2E0
330
2DB
100
AcDbEntity
  8
Visible (ISO)
100
AcDbVertex
100
AcDb2dVertex
 10
45.55352170226732
 20
87.47681546418663
 30
0.0
  0
VERTEX
  5
2E1
330
2DB
100
AcDbEntity
  8
Visible (ISO)
100
AcDbVertex
100
AcDb2dVertex
 10
45.55662963745752
 20
87.46003258435722
 30
0.0
  0
VERTEX
  5
2E2
330
2DB
100
AcDbEntity
  8
Visible (ISO)
100
AcDbVertex
100
AcDb2dVertex
 10
45.55993810502449
 20
87.44361061065193
 30
0.0
  0
VERTEX
  5
2E3
330
2DB
100
AcDbEntity
  8
Visible (ISO)
100
AcDbVertex
100
AcDb2dVertex
 10
45.56344710496822
 20
87.42754924504753
 30
0.0
  0
VERTEX
  5
2E4
330
2DB
100
AcDbEntity
  8
Visible (ISO)
100
AcDbVertex
100
AcDb2dVertex
 10
45.56715660003582
 20
87.41184908359047
 30
0.0
  0
VERTEX
  5
2E5
330
2DB
100
AcDbEntity
  8
Visible (ISO)
100
AcDbVertex
100
AcDb2dVertex
 10
45.57106659022728
 20
87.39650982825752
 30
0.0
  0
VERTEX
  5
2E6
330
2DB
100
AcDbEntity
  8
Visible (ISO)
100
AcDbVertex
100
AcDb2dVertex
 10
45.5751771127955
 20
87.38153147904869
 30
0.0
  0
VERTEX
  5
2E7
330
2DB
100
AcDbEntity
  8
Visible (ISO)
100
AcDbVertex
100
AcDb2dVertex
 10
45.57948816774049
 20
87.36691403596397
 30
0.0
  0
VERTEX
  5
2E8
330
2DB
100
AcDbEntity
  8
Visible (ISO)
100
AcDbVertex
100
AcDb2dVertex
 10
45.58399971780935
 20
87.35265779702659
 30
0.0
  0
VERTEX
  5
2E9
330
2DB
100
AcDbEntity
  8
Visible (ISO)
100
AcDbVertex
100
AcDb2dVertex
 10
45.58871176300207
 20
87.33876216619011
 30
0.0
  0
VERTEX
  5
2EA
330
2DB
100
AcDbEntity
  8
Visible (ISO)
100
AcDbVertex
100
AcDb2dVertex
 10
45.59362434057155
 20
87.32522744147773
 30
0.0
  0
VERTEX
  5
2EB
330
2DB
100
AcDbEntity
  8
Visible (ISO)
100
AcDbVertex
100
AcDb2dVertex
 10
45.5987374505178
 20
87.31205362288948
 30
0.0
  0
VERTEX
  5
2EC
330
2DB
100
AcDbEntity
  8
Visible (ISO)
100
AcDbVertex
100
AcDb2dVertex
 10
45.60405105558792
 20
87.29924100844856
 30
0.0
  0
VERTEX
  5
2ED
330
2DB
100
AcDbEntity
  8
Visible (ISO)
100
AcDbVertex
100
AcDb2dVertex
 10
45.60956515578189
 20
87.28678900210853
 30
0.0
  0
VERTEX
  5
2EE
330
2DB
100
AcDbEntity
  8
Visible (ISO)
100
AcDbVertex
100
AcDb2dVertex
 10
45.61527978835264
 20
87.27469819991584
 30
0.0
  0
VERTEX
  5
2EF
330
2DB
100
AcDbEntity
  8
Visible (ISO)
100
AcDbVertex
100
AcDb2dVertex
 10
45.62119495330015
 20
87.26296800582405
 30
0.0
  0
VERTEX
  5
2F0
330
2DB
100
AcDbEntity
  8
Visible (ISO)
100
AcDbVertex
100
AcDb2dVertex
 10
45.62731057611862
 20
87.25159901587959
 30
0.0
  0
VERTEX
  5
2F1
330
2DB
100
AcDbEntity
  8
Visible (ISO)
100
AcDbVertex
100
AcDb2dVertex
 10
45.63362676856676
 20
87.24059063403602
 30
0.0
  0
VERTEX
  5
2F2
330
2DB
100
AcDbEntity
  8
Visible (ISO)
100
AcDbVertex
100
AcDb2dVertex
 10
45.64014345613876
 20
87.2299434563398
 30
0.0
  0
VERTEX
  5
2F3
330
2DB
100
AcDbEntity
  8
Visible (ISO)
100
AcDbVertex
100
AcDb2dVertex
 10
45.64686063883462
 20
87.21965718476768
 30
0.0
  0
VERTEX
  5
2F4
330
2DB
100
AcDbEntity
  8
Visible (ISO)
100
AcDbVertex
100
AcDb2dVertex
 10
45.65377835390726
 20
87.20973181931968
 30
0.0
  0
VERTEX
  5
2F5
330
2DB
100
AcDbEntity
  8
Visible (ISO)
100
AcDbVertex
100
AcDb2dVertex
 10
45.66089656410375
 20
87.2001673599958
 30
0.0
  0
SEQEND
  5
2DE
330
2DB
100
AcDbEntity
  8
Visible (ISO)
  0
LINE
  5
2F6
330
75
100
AcDbEntity
  8
Visible (ISO)
100
AcDbLine
 10
44.66185899867034
 20
87.4744695091533
 30
0.0
 11
45.54540090095912
 21
87.52932995406665
 31
0.0
  0
LINE
  5
2F7
330
75
100
AcDbEntity
  8
Visible (ISO)
100
AcDbLine
 10
42.02567025099172
 20
86.48120671703779
 30
0.0
 11
42.02567025099172
 21
89.48120683624708
 31
0.0
  0
LINE
  5
2F8
330
75
100
AcDbEntity
  8
Visible (ISO)
100
AcDbLine
 10
44.39910634145373
 20
86.48120671703779
 30
0.0
 11
42.02567025099172
 21
86.48120671703779
 31
0.0
  0
LINE
  5
2F9
330
75
100
AcDbEntity
  8
Visible (ISO)
100
AcDbLine
 10
44.39910634145373
 20
87.22037902744933
 30
0.0
 11
44.39910634145373
 21
86.48120671703779
 31
0.0
  0
LINE
  5
2FA
330
75
100
AcDbEntity
  8
Visible (ISO)
100
AcDbLine
 10
42.95252303084367
 20
87.22037902744933
 30
0.0
 11
44.39910634145373
 21
87.22037902744933
 31
0.0
  0
LINE
  5
2FB
330
75
100
AcDbEntity
  8
Visible (ISO)
100
AcDbLine
 10
42.95252303084367
 20
89.48120683624708
 30
0.0
 11
42.95252303084367
 21
87.22037902744933
 31
0.0
  0
LINE
  5
2FC
330
75
100
AcDbEntity
  8
Visible (ISO)
100
AcDbLine
 10
42.02567025099172
 20
89.48120683624708
 30
0.0
 11
42.95252303084367
 21
89.48120683624708
 31
0.0
  0
LINE
  5
2FD
330
75
100
AcDbEntity
  8
Visible (ISO)
100
AcDbLine
 10
40.48957779341776
 20
87.65060041124355
 30
0.0
 11
40.48957779341776
 21
89.48120683624708
 31
0.0
  0
POLYLINE
  5
2FE
330
75
100
AcDbEntity
  8
Visible (ISO)
100
AcDb2dPolyline
 66
     1
 10
0.0
 20
0.0
 30
0.0
 70
   128
  0
VERTEX
  5
2FF
330
2FE
100
AcDbEntity
  8
Visible (ISO)
100
AcDbVertex
100
AcDb2dVertex
 10
39.97562203762689
 20
87.12798255889412
 30
0.0
  0
VERTEX
  5
300
330
2FE
100
AcDbEntity
  8
Visible (ISO)
100
AcDbVertex
100
AcDb2dVertex
 10
40.01485262272516
 20
87.12892490832802
 30
0.0
  0
VERTEX
  5
302
330
2FE
100
AcDbEntity
  8
Visible (ISO)
100
AcDbVertex
100
AcDb2dVertex
 10
40.05265925285974
 20
87.13175225465294
 30
0.0
  0
VERTEX
  5
303
330
2FE
100
AcDbEntity
  8
Visible (ISO)
100
AcDbVertex
100
AcDb2dVertex
 10
40.08904252407709
 20
87.13646429984565
 30
0.0
  0
VERTEX
  5
304
330
2FE
100
AcDbEntity
  8
Visible (ISO)
100
AcDbVertex
100
AcDb2dVertex
 10
40.12400184033075
 20
87.14306104390617
 30
0.0
  0
VERTEX
  5
305
330
2FE
100
AcDbEntity
  8
Visible (ISO)
100
AcDbVertex
100
AcDb2dVertex
 10
40.15753779766717
 20
87.15154278485771
 30
0.0
  0
VERTEX
  5
306
330
2FE
100
AcDbEntity
  8
Visible (ISO)
100
AcDbVertex
100
AcDb2dVertex
 10
40.18965009806314
 20
87.16190922467704
 30
0.0
  0
VERTEX
  5
307
330
2FE
100
AcDbEntity
  8
Visible (ISO)
100
AcDbVertex
100
AcDb2dVertex
 10
40.22033844349542
 20
87.1741606613874
 30
0.0
  0
VERTEX
  5
308
330
2FE
100
AcDbEntity
  8
Visible (ISO)
100
AcDbVertex
100
AcDb2dVertex
 10
40.24960343001047
 20
87.18829679696556
 30
0.0
  0
VERTEX
  5
309
330
2FE
100
AcDbEntity
  8
Visible (ISO)
100
AcDbVertex
100
AcDb2dVertex
 10
40.27744475958505
 20
87.20431792943474
 30
0.0
  0
VERTEX
  5
30A
330
2FE
100
AcDbEntity
  8
Visible (ISO)
100
AcDbVertex
100
AcDb2dVertex
 10
40.30386243221918
 20
87.22222376077171
 30
0.0
  0
VERTEX
  5
30B
330
2FE
100
AcDbEntity
  8
Visible (ISO)
100
AcDbVertex
100
AcDb2dVertex
 10
40.32885644791284
 20
87.24201429097648
 30
0.0
  0
VERTEX
  5
30C
330
2FE
100
AcDbEntity
  8
Visible (ISO)
100
AcDbVertex
100
AcDb2dVertex
 10
40.35242680666605
 20
87.26368981807228
 30
0.0
  0
VERTEX
  5
30D
330
2FE
100
AcDbEntity
  8
Visible (ISO)
100
AcDbVertex
100
AcDb2dVertex
 10
40.3743327057139
 20
87.28710997312065
 30
0.0
  0
VERTEX
  5
30E
330
2FE
100
AcDbEntity
  8
Visible (ISO)
100
AcDbVertex
100
AcDb2dVertex
 10
40.39433393833795
 20
87.3121337911367
 30
0.0
  0
VERTEX
  5
30F
330
2FE
100
AcDbEntity
  8
Visible (ISO)
100
AcDbVertex
100
AcDb2dVertex
 10
40.41243020651498
 20
87.33876216619011
 30
0.0
  0
VERTEX
  5
310
330
2FE
100
AcDbEntity
  8
Visible (ISO)
100
AcDbVertex
100
AcDb2dVertex
 10
40.42862180826822
 20
87.36699450223442
 30
0.0
  0
VERTEX
  5
311
330
2FE
100
AcDbEntity
  8
Visible (ISO)
100
AcDbVertex
100
AcDb2dVertex
 10
40.44290844557443
 20
87.39683079926964
 30
0.0
  0
VERTEX
  5
312
330
2FE
100
AcDbEntity
  8
Visible (ISO)
100
AcDbVertex
100
AcDb2dVertex
 10
40.45529011843362
 20
87.42827135531898
 30
0.0
  0
VERTEX
  5
313
330
2FE
100
AcDbEntity
  8
Visible (ISO)
100
AcDbVertex
100
AcDb2dVertex
 10
40.46576682684579
 20
87.46131587235923
 30
0.0
  0
VERTEX
  5
314
330
2FE
100
AcDbEntity
  8
Visible (ISO)
100
AcDbVertex
100
AcDb2dVertex
 10
40.47433886883417
 20
87.49596464841362
 30
0.0
  0
VERTEX
  5
315
330
2FE
100
AcDbEntity
  8
Visible (ISO)
100
AcDbVertex
100
AcDb2dVertex
 10
40.48100594637552
 20
87.53221738545891
 30
0.0
  0
VERTEX
  5
316
330
2FE
100
AcDbEntity
  8
Visible (ISO)
100
AcDbVertex
100
AcDb2dVertex
 10
40.48576805946985
 20
87.57007438151832
 30
0.0
  0
VERTEX
  5
317
330
2FE
100
AcDbEntity
  8
Visible (ISO)
100
AcDbVertex
100
AcDb2dVertex
 10
40.48862520811716
 20
87.60953533856865
 30
0.0
  0
VERTEX
  5
318
330
2FE
100
AcDbEntity
  8
Visible (ISO)
100
AcDbVertex
100
AcDb2dVertex
 10
40.48957769034067
 20
87.6506005546331
 30
0.0
  0
SEQEND
  5
301
330
2FE
100
AcDbEntity
  8
Visible (ISO)
  0
POLYLINE
  5
319
330
75
100
AcDbEntity
  8
Visible (ISO)
100
AcDb2dPolyline
 66
     1
 10
0.0
 20
0.0
 30
0.0
 70
   128
  0
VERTEX
  5
31A
330
319
100
AcDbEntity
  8
Visible (ISO)
100
AcDbVertex
100
AcDb2dVertex
 10
39.45877883789697
 20
87.6506005546331
 30
0.0
  0
VERTEX
  5
31B
330
319
100
AcDbEntity
  8
Visible (ISO)
100
AcDbVertex
100
AcDb2dVertex
 10
39.45973132012048
 20
87.61043745486732
 30
0.0
  0
VERTEX
  5
31D
330
319
100
AcDbEntity
  8
Visible (ISO)
100
AcDbVertex
100
AcDb2dVertex
 10
39.46258876679102
 20
87.57175851075645
 30
0.0
  0
VERTEX
  5
31E
330
319
100
AcDbEntity
  8
Visible (ISO)
100
AcDbVertex
100
AcDb2dVertex
 10
39.46735058186212
 20
87.53456342427726
 30
0.0
  0
VERTEX
  5
31F
330
319
100
AcDbEntity
  8
Visible (ISO)
100
AcDbVertex
100
AcDb2dVertex
 10
39.4740179574267
 20
87.49885189740654
 30
0.0
  0
VERTEX
  5
320
330
319
100
AcDbEntity
  8
Visible (ISO)
100
AcDbVertex
100
AcDb2dVertex
 10
39.48258970139185
 20
87.46462422816749
 30
0.0
  0
VERTEX
  5
321
330
319
100
AcDbEntity
  8
Visible (ISO)
100
AcDbVertex
100
AcDb2dVertex
 10
39.49306640980402
 20
87.43188041656013
 30
0.0
  0
VERTEX
  5
322
330
319
100
AcDbEntity
  8
Visible (ISO)
100
AcDbVertex
100
AcDb2dVertex
 10
39.50544867870966
 20
87.40062046258445
 30
0.0
  0
VERTEX
  5
323
330
319
100
AcDbEntity
  8
Visible (ISO)
100
AcDbVertex
100
AcDb2dVertex
 10
39.51973471996942
 20
87.37084436624046
 30
0.0
  0
VERTEX
  5
324
330
319
100
AcDbEntity
  8
Visible (ISO)
100
AcDbVertex
100
AcDb2dVertex
 10
39.53592632172266
 20
87.34255182950493
 30
0.0
  0
VERTEX
  5
325
330
319
100
AcDbEntity
  8
Visible (ISO)
100
AcDbVertex
100
AcDb2dVertex
 10
39.55402288792291
 20
87.31574315040107
 30
0.0
  0
VERTEX
  5
326
330
319
100
AcDbEntity
  8
Visible (ISO)
100
AcDbVertex
100
AcDb2dVertex
 10
39.57402382252374
 20
87.29041832892891
 30
0.0
  0
VERTEX
  5
327
330
319
100
AcDbEntity
  8
Visible (ISO)
100
AcDbVertex
100
AcDb2dVertex
 10
39.59593031761804
 20
87.26657736508842
 30
0.0
  0
VERTEX
  5
328
330
319
100
AcDbEntity
  8
Visible (ISO)
100
AcDbVertex
100
AcDb2dVertex
 10
39.61952064392725
 20
87.24444049804207
 30
0.0
  0
VERTEX
  5
329
330
319
100
AcDbEntity
  8
Visible (ISO)
100
AcDbVertex
100
AcDb2dVertex
 10
39.64457426426569
 20
87.22422886102195
 30
0.0
  0
VERTEX
  5
32A
330
319
100
AcDbEntity
  8
Visible (ISO)
100
AcDbVertex
100
AcDb2dVertex
 10
39.67109237072626
 20
87.20594215600486
 30
0.0
  0
VERTEX
  5
32B
330
319
100
AcDbEntity
  8
Visible (ISO)
100
AcDbVertex
100
AcDb2dVertex
 10
39.69907436726251
 20
87.18958008496757
 30
0.0
  0
VERTEX
  5
32C
330
319
100
AcDbEntity
  8
Visible (ISO)
100
AcDbVertex
100
AcDb2dVertex
 10
39.728519657828
 20
87.17514324395652
 30
0.0
  0
VERTEX
  5
32D
330
319
100
AcDbEntity
  8
Visible (ISO)
100
AcDbVertex
100
AcDb2dVertex
 10
39.75942883846918
 20
87.1626313349485
 30
0.0
  0
VERTEX
  5
32E
330
319
100
AcDbEntity
  8
Visible (ISO)
100
AcDbVertex
100
AcDb2dVertex
 10
39.79180131313959
 20
87.15204405992027
 30
0.0
  0
VERTEX
  5
32F
330
319
100
AcDbEntity
  8
Visible (ISO)
100
AcDbVertex
100
AcDb2dVertex
 10
39.82563827393213
 20
87.14338201491829
 30
0.0
  0
VERTEX
  5
330
330
319
100
AcDbEntity
  8
Visible (ISO)
100
AcDbVertex
100
AcDb2dVertex
 10
39.86093852875391
 20
87.1366446038961
 30
0.0
  0
VERTEX
  5
331
330
319
100
AcDbEntity
  8
Visible (ISO)
100
AcDbVertex
100
AcDb2dVertex
 10
39.89770267365137
 20
87.13183242290016
 30
0.0
  0
VERTEX
  5
332
330
319
100
AcDbEntity
  8
Visible (ISO)
100
AcDbVertex
100
AcDb2dVertex
 10
39.93593070862451
 20
87.12894487588402
 30
0.0
  0
VERTEX
  5
333
330
319
100
AcDbEntity
  8
Visible (ISO)
100
AcDbVertex
100
AcDb2dVertex
 10
39.97562203762689
 20
87.12798255889412
 30
0.0
  0
SEQEND
  5
31C
330
319
100
AcDbEntity
  8
Visible (ISO)
  0
LINE
  5
334
330
75
100
AcDbEntity
  8
Visible (ISO)
100
AcDbLine
 10
39.45877890741419
 20
89.48120683624708
 30
0.0
 11
39.45877890741419
 21
87.65060041124355
 31
0.0
  0
LINE
  5
335
330
75
100
AcDbEntity
  8
Visible (ISO)
100
AcDbLine
 10
38.53481351939978
 20
89.48120683624708
 30
0.0
 11
39.45877890741419
 21
89.48120683624708
 31
0.0
  0
LINE
  5
336
330
75
100
AcDbEntity
  8
Visible (ISO)
100
AcDbLine
 10
38.53481351939978
 20
87.69391128880672
 30
0.0
 11
38.53481351939978
 21
89.48120683624708
 31
0.0
  0
POLYLINE
  5
337
330
75
100
AcDbEntity
  8
Visible (ISO)
100
AcDb2dPolyline
 66
     1
 10
0.0
 20
0.0
 30
0.0
 70
   128
  0
VERTEX
  5
338
330
337
100
AcDbEntity
  8
Visible (ISO)
100
AcDbVertex
100
AcDb2dVertex
 10
38.6214355027453
 20
87.18573022096153
 30
0.0
  0
VERTEX
  5
339
330
337
100
AcDbEntity
  8
Visible (ISO)
100
AcDbVertex
100
AcDb2dVertex
 10
38.61436698792139
 20
87.20944094865318
 30
0.0
  0
VERTEX
  5
33B
330
337
100
AcDbEntity
  8
Visible (ISO)
100
AcDbVertex
100
AcDb2dVertex
 10
38.60760007260004
 20
87.23293113915916
 30
0.0
  0
VERTEX
  5
33C
330
337
100
AcDbEntity
  8
Visible (ISO)
100
AcDbVertex
100
AcDb2dVertex
 10
38.60113356468835
 20
87.25620079247947
 30
0.0
  0
VERTEX
  5
33D
330
337
100
AcDbEntity
  8
Visible (ISO)
100
AcDbVertex
100
AcDb2dVertex
 10
38.59496746418634
 20
87.27924961059089
 30
0.0
  0
VERTEX
  5
33E
330
337
100
AcDbEntity
  8
Visible (ISO)
100
AcDbVertex
100
AcDb2dVertex
 10
38.58910236714044
 20
87.30207818953987
 30
0.0
  0
VERTEX
  5
33F
330
337
100
AcDbEntity
  8
Visible (ISO)
100
AcDbVertex
100
AcDb2dVertex
 10
38.58353827355066
 20
87.32468593327995
 30
0.0
  0
VERTEX
  5
340
330
337
100
AcDbEntity
  8
Visible (ISO)
100
AcDbVertex
100
AcDb2dVertex
 10
38.57827458737054
 20
87.34707343785759
 30
0.0
  0
VERTEX
  5
341
330
337
100
AcDbEntity
  8
Visible (ISO)
100
AcDbVertex
100
AcDb2dVertex
 10
38.57331190464655
 20
87.36924010722633
 30
0.0
  0
VERTEX
  5
342
330
337
100
AcDbEntity
  8
Visible (ISO)
100
AcDbVertex
100
AcDb2dVertex
 10
38.56865022537866
 20
87.39118623940941
 30
0.0
  0
VERTEX
  5
343
330
337
100
AcDbEntity
  8
Visible (ISO)
100
AcDbVertex
100
AcDb2dVertex
 10
38.56428895352045
 20
87.41291183440681
 30
0.0
  0
VERTEX
  5
344
330
337
100
AcDbEntity
  8
Visible (ISO)
100
AcDbVertex
100
AcDb2dVertex
 10
38.56022868511835
 20
87.43441689221855
 30
0.0
  0
VERTEX
  5
345
330
337
100
AcDbEntity
  8
Visible (ISO)
100
AcDbVertex
100
AcDb2dVertex
 10
38.55646882412592
 20
87.45570141284462
 30
0.0
  0
VERTEX
  5
346
330
337
100
AcDbEntity
  8
Visible (ISO)
100
AcDbVertex
100
AcDb2dVertex
 10
38.5530099665896
 20
87.47676539628502
 30
0.0
  0
VERTEX
  5
347
330
337
100
AcDbEntity
  8
Visible (ISO)
100
AcDbVertex
100
AcDb2dVertex
 10
38.5498521125094
 20
87.49760884253975
 30
0.0
  0
VERTEX
  5
348
330
337
100
AcDbEntity
  8
Visible (ISO)
100
AcDbVertex
100
AcDb2dVertex
 10
38.54699466583887
 20
87.51823145358558
 30
0.0
  0
VERTEX
  5
349
330
337
100
AcDbEntity
  8
Visible (ISO)
100
AcDbVertex
100
AcDb2dVertex
 10
38.54443822262445
 20
87.53863382546898
 30
0.0
  0
VERTEX
  5
34A
330
337
100
AcDbEntity
  8
Visible (ISO)
100
AcDbVertex
100
AcDb2dVertex
 10
38.5421821868197
 20
87.55881536214348
 30
0.0
  0
VERTEX
  5
34B
330
337
100
AcDbEntity
  8
Visible (ISO)
100
AcDbVertex
100
AcDb2dVertex
 10
38.54022715447107
 20
87.57877665965553
 30
0.0
  0
VERTEX
  5
34C
330
337
100
AcDbEntity
  8
Visible (ISO)
100
AcDbVertex
100
AcDb2dVertex
 10
38.53857312557855
 20
87.59851712195869
 30
0.0
  0
VERTEX
  5
34D
330
337
100
AcDbEntity
  8
Visible (ISO)
100
AcDbVertex
100
AcDb2dVertex
 10
38.5372195040957
 20
87.61803704707618
 30
0.0
  0
VERTEX
  5
34E
330
337
100
AcDbEntity
  8
Visible (ISO)
100
AcDbVertex
100
AcDb2dVertex
 10
38.53616688606897
 20
87.63733643500801
 30
0.0
  0
VERTEX
  5
34F
330
337
100
AcDbEntity
  8
Visible (ISO)
100
AcDbVertex
100
AcDb2dVertex
 10
38.53541527149835
 20
87.65641528575416
 30
0.0
  0
VERTEX
  5
350
330
337
100
AcDbEntity
  8
Visible (ISO)
100
AcDbVertex
100
AcDb2dVertex
 10
38.5349640643374
 20
87.67527359931465
 30
0.0
  0
VERTEX
  5
351
330
337
100
AcDbEntity
  8
Visible (ISO)
100
AcDbVertex
100
AcDb2dVertex
 10
38.53481326458612
 20
87.69391137568947
 30
0.0
  0
SEQEND
  5
33A
330
337
100
AcDbEntity
  8
Visible (ISO)
  0
POLYLINE
  5
352
330
75
100
AcDbEntity
  8
Visible (ISO)
100
AcDb2dPolyline
 66
     1
 10
0.0
 20
0.0
 30
0.0
 70
   128
  0
VERTEX
  5
353
330
352
100
AcDbEntity
  8
Visible (ISO)
100
AcDbVertex
100
AcDb2dVertex
 10
40.04780683872858
 20
86.42923373191353
 30
0.0
  0
VERTEX
  5
354
330
352
100
AcDbEntity
  8
Visible (ISO)
100
AcDbVertex
100
AcDb2dVertex
 10
39.97357700226465
 20
86.43007579653259
 30
0.0
  0
VERTEX
  5
356
330
352
100
AcDbEntity
  8
Visible (ISO)
100
AcDbVertex
100
AcDb2dVertex
 10
39.89718113300958
 20
86.43260228841301
 30
0.0
  0
VERTEX
  5
357
330
352
100
AcDbEntity
  8
Visible (ISO)
100
AcDbVertex
100
AcDb2dVertex
 10
39.81861982700983
 20
86.43681305854316
 30
0.0
  0
VERTEX
  5
358
330
352
100
AcDbEntity
  8
Visible (ISO)
100
AcDbVertex
100
AcDb2dVertex
 10
39.73789368031183
 20
86.44270810692306
 30
0.0
  0
VERTEX
  5
359
330
352
100
AcDbEntity
  8
Visible (ISO)
100
AcDbVertex
100
AcDb2dVertex
 10
39.65500150082269
 20
86.45028758256431
 30
0.0
  0
VERTEX
  5
35A
330
352
100
AcDbEntity
  8
Visible (ISO)
100
AcDbVertex
100
AcDb2dVertex
 10
39.56994328854242
 20
86.4595513364553
 30
0.0
  0
VERTEX
  5
35B
330
352
100
AcDbEntity
  8
Visible (ISO)
100
AcDbVertex
100
AcDb2dVertex
 10
39.48612902519861
 20
86.4713414332151
 30
0.0
  0
VERTEX
  5
35C
330
352
100
AcDbEntity
  8
Visible (ISO)
100
AcDbVertex
100
AcDb2dVertex
 10
39.40696630833307
 20
86.48650023548599
 30
0.0
  0
VERTEX
  5
35D
330
352
100
AcDbEntity
  8
Visible (ISO)
100
AcDbVertex
100
AcDb2dVertex
 10
39.33245573399225
 20
86.50502774326797
 30
0.0
  0
VERTEX
  5
35E
330
352
100
AcDbEntity
  8
Visible (ISO)
100
AcDbVertex
100
AcDb2dVertex
 10
39.2625967061297
 20
86.52692380754944
 30
0.0
  0
VERTEX
  5
35F
330
352
100
AcDbEntity
  8
Visible (ISO)
100
AcDbVertex
100
AcDb2dVertex
 10
39.19738982079187
 20
86.55218842833038
 30
0.0
  0
VERTEX
  5
360
330
352
100
AcDbEntity
  8
Visible (ISO)
100
AcDbVertex
100
AcDb2dVertex
 10
39.13683448193231
 20
86.58082175462242
 30
0.0
  0
VERTEX
  5
361
330
352
100
AcDbEntity
  8
Visible (ISO)
100
AcDbVertex
100
AcDb2dVertex
 10
39.07944772598901
 20
86.61326486079689
 30
0.0
  0
VERTEX
  5
362
330
352
100
AcDbEntity
  8
Visible (ISO)
100
AcDbVertex
100
AcDb2dVertex
 10
39.02374539730707
 20
86.64995867221351
 30
0.0
  0
VERTEX
  5
363
330
352
100
AcDbEntity
  8
Visible (ISO)
100
AcDbVertex
100
AcDb2dVertex
 10
38.96972689984003
 20
86.69090348689552
 30
0.0
  0
VERTEX
  5
364
330
352
100
AcDbEntity
  8
Visible (ISO)
100
AcDbVertex
100
AcDb2dVertex
 10
38.91739282963434
 20
86.73609930484291
 30
0.0
  0
VERTEX
  5
365
330
352
100
AcDbEntity
  8
Visible (ISO)
100
AcDbVertex
100
AcDb2dVertex
 10
38.86674318669
 20
86.78554582803245
 30
0.0
  0
VERTEX
  5
366
330
352
100
AcDbEntity
  8
Visible (ISO)
100
AcDbVertex
100
AcDb2dVertex
 10
38.81777797100702
 20
86.83924335448738
 30
0.0
  0
VERTEX
  5
367
330
352
100
AcDbEntity
  8
Visible (ISO)
100
AcDbVertex
100
AcDb2dVertex
 10
38.77222154495874
 20
86.89538705556389
 30
0.0
  0
VERTEX
  5
368
330
352
100
AcDbEntity
  8
Visible (ISO)
100
AcDbVertex
100
AcDb2dVertex
 10
38.73179767487207
 20
86.9521724006414
 30
0.0
  0
VERTEX
  5
369
330
352
100
AcDbEntity
  8
Visible (ISO)
100
AcDbVertex
100
AcDb2dVertex
 10
38.6965075528399
 20
87.00959938971992
 30
0.0
  0
VERTEX
  5
36A
330
352
100
AcDbEntity
  8
Visible (ISO)
100
AcDbVertex
100
AcDb2dVertex
 10
38.66634998676935
 20
87.06766802279945
 30
0.0
  0
VERTEX
  5
36B
330
352
100
AcDbEntity
  8
Visible (ISO)
100
AcDbVertex
100
AcDb2dVertex
 10
38.6413261687533
 20
87.12637829987999
 30
0.0
  0
VERTEX
  5
36C
330
352
100
AcDbEntity
  8
Visible (ISO)
100
AcDbVertex
100
AcDb2dVertex
 10
38.6214355027453
 20
87.18573022096153
 30
0.0
  0
SEQEND
  5
355
330
352
100
AcDbEntity
  8
Visible (ISO)
  0
POLYLINE
  5
36D
330
75
100
AcDbEntity
  8
Visible (ISO)
100
AcDb2dPolyline
 66
     1
 10
0.0
 20
0.0
 30
0.0
 70
   128
  0
VERTEX
  5
36E
330
36D
100
AcDbEntity
  8
Visible (ISO)
100
AcDbVertex
100
AcDb2dVertex
 10
40.69747004864374
 20
86.53029236404892
 30
0.0
  0
VERTEX
  5
36F
330
36D
100
AcDbEntity
  8
Visible (ISO)
100
AcDbVertex
100
AcDb2dVertex
 10
40.67489717362085
 20
86.52204621045585
 30
0.0
  0
VERTEX
  5
371
330
36D
100
AcDbEntity
  8
Visible (ISO)
100
AcDbVertex
100
AcDb2dVertex
 10
40.65193329212823
 20
86.51415112822052
 30
0.0
  0
VERTEX
  5
372
330
36D
100
AcDbEntity
  8
Visible (ISO)
100
AcDbVertex
100
AcDb2dVertex
 10
40.62857870218912
 20
86.50660667030807
 30
0.0
  0
VERTEX
  5
373
330
36D
100
AcDbEntity
  8
Visible (ISO)
100
AcDbVertex
100
AcDb2dVertex
 10
40.60483280775705
 20
86.49941328375335
 30
0.0
  0
VERTEX
  5
374
330
36D
100
AcDbEntity
  8
Visible (ISO)
100
AcDbVertex
100
AcDb2dVertex
 10
40.58069620487848
 20
86.49257081954475
 30
0.0
  0
VERTEX
  5
375
330
36D
100
AcDbEntity
  8
Visible (ISO)
100
AcDbVertex
100
AcDb2dVertex
 10
40.55616829750696
 20
86.48607912867065
 30
0.0
  0
VERTEX
  5
376
330
36D
100
AcDbEntity
  8
Visible (ISO)
100
AcDbVertex
100
AcDb2dVertex
 10
40.53124938366571
 20
86.47993850915428
 30
0.0
  0
VERTEX
  5
377
330
36D
100
AcDbEntity
  8
Visible (ISO)
100
AcDbVertex
100
AcDb2dVertex
 10
40.50593976137796
 20
86.47414866297241
 30
0.0
  0
VERTEX
  5
378
330
36D
100
AcDbEntity
  8
Visible (ISO)
100
AcDbVertex
100
AcDb2dVertex
 10
40.48023883459726
 20
86.46870973913665
 30
0.0
  0
VERTEX
  5
379
330
36D
100
AcDbEntity
  8
Visible (ISO)
100
AcDbVertex
100
AcDb2dVertex
 10
40.45414719937006
 20
86.46362173764702
 30
0.0
  0
VERTEX
  5
37A
330
36D
100
AcDbEntity
  8
Visible (ISO)
100
AcDbVertex
100
AcDb2dVertex
 10
40.4276642596499
 20
86.45888450949188
 30
0.0
  0
VERTEX
  5
37B
330
36D
100
AcDbEntity
  8
Visible (ISO)
100
AcDbVertex
100
AcDb2dVertex
 10
40.40079061148325
 20
86.45449835269447
 30
0.0
  0
VERTEX
  5
37C
330
36D
100
AcDbEntity
  8
Visible (ISO)
100
AcDbVertex
100
AcDb2dVertex
 10
40.37352565882364
 20
86.45046296923156
 30
0.0
  0
VERTEX
  5
37D
330
36D
100
AcDbEntity
  8
Visible (ISO)
100
AcDbVertex
100
AcDb2dVertex
 10
40.34586999771753
 20
86.44677850811477
 30
0.0
  0
VERTEX
  5
37E
330
36D
100
AcDbEntity
  8
Visible (ISO)
100
AcDbVertex
100
AcDb2dVertex
 10
40.31782303211847
 20
86.44344511835571
 30
0.0
  0
VERTEX
  5
37F
330
36D
100
AcDbEntity
  8
Visible (ISO)
100
AcDbVertex
100
AcDb2dVertex
 10
40.28938535807291
 20
86.44046235291954
 30
0.0
  0
VERTEX
  5
380
330
36D
100
AcDbEntity
  8
Visible (ISO)
100
AcDbVertex
100
AcDb2dVertex
 10
40.26055637953439
 20
86.43783065884109
 30
0.0
  0
VERTEX
  5
381
330
36D
100
AcDbEntity
  8
Visible (ISO)
100
AcDbVertex
100
AcDb2dVertex
 10
40.23133669254938
 20
86.43554988710876
 30
0.0
  0
VERTEX
  5
382
330
36D
100
AcDbEntity
  8
Visible (ISO)
100
AcDbVertex
100
AcDb2dVertex
 10
40.20172599909463
 20
86.43361988871093
 30
0.0
  0
VERTEX
  5
383
330
36D
100
AcDbEntity
  8
Visible (ISO)
100
AcDbVertex
100
AcDb2dVertex
 10
40.17172429917017
 20
86.43204081265922
 30
0.0
  0
VERTEX
  5
384
330
36D
100
AcDbEntity
  8
Visible (ISO)
100
AcDbVertex
100
AcDb2dVertex
 10
40.14133129475275
 20
86.43081265895363
 30
0.0
  0
VERTEX
  5
385
330
36D
100
AcDbEntity
  8
Visible (ISO)
100
AcDbVertex
100
AcDb2dVertex
 10
40.1105472838656
 20
86.42993542759414
 30
0.0
  0
VERTEX
  5
386
330
36D
100
AcDbEntity
  8
Visible (ISO)
100
AcDbVertex
100
AcDb2dVertex
 10
40.07937286255518
 20
86.42940911858078
 30
0.0
  0
VERTEX
  5
387
330
36D
100
AcDbEntity
  8
Visible (ISO)
100
AcDbVertex
100
AcDb2dVertex
 10
40.04780683872858
 20
86.42923373191353
 30
0.0
  0
SEQEND
  5
370
330
36D
100
AcDbEntity
  8
Visible (ISO)
  0
POLYLINE
  5
388
330
75
100
AcDbEntity
  8
Visible (ISO)
100
AcDb2dPolyline
 66
     1
 10
0.0
 20
0.0
 30
0.0
 70
   128
  0
VERTEX
  5
389
330
388
100
AcDbEntity
  8
Visible (ISO)
100
AcDbVertex
100
AcDb2dVertex
 10
41.41354326365152
 20
87.69391137568947
 30
0.0
  0
VERTEX
  5
38A
330
388
100
AcDbEntity
  8
Visible (ISO)
100
AcDbVertex
100
AcDb2dVertex
 10
41.41225729344049
 20
87.62795257775779
 30
0.0
  0
VERTEX
  5
38C
330
388
100
AcDbEntity
  8
Visible (ISO)
100
AcDbVertex
100
AcDb2dVertex
 10
41.40839997885385
 20
87.5628958961248
 30
0.0
  0
VERTEX
  5
38D
330
388
100
AcDbEntity
  8
Visible (ISO)
100
AcDbVertex
100
AcDb2dVertex
 10
41.40197102186838
 20
87.4987416288137
 30
0.0
  0
VERTEX
  5
38E
330
388
100
AcDbEntity
  8
Visible (ISO)
100
AcDbVertex
100
AcDb2dVertex
 10
41.39297042248407
 20
87.43548977582451
 30
0.0
  0
VERTEX
  5
38F
330
388
100
AcDbEntity
  8
Visible (ISO)
100
AcDbVertex
100
AcDb2dVertex
 10
41.38139847872415
 20
87.37314003913398
 30
0.0
  0
VERTEX
  5
390
330
388
100
AcDbEntity
  8
Visible (ISO)
100
AcDbVertex
100
AcDb2dVertex
 10
41.36725459454217
 20
87.31169271676536
 30
0.0
  0
VERTEX
  5
391
330
388
100
AcDbEntity
  8
Visible (ISO)
100
AcDbVertex
100
AcDb2dVertex
 10
41.35053936598459
 20
87.25114780871864
 30
0.0
  0
VERTEX
  5
392
330
388
100
AcDbEntity
  8
Visible (ISO)
100
AcDbVertex
100
AcDb2dVertex
 10
41.33125249502817
 20
87.19150501697059
 30
0.0
  0
VERTEX
  5
393
330
388
100
AcDbEntity
  8
Visible (ISO)
100
AcDbVertex
100
AcDb2dVertex
 10
41.30919102785745
 20
87.13326114623543
 30
0.0
  0
VERTEX
  5
394
330
388
100
AcDbEntity
  8
Visible (ISO)
100
AcDbVertex
100
AcDb2dVertex
 10
41.28415201065698
 20
87.07691180913444
 30
0.0
  0
VERTEX
  5
395
330
388
100
AcDbEntity
  8
Visible (ISO)
100
AcDbVertex
100
AcDb2dVertex
 10
41.25613514540353
 20
87.02245730369087
 30
0.0
  0
VERTEX
  5
396
330
388
100
AcDbEntity
  8
Visible (ISO)
100
AcDbVertex
100
AcDb2dVertex
 10
41.22514073012033
 20
86.96989792792793
 30
0.0
  0
VERTEX
  5
397
330
388
100
AcDbEntity
  8
Visible (ISO)
100
AcDbVertex
100
AcDb2dVertex
 10
41.19116876480737
 20
86.91923308579918
 30
0.0
  0
VERTEX
  5
398
330
388
100
AcDbEntity
  8
Visible (ISO)
100
AcDbVertex
100
AcDb2dVertex
 10
41.15421924946466
 20
86.87046337335106
 30
0.0
  0
VERTEX
  5
399
330
388
100
AcDbEntity
  8
Visible (ISO)
100
AcDbVertex
100
AcDb2dVertex
 10
41.11429218409219
 20
86.82358819453712
 30
0.0
  0
VERTEX
  5
39A
330
388
100
AcDbEntity
  8
Visible (ISO)
100
AcDbVertex
100
AcDb2dVertex
 10
41.07138727066675
 20
86.77860814540382
 30
0.0
  0
VERTEX
  5
39B
330
388
100
AcDbEntity
  8
Visible (ISO)
100
AcDbVertex
100
AcDb2dVertex
 10
41.02670047638574
 20
86.73619944064613
 30
0.0
  0
VERTEX
  5
39C
330
388
100
AcDbEntity
  8
Visible (ISO)
100
AcDbVertex
100
AcDb2dVertex
 10
40.98142687437692
 20
86.6970391890287
 30
0.0
  0
VERTEX
  5
39D
330
388
100
AcDbEntity
  8
Visible (ISO)
100
AcDbVertex
100
AcDb2dVertex
 10
40.93556706068674
 20
86.66112739055153
 30
0.0
  0
VERTEX
  5
39E
330
388
100
AcDbEntity
  8
Visible (ISO)
100
AcDbVertex
100
AcDb2dVertex
 10
40.88912073729196
 20
86.62846374719139
 30
0.0
  0
VERTEX
  5
39F
330
388
100
AcDbEntity
  8
Visible (ISO)
100
AcDbVertex
100
AcDb2dVertex
 10
40.84208760616937
 20
86.5990484079599
 30
0.0
  0
VERTEX
  5
3A0
330
388
100
AcDbEntity
  8
Visible (ISO)
100
AcDbVertex
100
AcDb2dVertex
 10
40.79446826336542
 20
86.57288137285705
 30
0.0
  0
VERTEX
  5
3A1
330
388
100
AcDbEntity
  8
Visible (ISO)
100
AcDbVertex
100
AcDb2dVertex
 10
40.74626241085687
 20
86.54996279089447
 30
0.0
  0
VERTEX
  5
3A2
330
388
100
AcDbEntity
  8
Visible (ISO)
100
AcDbVertex
100
AcDb2dVertex
 10
40.69747004864374
 20
86.53029236404892
 30
0.0
  0
SEQEND
  5
38B
330
388
100
AcDbEntity
  8
Visible (ISO)
  0
LINE
  5
3A3
330
75
100
AcDbEntity
  8
Visible (ISO)
100
AcDbLine
 10
41.41354318143218
 20
89.48120683624708
 30
0.0
 11
41.41354318143218
 21
87.69391128880672
 31
0.0
  0
LINE
  5
3A4
330
75
100
AcDbEntity
  8
Visible (ISO)
100
AcDbLine
 10
40.48957779341776
 20
89.48120683624708
 30
0.0
 11
41.41354318143218
 21
89.48120683624708
 31
0.0
  0
POLYLINE
  5
3A5
330
75
100
AcDbEntity
  8
Visible (ISO)
100
AcDb2dPolyline
 66
     1
 10
0.0
 20
0.0
 30
0.0
 70
   128
  0
VERTEX
  5
3A6
330
3A5
100
AcDbEntity
  8
Visible (ISO)
100
AcDbVertex
100
AcDb2dVertex
 10
36.65800903198877
 20
88.20209223239418
 30
0.0
  0
VERTEX
  5
3A7
330
3A5
100
AcDbEntity
  8
Visible (ISO)
100
AcDbVertex
100
AcDb2dVertex
 10
36.70165036080041
 20
88.2027440091848
 30
0.0
  0
VERTEX
  5
3A9
330
3A5
100
AcDbEntity
  8
Visible (ISO)
100
AcDbVertex
100
AcDb2dVertex
 10
36.74306664822259
 20
88.20469904153343
 30
0.0
  0
VERTEX
  5
3AA
330
3A5
100
AcDbEntity
  8
Visible (ISO)
100
AcDbVertex
100
AcDb2dVertex
 10
36.78225670216241
 20
88.20795732944008
 30
0.0
  0
VERTEX
  5
3AB
330
3A5
100
AcDbEntity
  8
Visible (ISO)
100
AcDbVertex
100
AcDb2dVertex
 10
36.81922171471277
 20
88.21251887290474
 30
0.0
  0
VERTEX
  5
3AC
330
3A5
100
AcDbEntity
  8
Visible (ISO)
100
AcDbVertex
100
AcDb2dVertex
 10
36.85396049378076
 20
88.21838396995064
 30
0.0
  0
VERTEX
  5
3AD
330
3A5
100
AcDbEntity
  8
Visible (ISO)
100
AcDbVertex
100
AcDb2dVertex
 10
36.88647363541284
 20
88.22555232255455
 30
0.0
  0
VERTEX
  5
3AE
330
3A5
100
AcDbEntity
  8
Visible (ISO)
100
AcDbVertex
100
AcDb2dVertex
 10
36.91676113960901
 20
88.23402393071647
 30
0.0
  0
VERTEX
  5
3AF
330
3A5
100
AcDbEntity
  8
Visible (ISO)
100
AcDbVertex
100
AcDb2dVertex
 10
36.94482300636926
 20
88.24379909245964
 30
0.0
  0
VERTEX
  5
3B0
330
3A5
100
AcDbEntity
  8
Visible (ISO)
100
AcDbVertex
100
AcDb2dVertex
 10
36.9706592356936
 20
88.25487750976082
 30
0.0
  0
VERTEX
  5
3B1
330
3A5
100
AcDbEntity
  8
Visible (ISO)
100
AcDbVertex
100
AcDb2dVertex
 10
36.99426982758203
 20
88.26725918262001
 30
0.0
  0
VERTEX
  5
3B2
330
3A5
100
AcDbEntity
  8
Visible (ISO)
100
AcDbVertex
100
AcDb2dVertex
 10
37.0156541859881
 20
88.28094411103721
 30
0.0
  0
VERTEX
  5
3B3
330
3A5
100
AcDbEntity
  8
Visible (ISO)
100
AcDbVertex
100
AcDb2dVertex
 10
37.0348135030047
 20
88.29593259303566
 30
0.0
  0
VERTEX
  5
3B4
330
3A5
100
AcDbEntity
  8
Visible (ISO)
100
AcDbVertex
100
AcDb2dVertex
 10
37.05210779068628
 20
88.311923327136
 30
0.0
  0
VERTEX
  5
3B5
330
3A5
100
AcDbEntity
  8
Visible (ISO)
100
AcDbVertex
100
AcDb2dVertex
 10
37.06789825318018
 20
88.32861620395179
 30
0.0
  0
VERTEX
  5
3B6
330
3A5
100
AcDbEntity
  8
Visible (ISO)
100
AcDbVertex
100
AcDb2dVertex
 10
37.08218489048639
 20
88.3460106274366
 30
0.0
  0
VERTEX
  5
3B7
330
3A5
100
AcDbEntity
  8
Visible (ISO)
100
AcDbVertex
100
AcDb2dVertex
 10
37.09496770260492
 20
88.36410689561363
 30
0.0
  0
VERTEX
  5
3B8
330
3A5
100
AcDbEntity
  8
Visible (ISO)
100
AcDbVertex
100
AcDb2dVertex
 10
37.10624609348932
 20
88.38290500848289
 30
0.0
  0
VERTEX
  5
3B9
330
3A5
100
AcDbEntity
  8
Visible (ISO)
100
AcDbVertex
100
AcDb2dVertex
 10
37.11602125523248
 20
88.40240496604439
 30
0.0
  0
VERTEX
  5
3BA
330
3A5
100
AcDbEntity
  8
Visible (ISO)
100
AcDbVertex
100
AcDb2dVertex
 10
37.12429259178796
 20
88.42260676829811
 30
0.0
  0
VERTEX
  5
3BB
330
3A5
100
AcDbEntity
  8
Visible (ISO)
100
AcDbVertex
100
AcDb2dVertex
 10
37.13106010315576
 20
88.44351041524406
 30
0.0
  0
VERTEX
  5
3BC
330
3A5
100
AcDbEntity
  8
Visible (ISO)
100
AcDbVertex
100
AcDb2dVertex
 10
37.13632319328943
 20
88.46511560885902
 30
0.0
  0
VERTEX
  5
3BD
330
3A5
100
AcDbEntity
  8
Visible (ISO)
100
AcDbVertex
100
AcDb2dVertex
 10
37.14008305428186
 20
88.48742264716621
 30
0.0
  0
VERTEX
  5
3BE
330
3A5
100
AcDbEntity
  8
Visible (ISO)
100
AcDbVertex
100
AcDb2dVertex
 10
37.14233849404016
 20
88.51043153016563
 30
0.0
  0
VERTEX
  5
3BF
330
3A5
100
AcDbEntity
  8
Visible (ISO)
100
AcDbVertex
100
AcDb2dVertex
 10
37.14309070465723
 20
88.53414225785728
 30
0.0
  0
SEQEND
  5
3A8
330
3A5
100
AcDbEntity
  8
Visible (ISO)
  0
POLYLINE
  5
3C0
330
75
100
AcDbEntity
  8
Visible (ISO)
100
AcDb2dPolyline
 66
     1
 10
0.0
 20
0.0
 30
0.0
 70
   128
  0
VERTEX
  5
3C1
330
3C0
100
AcDbEntity
  8
Visible (ISO)
100
AcDbVertex
100
AcDb2dVertex
 10
37.14309070465723
 20
88.53414225785728
 30
0.0
  0
VERTEX
  5
3C2
330
3C0
100
AcDbEntity
  8
Visible (ISO)
100
AcDbVertex
100
AcDb2dVertex
 10
37.14243922588983
 20
88.55742204396721
 30
0.0
  0
VERTEX
  5
3C4
330
3C0
100
AcDbEntity
  8
Visible (ISO)
100
AcDbVertex
100
AcDb2dVertex
 10
37.1404841935412
 20
88.5800998231649
 30
0.0
  0
VERTEX
  5
3C5
330
3C0
100
AcDbEntity
  8
Visible (ISO)
100
AcDbVertex
100
AcDb2dVertex
 10
37.13722560761133
 20
88.60217648952003
 30
0.0
  0
VERTEX
  5
3C6
330
3C0
100
AcDbEntity
  8
Visible (ISO)
100
AcDbVertex
100
AcDb2dVertex
 10
37.13266406414667
 20
88.62365144698616
 30
0.0
  0
VERTEX
  5
3C7
330
3C0
100
AcDbEntity
  8
Visible (ISO)
100
AcDbVertex
100
AcDb2dVertex
 10
37.12679896710077
 20
88.6445249935865
 30
0.0
  0
VERTEX
  5
3C8
330
3C0
100
AcDbEntity
  8
Visible (ISO)
100
AcDbVertex
100
AcDb2dVertex
 10
37.11963031647363
 20
88.66479683129783
 30
0.0
  0
VERTEX
  5
3C9
330
3C0
100
AcDbEntity
  8
Visible (ISO)
100
AcDbVertex
100
AcDb2dVertex
 10
37.11115870831171
 20
88.68446725814338
 30
0.0
  0
VERTEX
  5
3CA
330
3C0
100
AcDbEntity
  8
Visible (ISO)
100
AcDbVertex
100
AcDb2dVertex
 10
37.10138414261499
 20
88.70353597609993
 30
0.0
  0
VERTEX
  5
3CB
330
3C0
100
AcDbEntity
  8
Visible (ISO)
100
AcDbVertex
100
AcDb2dVertex
 10
37.09030542729059
 20
88.72200328319069
 30
0.0
  0
VERTEX
  5
3CC
330
3C0
100
AcDbEntity
  8
Visible (ISO)
100
AcDbVertex
100
AcDb2dVertex
 10
37.0779237544314
 20
88.73986888139244
 30
0.0
  0
VERTEX
  5
3CD
330
3C0
100
AcDbEntity
  8
Visible (ISO)
100
AcDbVertex
100
AcDb2dVertex
 10
37.06423852799097
 20
88.75713306872841
 30
0.0
  0
VERTEX
  5
3CE
330
3C0
100
AcDbEntity
  8
Visible (ISO)
100
AcDbVertex
100
AcDb2dVertex
 10
37.04925034401575
 20
88.77379584519859
 30
0.0
  0
VERTEX
  5
3CF
330
3C0
100
AcDbEntity
  8
Visible (ISO)
100
AcDbVertex
100
AcDb2dVertex
 10
37.03245733139673
 20
88.78947603909965
 30
0.0
  0
VERTEX
  5
3D0
330
3C0
100
AcDbEntity
  8
Visible (ISO)
100
AcDbVertex
100
AcDb2dVertex
 10
37.0133588111178
 20
88.80379277675148
 30
0.0
  0
VERTEX
  5
3D1
330
3C0
100
AcDbEntity
  8
Visible (ISO)
100
AcDbVertex
100
AcDb2dVertex
 10
36.99195359108606
 20
88.81674576013084
 30
0.0
  0
VERTEX
  5
3D2
330
3C0
100
AcDbEntity
  8
Visible (ISO)
100
AcDbVertex
100
AcDb2dVertex
 10
36.96824286339441
 20
88.82833558528419
 30
0.0
  0
VERTEX
  5
3D3
330
3C0
100
AcDbEntity
  8
Visible (ISO)
100
AcDbVertex
100
AcDb2dVertex
 10
36.94222662804285
 20
88.83856165616508
 30
0.0
  0
VERTEX
  5
3D4
330
3C0
100
AcDbEntity
  8
Visible (ISO)
100
AcDbVertex
100
AcDb2dVertex
 10
36.91390369293848
 20
88.84742427079673
 30
0.0
  0
VERTEX
  5
3D5
330
3C0
100
AcDbEntity
  8
Visible (ISO)
100
AcDbVertex
100
AcDb2dVertex
 10
36.88327525017419
 20
88.85492342917915
 30
0.0
  0
VERTEX
  5
3D6
330
3C0
100
AcDbEntity
  8
Visible (ISO)
100
AcDbVertex
100
AcDb2dVertex
 10
36.85034129975
 20
88.86105913131233
 30
0.0
  0
VERTEX
  5
3D7
330
3C0
100
AcDbEntity
  8
Visible (ISO)
100
AcDbVertex
100
AcDb2dVertex
 10
36.81510124561945
 20
88.86583137719627
 30
0.0
  0
VERTEX
  5
3D8
330
3C0
100
AcDbEntity
  8
Visible (ISO)
100
AcDbVertex
100
AcDb2dVertex
 10
36.77755508778253
 20
88.86924016683098
 30
0.0
  0
VERTEX
  5
3D9
330
3C0
100
AcDbEntity
  8
Visible (ISO)
100
AcDbVertex
100
AcDb2dVertex
 10
36.73770282623926
 20
88.87128550021644
 30
0.0
  0
VERTEX
  5
3DA
330
3C0
100
AcDbEntity
  8
Visible (ISO)
100
AcDbVertex
100
AcDb2dVertex
 10
36.69554505703607
 20
88.87196707932945
 30
0.0
  0
SEQEND
  5
3C3
330
3C0
100
AcDbEntity
  8
Visible (ISO)
  0
LINE
  5
3DB
330
75
100
AcDbEntity
  8
Visible (ISO)
100
AcDbLine
 10
36.6955449188836
 20
88.87196715852509
 30
0.0
 11
36.432792261667
 21
88.87196715852509
 31
0.0
  0
LINE
  5
3DC
330
75
100
AcDbEntity
  8
Visible (ISO)
100
AcDbLine
 10
36.432792261667
 20
88.87196715852509
 30
0.0
 11
36.432792261667
 21
88.20209225221464
 31
0.0
  0
LINE
  5
3DD
330
75
100
AcDbEntity
  8
Visible (ISO)
100
AcDbLine
 10
36.432792261667
 20
88.20209225221464
 30
0.0
 11
36.65800882499551
 21
88.20209225221464
 31
0.0
  0
LINE
  5
3DE
330
75
100
AcDbEntity
  8
Visible (ISO)
100
AcDbLine
 10
35.50016469813995
 20
86.48120671703779
 30
0.0
 11
35.50016469813995
 21
89.48120683624708
 31
0.0
  0
LINE
  5
3DF
330
75
100
AcDbEntity
  8
Visible (ISO)
100
AcDbLine
 10
36.432792261667
 20
86.48120671703779
 30
0.0
 11
35.50016469813995
 21
86.48120671703779
 31
0.0
  0
LINE
  5
3E0
330
75
100
AcDbEntity
  8
Visible (ISO)
100
AcDbLine
 10
36.432792261667
 20
87.59285257449263
 30
0.0
 11
36.432792261667
 21
86.48120671703779
 31
0.0
  0
LINE
  5
3E1
330
75
100
AcDbEntity
  8
Visible (ISO)
100
AcDbLine
 10
36.94097322507492
 20
87.59285257449263
 30
0.0
 11
36.432792261667
 21
87.59285257449263
 31
0.0
  0
POLYLINE
  5
3E2
330
75
100
AcDbEntity
  8
Visible (ISO)
100
AcDb2dPolyline
 66
     1
 10
0.0
 20
0.0
 30
0.0
 70
   128
  0
VERTEX
  5
3E3
330
3E2
100
AcDbEntity
  8
Visible (ISO)
100
AcDbVertex
100
AcDb2dVertex
 10
38.04684434292474
 20
88.56012898890968
 30
0.0
  0
VERTEX
  5
3E4
330
3E2
100
AcDbEntity
  8
Visible (ISO)
100
AcDbVertex
100
AcDb2dVertex
 10
38.04494951126733
 20
88.4854878803968
 30
0.0
  0
VERTEX
  5
3E6
330
3E2
100
AcDbEntity
  8
Visible (ISO)
100
AcDbVertex
100
AcDb2dVertex
 10
38.0392650162951
 20
88.41363388507362
 30
0.0
  0
VERTEX
  5
3E7
330
3E2
100
AcDbEntity
  8
Visible (ISO)
100
AcDbVertex
100
AcDb2dVertex
 10
38.02979085800806
 20
88.34456700294014
 30
0.0
  0
VERTEX
  5
3E8
330
3E2
100
AcDbEntity
  8
Visible (ISO)
100
AcDbVertex
100
AcDb2dVertex
 10
38.01652644035974
 20
88.27828723399635
 30
0.0
  0
VERTEX
  5
3E9
330
3E2
100
AcDbEntity
  8
Visible (ISO)
100
AcDbVertex
100
AcDb2dVertex
 10
37.99947295544305
 20
88.21479487626548
 30
0.0
  0
VERTEX
  5
3EA
330
3E2
100
AcDbEntity
  8
Visible (ISO)
100
AcDbVertex
100
AcDb2dVertex
 10
37.97862980721155
 20
88.15408933370109
 30
0.0
  0
VERTEX
  5
3EB
330
3E2
100
AcDbEntity
  8
Visible (ISO)
100
AcDbVertex
100
AcDb2dVertex
 10
37.95399639961877
 20
88.09617120234962
 30
0.0
  0
VERTEX
  5
3EC
330
3E2
100
AcDbEntity
  8
Visible (ISO)
100
AcDbVertex
100
AcDb2dVertex
 10
37.92557392475763
 20
88.04103988616462
 30
0.0
  0
VERTEX
  5
3ED
330
3E2
100
AcDbEntity
  8
Visible (ISO)
100
AcDbVertex
100
AcDb2dVertex
 10
37.89336119053522
 20
87.98869598119255
 30
0.0
  0
VERTEX
  5
3EE
330
3E2
100
AcDbEntity
  8
Visible (ISO)
100
AcDbVertex
100
AcDb2dVertex
 10
37.85735938904443
 20
87.93913918941017
 30
0.0
  0
VERTEX
  5
3EF
330
3E2
100
AcDbEntity
  8
Visible (ISO)
100
AcDbVertex
100
AcDb2dVertex
 10
37.81756732819238
 20
87.89236921279426
 30
0.0
  0
VERTEX
  5
3F0
330
3E2
100
AcDbEntity
  8
Visible (ISO)
100
AcDbVertex
100
AcDb2dVertex
 10
37.77398560402551
 20
87.84838664739128
 30
0.0
  0
VERTEX
  5
3F1
330
3E2
100
AcDbEntity
  8
Visible (ISO)
100
AcDbVertex
100
AcDb2dVertex
 10
37.7265140807406
 20
87.80757236688133
 30
0.0
  0
VERTEX
  5
3F2
330
3E2
100
AcDbEntity
  8
Visible (ISO)
100
AcDbVertex
100
AcDb2dVertex
 10
37.67505262253442
 20
87.77030694692131
 30
0.0
  0
VERTEX
  5
3F3
330
3E2
100
AcDbEntity
  8
Visible (ISO)
100
AcDbVertex
100
AcDb2dVertex
 10
37.61960063336053
 20
87.73659068553444
 30
0.0
  0
VERTEX
  5
3F4
330
3E2
100
AcDbEntity
  8
Visible (ISO)
100
AcDbVertex
100
AcDb2dVertex
 10
37.56015811321893
 20
87.70642328469749
 30
0.0
  0
VERTEX
  5
3F5
330
3E2
100
AcDbEntity
  8
Visible (ISO)
100
AcDbVertex
100
AcDb2dVertex
 10
37.49672625420251
 20
87.6798050424337
 30
0.0
  0
VERTEX
  5
3F6
330
3E2
100
AcDbEntity
  8
Visible (ISO)
100
AcDbVertex
100
AcDb2dVertex
 10
37.42930326817194
 20
87.65673625676628
 30
0.0
  0
VERTEX
  5
3F7
330
3E2
100
AcDbEntity
  8
Visible (ISO)
100
AcDbVertex
100
AcDb2dVertex
 10
37.35789034722009
 20
87.63721603362556
 30
0.0
  0
VERTEX
  5
3F8
330
3E2
100
AcDbEntity
  8
Visible (ISO)
100
AcDbVertex
100
AcDb2dVertex
 10
37.28248749134698
 20
87.62124526708122
 30
0.0
  0
VERTEX
  5
3F9
330
3E2
100
AcDbEntity
  8
Visible (ISO)
100
AcDbVertex
100
AcDb2dVertex
 10
37.20309410450616
 20
87.6088233610868
 30
0.0
  0
VERTEX
  5
3FA
330
3E2
100
AcDbEntity
  8
Visible (ISO)
100
AcDbVertex
100
AcDb2dVertex
 10
37.11971078274408
 20
87.59995061366554
 30
0.0
  0
VERTEX
  5
3FB
330
3E2
100
AcDbEntity
  8
Visible (ISO)
100
AcDbVertex
100
AcDb2dVertex
 10
37.03233693001428
 20
87.59462702481743
 30
0.0
  0
VERTEX
  5
3FC
330
3E2
100
AcDbEntity
  8
Visible (ISO)
100
AcDbVertex
100
AcDb2dVertex
 10
36.94097314236322
 20
87.59285259454246
 30
0.0
  0
SEQEND
  5
3E5
330
3E2
100
AcDbEntity
  8
Visible (ISO)
  0
POLYLINE
  5
3FD
330
75
100
AcDbEntity
  8
Visible (ISO)
100
AcDb2dPolyline
 66
     1
 10
0.0
 20
0.0
 30
0.0
 70
   128
  0
VERTEX
  5
3FE
330
3FD
100
AcDbEntity
  8
Visible (ISO)
100
AcDbVertex
100
AcDb2dVertex
 10
37.04203222153345
 20
89.48120701520439
 30
0.0
  0
VERTEX
  5
3FF
330
3FD
100
AcDbEntity
  8
Visible (ISO)
100
AcDbVertex
100
AcDb2dVertex
 10
37.12402198670068
 20
89.47954285352226
 30
0.0
  0
VERTEX
  5
401
330
3FD
100
AcDbEntity
  8
Visible (ISO)
100
AcDbVertex
100
AcDb2dVertex
 10
37.20252309200922
 20
89.47454977242943
 30
0.0
  0
VERTEX
  5
402
330
3FD
100
AcDbEntity
  8
Visible (ISO)
100
AcDbVertex
100
AcDb2dVertex
 10
37.2775349414126
 20
89.46622836797233
 30
0.0
  0
VERTEX
  5
403
330
3FD
100
AcDbEntity
  8
Visible (ISO)
100
AcDbVertex
100
AcDb2dVertex
 10
37.34905813095727
 20
89.45457864015098
 30
0.0
  0
VERTEX
  5
404
330
3FD
100
AcDbEntity
  8
Visible (ISO)
100
AcDbVertex
100
AcDb2dVertex
 10
37.4170920645968
 20
89.43960058896538
 30
0.0
  0
VERTEX
  5
405
330
3FD
100
AcDbEntity
  8
Visible (ISO)
100
AcDbVertex
100
AcDb2dVertex
 10
37.48163733837762
 20
89.42129361836906
 30
0.0
  0
VERTEX
  5
406
330
3FD
100
AcDbEntity
  8
Visible (ISO)
100
AcDbVertex
100
AcDb2dVertex
 10
37.5426933562533
 20
89.39965832440849
 30
0.0
  0
VERTEX
  5
407
330
3FD
100
AcDbEntity
  8
Visible (ISO)
100
AcDbVertex
100
AcDb2dVertex
 10
37.60026131031671
 20
89.37469411103721
 30
0.0
  0
VERTEX
  5
408
330
3FD
100
AcDbEntity
  8
Visible (ISO)
100
AcDbVertex
100
AcDb2dVertex
 10
37.65433941242853
 20
89.34640157430168
 30
0.0
  0
VERTEX
  5
409
330
3FD
100
AcDbEntity
  8
Visible (ISO)
100
AcDbVertex
100
AcDb2dVertex
 10
37.70492885468164
 20
89.31478071420189
 30
0.0
  0
VERTEX
  5
40A
330
3FD
100
AcDbEntity
  8
Visible (ISO)
100
AcDbVertex
100
AcDb2dVertex
 10
37.75202963707605
 20
89.27983153073784
 30
0.0
  0
VERTEX
  5
40B
330
3FD
100
AcDbEntity
  8
Visible (ISO)
100
AcDbVertex
100
AcDb2dVertex
 10
37.79564116356531
 20
89.24155342786308
 30
0.0
  0
VERTEX
  5
40C
330
3FD
100
AcDbEntity
  8
Visible (ISO)
100
AcDbVertex
100
AcDb2dVertex
 10
37.83576403019586
 20
89.20020747392173
 30
0.0
  0
VERTEX
  5
40D
330
3FD
100
AcDbEntity
  8
Visible (ISO)
100
AcDbVertex
100
AcDb2dVertex
 10
37.87239764092126
 20
89.15605443923469
 30
0.0
  0
VERTEX
  5
40E
330
3FD
100
AcDbEntity
  8
Visible (ISO)
100
AcDbVertex
100
AcDb2dVertex
 10
37.90554259178796
 20
89.10909432380195
 30
0.0
  0
VERTEX
  5
40F
330
3FD
100
AcDbEntity
  8
Visible (ISO)
100
AcDbVertex
100
AcDb2dVertex
 10
37.93519828674951
 20
89.05932682960029
 30
0.0
  0
VERTEX
  5
410
330
3FD
100
AcDbEntity
  8
Visible (ISO)
100
AcDbVertex
100
AcDb2dVertex
 10
37.96136532185236
 20
89.00675225465294
 30
0.0
  0
VERTEX
  5
411
330
3FD
100
AcDbEntity
  8
Visible (ISO)
100
AcDbVertex
100
AcDb2dVertex
 10
37.9840436970965
 20
88.95137030093666
 30
0.0
  0
VERTEX
  5
412
330
3FD
100
AcDbEntity
  8
Visible (ISO)
100
AcDbVertex
100
AcDb2dVertex
 10
38.00323281643549
 20
88.89318156449791
 30
0.0
  0
VERTEX
  5
413
330
3FD
100
AcDbEntity
  8
Visible (ISO)
100
AcDbVertex
100
AcDb2dVertex
 10
38.01893267986932
 20
88.83218544929023
 30
0.0
  0
VERTEX
  5
414
330
3FD
100
AcDbEntity
  8
Visible (ISO)
100
AcDbVertex
100
AcDb2dVertex
 10
38.03114388344446
 20
88.76838195531364
 30
0.0
  0
VERTEX
  5
415
330
3FD
100
AcDbEntity
  8
Visible (ISO)
100
AcDbVertex
100
AcDb2dVertex
 10
38.03986642716089
 20
88.70177138059135
 30
0.0
  0
VERTEX
  5
416
330
3FD
100
AcDbEntity
  8
Visible (ISO)
100
AcDbVertex
100
AcDb2dVertex
 10
38.04509971497217
 20
88.63235372512336
 30
0.0
  0
VERTEX
  5
417
330
3FD
100
AcDbEntity
  8
Visible (ISO)
100
AcDbVertex
100
AcDb2dVertex
 10
38.04684434292474
 20
88.56012898890968
 30
0.0
  0
SEQEND
  5
400
330
3FD
100
AcDbEntity
  8
Visible (ISO)
  0
LINE
  5
418
330
75
100
AcDbEntity
  8
Visible (ISO)
100
AcDbLine
 10
35.50016469813995
 20
89.48120683624708
 30
0.0
 11
37.042031939389
 21
89.48120683624708
 31
0.0
  0
LINE
  5
419
330
75
100
AcDbEntity
  8
Visible (ISO)
100
AcDbLine
 10
56.17323706505456
 20
90.75677705018518
 30
0.0
 11
56.17323706505456
 21
77.75677705018516
 31
0.0
  0
LINE
  5
41A
330
75
100
AcDbEntity
  8
Visible (ISO)
100
AcDbLine
 10
34.17323706505456
 20
90.75677705018518
 30
0.0
 11
56.17323706505456
 21
90.75677705018518
 31
0.0
  0
LINE
  5
41B
330
75
100
AcDbEntity
  8
Visible (ISO)
100
AcDbLine
 10
34.17323706505456
 20
77.75677705018516
 30
0.0
 11
34.17323706505456
 21
90.75677705018518
 31
0.0
  0
LINE
  5
41C
330
75
100
AcDbEntity
  8
Visible (ISO)
100
AcDbLine
 10
56.17323706505456
 20
77.75677705018516
 30
0.0
 11
34.17323706505456
 21
77.75677705018516
 31
0.0
  0
ARC
  5
41D
330
75
100
AcDbEntity
  8
Visible (ISO)
100
AcDbCircle
 10
49.33263706505458
 20
167.1817770501851
 30
0.0
 40
0.9999999999999998
100
AcDbArc
 50
84.85340617191793
 51
275.1769972843219
  0
LINE
  5
41E
330
75
100
AcDbEntity
  8
Visible (ISO)
100
AcDbLine
 10
71.67771624281292
 20
191.4877065066704
 30
0.0
 11
72.00195728825788
 21
191.487792534374
 31
0.0
  0
LINE
  5
41F
330
75
100
AcDbEntity
  8
Visible Narrow (ISO)
100
AcDbLine
 10
70.56130971679059
 20
172.1874096221421
 30
0.0
 11
72.56130964639578
 21
172.1879402625513
 31
0.0
  0
ARC
  5
420
330
75
100
AcDbEntity
  8
Visible (ISO)
100
AcDbCircle
 10
71.56263628261626
 20
167.1876751183337
 30
0.0
 40
1.0
100
AcDbArc
 50
270.0152017281228
 51
90.01520172812284
  0
LINE
  5
421
330
75
100
AcDbEntity
  8
Visible (ISO)
100
AcDbLine
 10
70.56130971679059
 20
172.1874096221421
 30
0.0
 11
70.55778901312466
 21
185.4570494036924
 31
0.0
  0
LINE
  5
422
330
75
100
AcDbEntity
  8
Visible (ISO)
100
AcDbLine
 10
70.55709918059266
 20
188.0570493121792
 30
0.0
 11
70.55648894412204
 21
190.3570492312251
 31
0.0
  0
LINE
  5
423
330
75
100
AcDbEntity
  8
Visible (ISO)
100
AcDbLine
 10
72.56130964639578
 20
172.1879402625513
 30
0.0
 11
72.55778894272985
 21
185.4575800441017
 31
0.0
  0
LINE
  5
424
330
75
100
AcDbEntity
  8
Visible (ISO)
100
AcDbLine
 10
72.55709911019785
 20
188.0575799525884
 30
0.0
 11
72.55648887372723
 21
190.3575798716344
 31
0.0
  0
LINE
  5
425
330
75
100
AcDbEntity
  8
Visible (ISO)
100
AcDbLine
 10
72.56263624741885
 20
167.1879404385383
 30
0.0
 11
72.56130964639578
 21
172.1879402625513
 31
0.0
  0
LINE
  5
426
330
75
100
AcDbEntity
  8
Visible (ISO)
100
AcDbLine
 10
70.56130971679059
 20
172.1874096221421
 30
0.0
 11
70.56237099760905
 21
168.1874097629317
 31
0.0
  0
LINE
  5
427
330
75
100
AcDbEntity
  8
Visible (ISO)
100
AcDbLine
 10
71.56237096241165
 20
168.1876750831363
 30
0.0
 11
49.33237174484997
 21
168.1817770149877
 31
0.0
  0
LINE
  5
428
330
75
100
AcDbEntity
  8
Visible (ISO)
100
AcDbLine
 10
49.3329023852592
 20
166.1817770853826
 30
0.0
 11
71.56290160282089
 21
166.1876751535311
 31
0.0
  0
LINE
  5
429
330
75
100
AcDbEntity
  8
Visible (ISO)
100
AcDbLine
 10
71.94143673829879
 20
185.457416513403
 30
0.0
 11
73.94143666790397
 21
185.4579471538122
 31
0.0
  0
LINE
  5
42A
330
75
100
AcDbEntity
  8
Visible (ISO)
100
AcDbLine
 10
69.74143681573308
 20
185.4568328089527
 30
0.0
 11
71.74143674533826
 21
185.457363449362
 31
0.0
  0
LINE
  5
42B
330
75
100
AcDbEntity
  8
Visible (ISO)
100
AcDbLine
 10
71.94074690576679
 20
188.0574164218897
 30
0.0
 11
73.94074683537197
 21
188.0579470622989
 31
0.0
  0
LINE
  5
42C
330
75
100
AcDbEntity
  8
Visible (ISO)
100
AcDbLine
 10
73.59013661122048
 20
190.3578541192733
 30
0.0
 11
73.59074684769106
 21
188.0578542002273
 31
0.0
  0
ARC
  5
42D
330
75
100
AcDbEntity
  8
Visible Narrow (ISO)
100
AcDbCircle
 10
75.63894259814495
 20
194.8583978673044
 30
0.0
 40
2.849999999999997
100
AcDbArc
 50
134.0186290770224
 51
180.0152017281208
  0
LINE
  5
42E
330
75
100
AcDbEntity
  8
Visible (ISO)
100
AcDbLine
 10
70.83634262908723
 20
204.6571239853877
 30
0.0
 11
72.83634255869242
 21
204.6576546257969
 31
0.0
  0
ARC
  5
42F
330
75
100
AcDbEntity
  8
Visible Narrow (ISO)
100
AcDbCircle
 10
68.03894286564525
 20
194.8563814337493
 30
0.0
 40
2.849999999999997
100
AcDbArc
 50
0.0152017281208086
 51
46.0117743792222
  0
LINE
  5
430
330
75
100
AcDbEntity
  8
Visible (ISO)
100
AcDbLine
 10
70.09074697088198
 20
188.0569255795111
 30
0.0
 11
70.09013673441133
 21
190.3569254985571
 31
0.0
  0
ARC
  5
431
330
75
100
AcDbEntity
  8
Visible (ISO)
100
AcDbCircle
 10
68.03894286564525
 20
194.8563814337493
 30
0.0
 40
2.350000000000002
100
AcDbArc
 50
0.0152017280968334
 51
60.74696340286223
  0
LINE
  5
432
330
75
100
AcDbEntity
  8
Visible (ISO)
100
AcDbLine
 10
71.94143673829879
 20
185.4574165134029
 30
0.0
 11
71.94074690576677
 21
188.0574164218896
 31
0.0
  0
LINE
  5
433
330
75
100
AcDbEntity
  8
Visible (ISO)
100
AcDbLine
 10
73.94143666790397
 20
185.4579471538121
 30
0.0
 11
73.94074683537197
 21
188.0579470622989
 31
0.0
  0
LINE
  5
434
330
75
100
AcDbEntity
  8
Visible (ISO)
100
AcDbLine
 10
69.74074698320106
 20
188.0568327174395
 30
0.0
 11
71.74074691280626
 21
188.0573633578487
 31
0.0
  0
LINE
  5
435
330
75
100
AcDbEntity
  8
Visible (ISO)
100
AcDbLine
 10
69.74143681573308
 20
185.4568328089527
 30
0.0
 11
69.74074698320108
 21
188.0568327174395
 31
0.0
  0
LINE
  5
436
330
75
100
AcDbEntity
  8
Visible (ISO)
100
AcDbLine
 10
71.74143674533826
 20
185.457363449362
 30
0.0
 11
71.74074691280626
 21
188.0573633578487
 31
0.0
  0
LINE
  5
437
330
75
100
AcDbEntity
  8
Visible (ISO)
100
AcDbLine
 10
71.67801615009342
 20
190.3573467950634
 30
0.0
 11
70.09013673441133
 21
190.3569254985571
 31
0.0
  0
LINE
  5
438
330
75
100
AcDbEntity
  8
Visible (ISO)
100
AcDbLine
 10
71.67682220917265
 20
194.857346636675
 30
0.0
 11
71.67801615009342
 21
190.3573467950634
 31
0.0
  0
LINE
  5
439
330
75
100
AcDbEntity
  8
Visible (ISO)
100
AcDbLine
 10
70.08894279349056
 20
194.8569253401688
 30
0.0
 11
71.67682220917265
 21
194.857346636675
 31
0.0
  0
LINE
  5
43A
330
75
100
AcDbEntity
  8
Visible (ISO)
100
AcDbLine
 10
70.08894279349056
 20
194.8569253401688
 30
0.0
 11
70.09013673441133
 21
190.3569254985571
 31
0.0
  0
LINE
  5
43B
330
75
100
AcDbEntity
  8
Visible (ISO)
100
AcDbLine
 10
72.00106325461762
 20
194.8574326643786
 30
0.0
 11
72.00225719553839
 21
190.3574328227669
 31
0.0
  0
LINE
  5
43C
330
75
100
AcDbEntity
  8
Visible (ISO)
100
AcDbLine
 10
73.59013661122048
 20
190.3578541192732
 30
0.0
 11
72.00225719553839
 21
190.3574328227669
 31
0.0
  0
LINE
  5
43D
330
75
100
AcDbEntity
  8
Visible (ISO)
100
AcDbLine
 10
73.58894267029964
 20
194.8578539608849
 30
0.0
 11
73.59013661122048
 21
190.3578541192733
 31
0.0
  0
LINE
  5
43E
330
75
100
AcDbEntity
  8
Visible (ISO)
100
AcDbLine
 10
72.00106325461762
 20
194.8574326643786
 30
0.0
 11
73.5889426702997
 21
194.8578539608849
 31
0.0
  0
LINE
  5
43F
330
75
100
AcDbEntity
  8
Visible (ISO)
100
AcDbLine
 10
75.38839870052483
 20
196.9083314650985
 30
0.0
 11
75.38840276019062
 21
196.8930304605747
 31
0.0
  0
ARC
  5
440
330
75
100
AcDbEntity
  8
Visible (ISO)
100
AcDbCircle
 10
75.63894259814495
 20
194.8583978673044
 30
0.0
 40
2.349999999999998
100
AcDbArc
 50
119.2834400533822
 51
180.0152017280968
  0
ARC
  5
441
330
75
100
AcDbEntity
  8
Visible (ISO)
100
AcDbCircle
 10
75.63894259814496
 20
194.8583978673044
 30
0.0
 40
2.049999999999998
100
AcDbArc
 50
97.01992813719895
 51
180.0152017281208
  0
LINE
  5
442
330
75
100
AcDbEntity
  8
Visible (ISO)
100
AcDbLine
 10
68.28840301009221
 20
196.8911466871219
 30
0.0
 11
68.28839895042642
 21
196.9064476916457
 31
0.0
  0
ARC
  5
443
330
75
100
AcDbEntity
  8
Visible (ISO)
100
AcDbCircle
 10
68.03894286564525
 20
194.8563814337493
 30
0.0
 40
2.049999999999998
100
AcDbArc
 50
0.0152017281208086
 51
83.01047531904602
  0
LINE
  5
444
330
75
100
AcDbEntity
  8
Visible (ISO)
100
AcDbLine
 10
75.63839869172548
 20
196.9083977951497
 30
0.0
 11
72.83839879027823
 21
196.9076548985768
 31
0.0
  0
LINE
  5
445
330
75
100
AcDbEntity
  8
Visible (ISO)
100
AcDbLine
 10
68.17696237026362
 20
196.9017299655025
 30
0.0
 11
68.1769611265826
 21
196.9064181249385
 31
0.0
  0
ARC
  5
446
330
75
100
AcDbEntity
  8
Visible (ISO)
100
AcDbCircle
 10
68.03894286564522
 20
194.8563814337487
 30
0.0
 40
2.050000000000591
100
AcDbArc
 50
83.01047531904758
 51
86.13955044038407
  0
ARC
  5
447
330
75
100
AcDbEntity
  8
Visible (ISO)
100
AcDbCircle
 10
75.63894259814498
 20
194.8583978673039
 30
0.0
 40
2.050000000000453
100
AcDbArc
 50
93.89085301586119
 51
97.01992813719787
  0
LINE
  5
448
330
75
100
AcDbEntity
  8
Visible (ISO)
100
AcDbLine
 10
75.49983652436866
 20
196.9083610318058
 30
0.0
 11
75.49983776841457
 21
196.9036728723699
 31
0.0
  0
LINE
  5
449
330
75
100
AcDbEntity
  8
Visible (ISO)
100
AcDbLine
 10
70.83839886067304
 20
196.9071242581675
 30
0.0
 11
68.03839895922577
 21
196.9063813615946
 31
0.0
  0
LINE
  5
44A
330
75
100
AcDbEntity
  8
Visible (ISO)
100
AcDbLine
 10
70.83634262908723
 20
204.6571239853877
 30
0.0
 11
70.83839886067304
 21
196.9071242581675
 31
0.0
  0
LINE
  5
44B
330
75
100
AcDbEntity
  8
Visible (ISO)
100
AcDbLine
 10
70.83634262908724
 20
204.6571239853877
 30
0.0
 11
68.03634272763997
 21
204.6563810888148
 31
0.0
  0
LINE
  5
44C
330
75
100
AcDbEntity
  8
Visible (ISO)
100
AcDbLine
 10
68.03839895922577
 20
196.9063813615946
 30
0.0
 11
68.03634272763996
 21
204.6563810888147
 31
0.0
  0
LINE
  5
44D
330
75
100
AcDbEntity
  8
Visible (ISO)
100
AcDbLine
 10
75.63839869172548
 20
196.9083977951497
 30
0.0
 11
75.63634246013967
 21
204.6583975223699
 31
0.0
  0
LINE
  5
44E
330
75
100
AcDbEntity
  8
Visible (ISO)
100
AcDbLine
 10
75.63634246013967
 20
204.6583975223698
 30
0.0
 11
72.83634255869242
 21
204.6576546257969
 31
0.0
  0
LINE
  5
44F
330
75
100
AcDbEntity
  8
Visible (ISO)
100
AcDbLine
 10
72.83634255869242
 20
204.6576546257969
 30
0.0
 11
72.83839879027822
 21
196.9076548985768
 31
0.0
  0
POLYLINE
  5
450
330
75
100
AcDbEntity
  8
Visible Narrow (ISO)
100
AcDb2dPolyline
 66
     1
 10
0.0
 20
0.0
 30
0.0
 70
   128
  0
VERTEX
  5
451
330
450
100
AcDbEntity
  8
Visible Narrow (ISO)
100
AcDbVertex
100
AcDb2dVertex
 10
49.42286979553859
 20
166.1858597680806
 30
0.0
  0
VERTEX
  5
452
330
450
100
AcDbEntity
  8
Visible Narrow (ISO)
100
AcDbVertex
100
AcDb2dVertex
 10
49.29770957825343
 20
166.2051335260152
 30
0.0
  0
VERTEX
  5
454
330
450
100
AcDbEntity
  8
Visible Narrow (ISO)
100
AcDbVertex
100
AcDb2dVertex
 10
49.176682347037
 20
166.238721935439
 30
0.0
  0
VERTEX
  5
455
330
450
100
AcDbEntity
  8
Visible Narrow (ISO)
100
AcDbVertex
100
AcDb2dVertex
 10
49.06599413750331
 20
166.2847081109761
 30
0.0
  0
VERTEX
  5
456
330
450
100
AcDbEntity
  8
Visible Narrow (ISO)
100
AcDbVertex
100
AcDb2dVertex
 10
48.95679604408901
 20
166.3471165582418
 30
0.0
  0
VERTEX
  5
457
330
450
100
AcDbEntity
  8
Visible Narrow (ISO)
100
AcDbVertex
100
AcDb2dVertex
 10
48.85480057594936
 20
166.4217892572164
 30
0.0
  0
VERTEX
  5
458
330
450
100
AcDbEntity
  8
Visible Narrow (ISO)
100
AcDbVertex
100
AcDb2dVertex
 10
48.76742135880153
 20
166.5042057916402
 30
0.0
  0
VERTEX
  5
459
330
450
100
AcDbEntity
  8
Visible Narrow (ISO)
100
AcDbVertex
100
AcDb2dVertex
 10
48.68883859512965
 20
166.6009655877828
 30
0.0
  0
VERTEX
  5
45A
330
450
100
AcDbEntity
  8
Visible Narrow (ISO)
100
AcDbVertex
100
AcDb2dVertex
 10
48.62071525452297
 20
166.7080346032857
 30
0.0
  0
VERTEX
  5
45B
330
450
100
AcDbEntity
  8
Visible Narrow (ISO)
100
AcDbVertex
100
AcDb2dVertex
 10
48.5686935126559
 20
166.8172398492574
 30
0.0
  0
VERTEX
  5
45C
330
450
100
AcDbEntity
  8
Visible Narrow (ISO)
100
AcDbVertex
100
AcDb2dVertex
 10
48.53129517433803
 20
166.9348755761861
 30
0.0
  0
VERTEX
  5
45D
330
450
100
AcDbEntity
  8
Visible Narrow (ISO)
100
AcDbVertex
100
AcDb2dVertex
 10
48.50732933876674
 20
167.0596924707174
 30
0.0
  0
VERTEX
  5
45E
330
450
100
AcDbEntity
  8
Visible Narrow (ISO)
100
AcDbVertex
100
AcDb2dVertex
 10
48.49886190292995
 20
167.1815529748677
 30
0.0
  0
VERTEX
  5
45F
330
450
100
AcDbEntity
  8
Visible Narrow (ISO)
100
AcDbVertex
100
AcDb2dVertex
 10
48.50726496575038
 20
167.3034230157613
 30
0.0
  0
VERTEX
  5
460
330
450
100
AcDbEntity
  8
Visible Narrow (ISO)
100
AcDbVertex
100
AcDb2dVertex
 10
48.53116404411952
 20
167.4282494470357
 30
0.0
  0
VERTEX
  5
461
330
450
100
AcDbEntity
  8
Visible Narrow (ISO)
100
AcDbVertex
100
AcDb2dVertex
 10
48.56849920151393
 20
167.5459137841939
 30
0.0
  0
VERTEX
  5
462
330
450
100
AcDbEntity
  8
Visible Narrow (ISO)
100
AcDbVertex
100
AcDb2dVertex
 10
48.62046372292201
 20
167.6551476403951
 30
0.0
  0
VERTEX
  5
463
330
450
100
AcDbEntity
  8
Visible Narrow (ISO)
100
AcDbVertex
100
AcDb2dVertex
 10
48.68853103516261
 20
167.7622452661275
 30
0.0
  0
VERTEX
  5
464
330
450
100
AcDbEntity
  8
Visible Narrow (ISO)
100
AcDbVertex
100
AcDb2dVertex
 10
48.76706134674709
 20
167.8590527459859
 30
0.0
  0
VERTEX
  5
465
330
450
100
AcDbEntity
  8
Visible Narrow (ISO)
100
AcDbVertex
100
AcDb2dVertex
 10
48.85439764855068
 20
167.9415169641256
 30
0.0
  0
VERTEX
  5
466
330
450
100
AcDbEntity
  8
Visible Narrow (ISO)
100
AcDbVertex
100
AcDb2dVertex
 10
48.95635258553188
 20
168.016237346816
 30
0.0
  0
VERTEX
  5
467
330
450
100
AcDbEntity
  8
Visible Narrow (ISO)
100
AcDbVertex
100
AcDb2dVertex
 10
49.065518492438
 20
168.0787030145406
 30
0.0
  0
VERTEX
  5
468
330
450
100
AcDbEntity
  8
Visible Narrow (ISO)
100
AcDbVertex
100
AcDb2dVertex
 10
49.17618166802089
 20
168.1247559472799
 30
0.0
  0
VERTEX
  5
469
330
450
100
AcDbEntity
  8
Visible Narrow (ISO)
100
AcDbVertex
100
AcDb2dVertex
 10
49.29719101784389
 20
168.1584015771627
 30
0.0
  0
VERTEX
  5
46A
330
450
100
AcDbEntity
  8
Visible Narrow (ISO)
100
AcDbVertex
100
AcDb2dVertex
 10
49.42234169838588
 20
168.1777420922994
 30
0.0
  0
SEQEND
  5
453
330
450
100
AcDbEntity
  8
Visible Narrow (ISO)
  0
LINE
  5
46B
330
75
100
AcDbEntity
  8
Visible (ISO)
100
AcDbLine
 10
138.9593795323116
 20
68.75677705018516
 30
0.0
 11
140.5593795323116
 21
68.75677705018516
 31
0.0
  0
LINE
  5
46C
330
75
100
AcDbEntity
  8
Visible (ISO)
100
AcDbLine
 10
140.5593795323116
 20
68.75677705018516
 30
0.0
 11
140.5593795323116
 21
97.24677705018525
 31
0.0
  0
LINE
  5
46D
330
75
100
AcDbEntity
  8
Visible (ISO)
100
AcDbLine
 10
140.5593795323116
 20
162.2467770501852
 30
0.0
 11
140.5593795323116
 21
178.2307770501851
 31
0.0
  0
LINE
  5
46E
330
75
100
AcDbEntity
  8
Visible Narrow (ISO)
100
AcDbLine
 10
138.9593795323116
 20
178.2307770501851
 30
0.0
 11
140.5593795323116
 21
178.2307770501851
 31
0.0
  0
LINE
  5
46F
330
75
100
AcDbEntity
  8
Visible (ISO)
100
AcDbLine
 10
138.9593795323116
 20
178.2307770501851
 30
0.0
 11
138.9593795323116
 21
162.2467770501852
 31
0.0
  0
LINE
  5
470
330
75
100
AcDbEntity
  8
Visible (ISO)
100
AcDbLine
 10
138.9593795323116
 20
97.24677705018525
 30
0.0
 11
138.9593795323116
 21
68.75677705018516
 31
0.0
  0
LINE
  5
471
330
75
100
AcDbEntity
  8
Visible (ISO)
100
AcDbLine
 10
140.5593795323119
 20
179.2467770501852
 30
0.0
 11
140.5593795323116
 21
178.2307770501851
 31
0.0
  0
LINE
  5
472
330
75
100
AcDbEntity
  8
Visible (ISO)
100
AcDbLine
 10
138.9593795323119
 20
179.2467770501852
 30
0.0
 11
140.5593795323119
 21
179.2467770501852
 31
0.0
  0
LINE
  5
473
330
75
100
AcDbEntity
  8
Visible (ISO)
100
AcDbLine
 10
138.9593795323116
 20
178.2307770501851
 30
0.0
 11
138.9593795323119
 21
179.2467770501852
 31
0.0
  0
LINE
  5
474
330
75
100
AcDbEntity
  8
Visible (ISO)
100
AcDbLine
 10
136.3593795323124
 20
71.83497705018516
 30
0.0
 11
136.3593795323124
 21
72.43497705018516
 31
0.0
  0
LINE
  5
475
330
75
100
AcDbEntity
  8
Visible (ISO)
100
AcDbLine
 10
137.1093795323124
 20
72.63497705018517
 30
0.0
 11
137.1093795323124
 21
71.63497705018517
 31
0.0
  0
LINE
  5
476
330
75
100
AcDbEntity
  8
Visible (ISO)
100
AcDbLine
 10
148.0593795323116
 20
76.33497705018516
 30
0.0
 11
150.5593795323116
 21
75.00045294173769
 31
0.0
  0
LINE
  5
477
330
75
100
AcDbEntity
  8
Visible (ISO)
100
AcDbLine
 10
150.5593795323116
 20
75.00045294173769
 30
0.0
 11
150.5593795323116
 21
69.70045294173769
 31
0.0
  0
LINE
  5
478
330
75
100
AcDbEntity
  8
Visible (ISO)
100
AcDbLine
 10
150.5593795323116
 20
69.70045294173769
 30
0.0
 11
147.3293795323116
 21
68.83497705018516
 31
0.0
  0
LINE
  5
479
330
75
100
AcDbEntity
  8
Visible (ISO)
100
AcDbLine
 10
147.3293795323116
 20
68.83497705018516
 30
0.0
 11
140.5593795323116
 21
68.83497705018516
 31
0.0
  0
LINE
  5
47A
330
75
100
AcDbEntity
  8
Visible (ISO)
100
AcDbLine
 10
140.5593795323116
 20
76.33497705018516
 30
0.0
 11
148.0593795323116
 21
76.33497705018516
 31
0.0
  0
LINE
  5
47B
330
75
100
AcDbEntity
  8
Visible (ISO)
100
AcDbLine
 10
136.3593795323124
 20
72.43497705018516
 30
0.0
 11
137.1093795323124
 21
72.63497705018517
 31
0.0
  0
LINE
  5
47C
330
75
100
AcDbEntity
  8
Visible (ISO)
100
AcDbLine
 10
136.3593795323124
 20
71.83497705018516
 30
0.0
 11
137.1093795323124
 21
71.63497705018516
 31
0.0
  0
LINE
  5
47D
330
75
100
AcDbEntity
  8
Visible (ISO)
100
AcDbLine
 10
138.9593795323124
 20
71.63497705018516
 30
0.0
 11
137.1093795323124
 21
71.63497705018516
 31
0.0
  0
LINE
  5
47E
330
75
100
AcDbEntity
  8
Visible (ISO)
100
AcDbLine
 10
138.9593795323124
 20
72.63497705018517
 30
0.0
 11
137.1093795323124
 21
72.63497705018517
 31
0.0
  0
LINE
  5
47F
330
75
100
AcDbEntity
  8
Visible (ISO)
100
AcDbLine
 10
136.459379532313
 20
156.8085770501851
 30
0.0
 11
136.459379532313
 21
157.5385770501851
 31
0.0
  0
LINE
  5
480
330
75
100
AcDbEntity
  8
Visible (ISO)
100
AcDbLine
 10
136.459379532313
 20
152.7385770501851
 30
0.0
 11
136.459379532313
 21
152.0085770501851
 31
0.0
  0
LINE
  5
481
330
75
100
AcDbEntity
  8
Visible (ISO)
100
AcDbLine
 10
137.389379532313
 20
156.8085770501851
 30
0.0
 11
136.459379532313
 21
156.8085770501851
 31
0.0
  0
LINE
  5
482
330
75
100
AcDbEntity
  8
Visible (ISO)
100
AcDbLine
 10
137.389379532313
 20
157.5385770501851
 30
0.0
 11
136.459379532313
 21
157.5385770501851
 31
0.0
  0
LINE
  5
483
330
75
100
AcDbEntity
  8
Visible (ISO)
100
AcDbLine
 10
136.459379532313
 20
152.7385770501851
 30
0.0
 11
137.389379532313
 21
152.7385770501851
 31
0.0
  0
LINE
  5
484
330
75
100
AcDbEntity
  8
Visible (ISO)
100
AcDbLine
 10
136.459379532313
 20
152.0085770501851
 30
0.0
 11
137.389379532313
 21
152.0085770501851
 31
0.0
  0
LINE
  5
485
330
75
100
AcDbEntity
  8
Visible (ISO)
100
AcDbLine
 10
142.7093795323114
 20
162.2467770501852
 30
0.0
 11
143.4793795323117
 21
162.2467770501852
 31
0.0
  0
LINE
  5
486
330
75
100
AcDbEntity
  8
Visible Narrow (ISO)
100
AcDbLine
 10
142.7093795323114
 20
97.24677705018525
 30
0.0
 11
142.7093795323114
 21
162.2467770501852
 31
0.0
  0
LINE
  5
487
330
75
100
AcDbEntity
  8
Visible (ISO)
100
AcDbLine
 10
142.7093795323114
 20
97.24677705018525
 30
0.0
 11
143.4793795323117
 21
97.24677705018525
 31
0.0
  0
LINE
  5
488
330
75
100
AcDbEntity
  8
Visible (ISO)
100
AcDbLine
 10
143.4793795323117
 20
97.24677705018525
 30
0.0
 11
143.4793795323117
 21
162.2467770501852
 31
0.0
  0
LINE
  5
489
330
75
100
AcDbEntity
  8
Visible (ISO)
100
AcDbLine
 10
142.7093795323114
 20
162.2467770501852
 30
0.0
 11
138.1593795323114
 21
162.2467770501852
 31
0.0
  0
LINE
  5
48A
330
75
100
AcDbEntity
  8
Visible Narrow (ISO)
100
AcDbLine
 10
138.1593795323114
 20
97.24677705018525
 30
0.0
 11
138.1593795323114
 21
162.2467770501852
 31
0.0
  0
LINE
  5
48B
330
75
100
AcDbEntity
  8
Visible (ISO)
100
AcDbLine
 10
142.7093795323114
 20
97.24677705018525
 30
0.0
 11
138.1593795323114
 21
97.24677705018525
 31
0.0
  0
LINE
  5
48C
330
75
100
AcDbEntity
  8
Visible (ISO)
100
AcDbLine
 10
137.3893795323117
 20
162.2467770501852
 30
0.0
 11
138.1593795323114
 21
162.2467770501852
 31
0.0
  0
LINE
  5
48D
330
75
100
AcDbEntity
  8
Visible (ISO)
100
AcDbLine
 10
137.3893795323117
 20
97.24677705018525
 30
0.0
 11
137.3893795323117
 21
162.2467770501852
 31
0.0
  0
LINE
  5
48E
330
75
100
AcDbEntity
  8
Visible (ISO)
100
AcDbLine
 10
137.3893795323117
 20
97.24677705018525
 30
0.0
 11
138.1593795323114
 21
97.24677705018525
 31
0.0
  0
LINE
  5
48F
330
75
100
AcDbEntity
  8
Visible (ISO)
100
AcDbLine
 10
140.6843795323117
 20
77.75677705018516
 30
0.0
 11
140.6843795323117
 21
90.75677705018518
 31
0.0
  0
LINE
  5
490
330
75
100
AcDbEntity
  8
Visible (ISO)
100
AcDbLine
 10
140.5593795323117
 20
77.75677705018516
 30
0.0
 11
140.6843795323117
 21
77.75677705018516
 31
0.0
  0
LINE
  5
491
330
75
100
AcDbEntity
  8
Visible (ISO)
100
AcDbLine
 10
140.5593795323117
 20
90.75677705018518
 30
0.0
 11
140.6843795323117
 21
90.75677705018518
 31
0.0
  0
LINE
  5
492
330
75
100
AcDbEntity
  8
Visible (ISO)
100
AcDbLine
 10
143.2593795323162
 20
166.1817770501851
 30
0.0
 11
143.2593795323159
 21
167.6817770501851
 31
0.0
  0
LINE
  5
493
330
75
100
AcDbEntity
  8
Visible (ISO)
100
AcDbLine
 10
141.2593795323159
 20
167.6817770501851
 30
0.0
 11
143.2593795323159
 21
167.6817770501851
 31
0.0
  0
LINE
  5
494
330
75
100
AcDbEntity
  8
Visible (ISO)
100
AcDbLine
 10
141.2593795323159
 20
167.6817770501851
 30
0.0
 11
141.2593795323162
 21
166.1817770501851
 31
0.0
  0
LINE
  5
495
330
75
100
AcDbEntity
  8
Visible (ISO)
100
AcDbLine
 10
138.5593795323162
 20
166.1817770501851
 30
0.0
 11
138.559379532316
 21
167.6817770501851
 31
0.0
  0
LINE
  5
496
330
75
100
AcDbEntity
  8
Visible (ISO)
100
AcDbLine
 10
136.5593795323159
 20
167.6817770501851
 30
0.0
 11
138.5593795323159
 21
167.6817770501851
 31
0.0
  0
LINE
  5
497
330
75
100
AcDbEntity
  8
Visible (ISO)
100
AcDbLine
 10
136.5593795323159
 20
167.6817770501851
 30
0.0
 11
136.5593795323162
 21
166.1817770501851
 31
0.0
  0
LINE
  5
498
330
75
100
AcDbEntity
  8
Visible (ISO)
100
AcDbLine
 10
144.2593795323162
 20
168.1817770501851
 30
0.0
 11
144.2593795323162
 21
166.1817770501851
 31
0.0
  0
LINE
  5
499
330
75
100
AcDbEntity
  8
Visible (ISO)
100
AcDbLine
 10
135.5593795323162
 20
168.1817770501851
 30
0.0
 11
135.5593795323162
 21
166.1817770501851
 31
0.0
  0
LINE
  5
49A
330
75
100
AcDbEntity
  8
Visible (ISO)
100
AcDbLine
 10
135.5593795323162
 20
168.1817770501851
 30
0.0
 11
138.9593795323162
 21
168.1817770501851
 31
0.0
  0
LINE
  5
49B
330
75
100
AcDbEntity
  8
Visible (ISO)
100
AcDbLine
 10
140.5593795323162
 20
168.1817770501851
 30
0.0
 11
144.2593795323162
 21
168.1817770501851
 31
0.0
  0
LINE
  5
49C
330
75
100
AcDbEntity
  8
Visible (ISO)
100
AcDbLine
 10
135.5593795323162
 20
166.1817770501852
 30
0.0
 11
136.5593795323162
 21
166.1817770501852
 31
0.0
  0
LINE
  5
49D
330
75
100
AcDbEntity
  8
Visible (ISO)
100
AcDbLine
 10
138.5593795323162
 20
166.1817770501852
 30
0.0
 11
138.9593795323162
 21
166.1817770501852
 31
0.0
  0
LINE
  5
49E
330
75
100
AcDbEntity
  8
Visible (ISO)
100
AcDbLine
 10
140.5593795323162
 20
166.1817770501852
 30
0.0
 11
141.2593795323162
 21
166.1817770501852
 31
0.0
  0
LINE
  5
49F
330
75
100
AcDbEntity
  8
Visible (ISO)
100
AcDbLine
 10
143.2593795323162
 20
166.1817770501852
 30
0.0
 11
144.2593795323162
 21
166.1817770501852
 31
0.0
  0
ELLIPSE
  5
4A0
330
75
100
AcDbEntity
  8
Visible (ISO)
100
AcDbEllipse
 10
130.7593795323228
 20
191.4876742630368
 30
0.0
 11
-1.000000000000003
 21
-0.0000000000000001
 31
0.0
210
0.0
220
0.0
230
1.0
 40
0.000265320204615
 41
5.378960595653088
 42
7.187410018707465
  0
ELLIPSE
  5
4A1
330
75
100
AcDbEntity
  8
Visible Narrow (ISO)
100
AcDbEllipse
 10
130.7593795323228
 20
172.1876749423467
 30
0.0
 11
0.9999999999999998
 21
0.0
 31
0.0
210
0.0
220
0.0
230
1.0
 40
0.000265320204615
 41
3.141600953972614
 42
6.283193607562408
  0
LINE
  5
4A2
330
75
100
AcDbEntity
  8
Visible Narrow (ISO)
100
AcDbLine
 10
135.7593795323227
 20
168.1817770501851
 30
0.0
 11
135.7593795323228
 21
168.1876751183337
 31
0.0
  0
LINE
  5
4A3
330
75
100
AcDbEntity
  8
Visible Narrow (ISO)
100
AcDbLine
 10
142.2593795323228
 20
168.1817770501851
 30
0.0
 11
142.2593795323228
 21
168.1876751183337
 31
0.0
  0
LINE
  5
4A4
330
75
100
AcDbEntity
  8
Visible Narrow (ISO)
100
AcDbLine
 10
142.2593795323162
 20
168.1817770501851
 30
0.0
 11
142.2593795323162
 21
166.1817770501851
 31
0.0
  0
LINE
  5
4A5
330
75
100
AcDbEntity
  8
Visible (ISO)
100
AcDbLine
 10
138.5593795323162
 20
168.1817770501851
 30
0.0
 11
138.5593795323162
 21
166.1817770501851
 31
0.0
  0
LINE
  5
4A6
330
75
100
AcDbEntity
  8
Visible (ISO)
100
AcDbLine
 10
129.7593795323228
 20
172.1876749423467
 30
0.0
 11
129.7593795323228
 21
191.4876742630368
 31
0.0
  0
LINE
  5
4A7
330
75
100
AcDbEntity
  8
Visible (ISO)
100
AcDbLine
 10
131.7593795323228
 20
172.1876749423467
 30
0.0
 11
131.7593795323228
 21
185.4568328089527
 31
0.0
  0
LINE
  5
4A8
330
75
100
AcDbEntity
  8
Visible (ISO)
100
AcDbLine
 10
131.7593795323228
 20
188.0569255795111
 30
0.0
 11
131.7593795323228
 21
190.3569602010739
 31
0.0
  0
POLYLINE
  5
4A9
330
75
100
AcDbEntity
  8
Visible (ISO)
100
AcDb2dPolyline
 66
     1
 10
0.0
 20
0.0
 30
0.0
 70
   128
  0
VERTEX
  5
4AA
330
4A9
100
AcDbEntity
  8
Visible (ISO)
100
AcDbVertex
100
AcDb2dVertex
 10
135.7593795204018
 20
168.1876750938788
 30
0.0
  0
VERTEX
  5
4AB
330
4A9
100
AcDbEntity
  8
Visible (ISO)
100
AcDbVertex
100
AcDb2dVertex
 10
135.3673219227647
 20
168.2070102439169
 30
0.0
  0
VERTEX
  5
4AD
330
4A9
100
AcDbEntity
  8
Visible (ISO)
100
AcDbVertex
100
AcDb2dVertex
 10
134.9790328287934
 20
168.2646218550897
 30
0.0
  0
VERTEX
  5
4AE
330
4A9
100
AcDbEntity
  8
Visible (ISO)
100
AcDbVertex
100
AcDb2dVertex
 10
134.5982417011117
 20
168.3599192460208
 30
0.0
  0
VERTEX
  5
4AF
330
4A9
100
AcDbEntity
  8
Visible (ISO)
100
AcDbVertex
100
AcDb2dVertex
 10
134.2286708497857
 20
168.4922081722672
 30
0.0
  0
VERTEX
  5
4B0
330
4A9
100
AcDbEntity
  8
Visible (ISO)
100
AcDbVertex
100
AcDb2dVertex
 10
133.8738375449036
 20
168.6600773436366
 30
0.0
  0
VERTEX
  5
4B1
330
4A9
100
AcDbEntity
  8
Visible (ISO)
100
AcDbVertex
100
AcDb2dVertex
 10
133.537107660756
 20
168.8618137233313
 30
0.0
  0
VERTEX
  5
4B2
330
4A9
100
AcDbEntity
  8
Visible (ISO)
100
AcDbVertex
100
AcDb2dVertex
 10
133.2218324684953
 20
169.0956603161291
 30
0.0
  0
VERTEX
  5
4B3
330
4A9
100
AcDbEntity
  8
Visible (ISO)
100
AcDbVertex
100
AcDb2dVertex
 10
132.9310237908219
 20
169.3593195108014
 30
0.0
  0
VERTEX
  5
4B4
330
4A9
100
AcDbEntity
  8
Visible (ISO)
100
AcDbVertex
100
AcDb2dVertex
 10
132.6673650288438
 20
169.6501280241668
 30
0.0
  0
VERTEX
  5
4B5
330
4A9
100
AcDbEntity
  8
Visible (ISO)
100
AcDbVertex
100
AcDb2dVertex
 10
132.4335181259965
 20
169.9654032002701
 30
0.0
  0
VERTEX
  5
4B6
330
4A9
100
AcDbEntity
  8
Visible (ISO)
100
AcDbVertex
100
AcDb2dVertex
 10
132.231782033429
 20
170.30213306624
 30
0.0
  0
VERTEX
  5
4B7
330
4A9
100
AcDbEntity
  8
Visible (ISO)
100
AcDbVertex
100
AcDb2dVertex
 10
132.0639127039765
 20
170.6569663523071
 30
0.0
  0
VERTEX
  5
4B8
330
4A9
100
AcDbEntity
  8
Visible (ISO)
100
AcDbVertex
100
AcDb2dVertex
 10
131.9316237711762
 20
171.0265371842995
 30
0.0
  0
VERTEX
  5
4B9
330
4A9
100
AcDbEntity
  8
Visible (ISO)
100
AcDbVertex
100
AcDb2dVertex
 10
131.83632607697
 20
171.4073282922526
 30
0.0
  0
VERTEX
  5
4BA
330
4A9
100
AcDbEntity
  8
Visible (ISO)
100
AcDbVertex
100
AcDb2dVertex
 10
131.7787146115159
 20
171.7956173655988
 30
0.0
  0
VERTEX
  5
4BB
330
4A9
100
AcDbEntity
  8
Visible (ISO)
100
AcDbVertex
100
AcDb2dVertex
 10
131.7593794607972
 20
172.1876749424783
 30
0.0
  0
SEQEND
  5
4AC
330
4A9
100
AcDbEntity
  8
Visible (ISO)
  0
POLYLINE
  5
4BC
330
75
100
AcDbEntity
  8
Visible (ISO)
100
AcDb2dPolyline
 66
     1
 10
0.0
 20
0.0
 30
0.0
 70
   128
  0
VERTEX
  5
4BD
330
4BC
100
AcDbEntity
  8
Visible (ISO)
100
AcDbVertex
100
AcDb2dVertex
 10
135.5593794131135
 20
166.1910093522573
 30
0.0
  0
VERTEX
  5
4BE
330
4BC
100
AcDbEntity
  8
Visible (ISO)
100
AcDbVertex
100
AcDb2dVertex
 10
134.9849754118775
 20
166.2379394401985
 30
0.0
  0
VERTEX
  5
4C0
330
4BC
100
AcDbEntity
  8
Visible (ISO)
100
AcDbVertex
100
AcDb2dVertex
 10
134.4177040004586
 20
166.3396807667181
 30
0.0
  0
VERTEX
  5
4C1
330
4BC
100
AcDbEntity
  8
Visible (ISO)
100
AcDbVertex
100
AcDb2dVertex
 10
133.862798466668
 20
166.4953148981457
 30
0.0
  0
VERTEX
  5
4C2
330
4BC
100
AcDbEntity
  8
Visible (ISO)
100
AcDbVertex
100
AcDb2dVertex
 10
133.3254563355302
 20
166.7036442281984
 30
0.0
  0
VERTEX
  5
4C3
330
4BC
100
AcDbEntity
  8
Visible (ISO)
100
AcDbVertex
100
AcDb2dVertex
 10
132.8105264448975
 20
166.9624765539979
 30
0.0
  0
VERTEX
  5
4C4
330
4BC
100
AcDbEntity
  8
Visible (ISO)
100
AcDbVertex
100
AcDb2dVertex
 10
132.3227399134492
 20
167.2694010353859
 30
0.0
  0
VERTEX
  5
4C5
330
4BC
100
AcDbEntity
  8
Visible (ISO)
100
AcDbVertex
100
AcDb2dVertex
 10
131.8667733216142
 20
167.6218666489025
 30
0.0
  0
VERTEX
  5
4C6
330
4BC
100
AcDbEntity
  8
Visible (ISO)
100
AcDbVertex
100
AcDb2dVertex
 10
131.4467131638383
 20
168.0164490153262
 30
0.0
  0
VERTEX
  5
4C7
330
4BC
100
AcDbEntity
  8
Visible (ISO)
100
AcDbVertex
100
AcDb2dVertex
 10
131.0663181090211
 20
168.4493934519504
 30
0.0
  0
VERTEX
  5
4C8
330
4BC
100
AcDbEntity
  8
Visible (ISO)
100
AcDbVertex
100
AcDb2dVertex
 10
130.7293182158326
 20
168.9169060487628
 30
0.0
  0
VERTEX
  5
4C9
330
4BC
100
AcDbEntity
  8
Visible (ISO)
100
AcDbVertex
100
AcDb2dVertex
 10
130.4388063692902
 20
169.4146460970278
 30
0.0
  0
VERTEX
  5
4CA
330
4BC
100
AcDbEntity
  8
Visible (ISO)
100
AcDbVertex
100
AcDb2dVertex
 10
130.1972233795976
 20
169.9378881413066
 30
0.0
  0
VERTEX
  5
4CB
330
4BC
100
AcDbEntity
  8
Visible (ISO)
100
AcDbVertex
100
AcDb2dVertex
 10
130.0069754862641
 20
170.4818952510013
 30
0.0
  0
VERTEX
  5
4CC
330
4BC
100
AcDbEntity
  8
Visible (ISO)
100
AcDbVertex
100
AcDb2dVertex
 10
129.8699759983872
 20
171.0416898430346
 30
0.0
  0
VERTEX
  5
4CD
330
4BC
100
AcDbEntity
  8
Visible (ISO)
100
AcDbVertex
100
AcDb2dVertex
 10
129.7871672654008
 20
171.6120311779339
 30
0.0
  0
VERTEX
  5
4CE
330
4BC
100
AcDbEntity
  8
Visible (ISO)
100
AcDbVertex
100
AcDb2dVertex
 10
129.7593795800065
 20
172.1876749424783
 30
0.0
  0
SEQEND
  5
4BF
330
4BC
100
AcDbEntity
  8
Visible (ISO)
  0
LINE
  5
4CF
330
75
100
AcDbEntity
  8
Visible (ISO)
100
AcDbLine
 10
138.5593795323228
 20
166.1876751183337
 30
0.0
 11
136.5593795323228
 21
166.1876751183337
 31
0.0
  0
LINE
  5
4D0
330
75
100
AcDbEntity
  8
Visible (ISO)
100
AcDbLine
 10
142.2593795323228
 20
168.1876751183337
 30
0.0
 11
140.5593795323228
 21
168.1876751183337
 31
0.0
  0
LINE
  5
4D1
330
75
100
AcDbEntity
  8
Visible (ISO)
100
AcDbLine
 10
138.9593795323228
 20
168.1876751183337
 30
0.0
 11
135.7593795323228
 21
168.1876751183337
 31
0.0
  0
POLYLINE
  5
4D2
330
75
100
AcDbEntity
  8
Visible (ISO)
100
AcDb2dPolyline
 66
     1
 10
0.0
 20
0.0
 30
0.0
 70
   128
  0
VERTEX
  5
4D3
330
4D2
100
AcDbEntity
  8
Visible (ISO)
100
AcDbVertex
100
AcDb2dVertex
 10
142.2593795800065
 20
168.1876750938788
 30
0.0
  0
VERTEX
  5
4D4
330
4D2
100
AcDbEntity
  8
Visible (ISO)
100
AcDbVertex
100
AcDb2dVertex
 10
142.8185531043862
 20
168.1876712889543
 30
0.0
  0
VERTEX
  5
4D6
330
4D2
100
AcDbEntity
  8
Visible (ISO)
100
AcDbVertex
100
AcDb2dVertex
 10
143.3778559708451
 20
168.1876599361727
 30
0.0
  0
VERTEX
  5
4D7
330
4D2
100
AcDbEntity
  8
Visible (ISO)
100
AcDbVertex
100
AcDb2dVertex
 10
143.9351880097245
 20
168.187641125992
 30
0.0
  0
VERTEX
  5
4D8
330
4D2
100
AcDbEntity
  8
Visible (ISO)
100
AcDbVertex
100
AcDb2dVertex
 10
144.4884490513657
 20
168.1876149507678
 30
0.0
  0
VERTEX
  5
4D9
330
4D2
100
AcDbEntity
  8
Visible (ISO)
100
AcDbVertex
100
AcDb2dVertex
 10
145.0355398201797
 20
168.1875815022232
 30
0.0
  0
VERTEX
  5
4DA
330
4D2
100
AcDbEntity
  8
Visible (ISO)
100
AcDbVertex
100
AcDb2dVertex
 10
145.5743604445312
 20
168.187540870816
 30
0.0
  0
VERTEX
  5
4DB
330
4D2
100
AcDbEntity
  8
Visible (ISO)
100
AcDbVertex
100
AcDb2dVertex
 10
146.1034392857405
 20
168.1874930989286
 30
0.0
  0
VERTEX
  5
4DC
330
4D2
100
AcDbEntity
  8
Visible (ISO)
100
AcDbVertex
100
AcDb2dVertex
 10
146.6239308857771
 20
168.1874380942053
 30
0.0
  0
VERTEX
  5
4DD
330
4D2
100
AcDbEntity
  8
Visible (ISO)
100
AcDbVertex
100
AcDb2dVertex
 10
147.1343856596799
 20
168.1873760793118
 30
0.0
  0
VERTEX
  5
4DE
330
4D2
100
AcDbEntity
  8
Visible (ISO)
100
AcDbVertex
100
AcDb2dVertex
 10
147.6329218888135
 20
168.1873073173983
 30
0.0
  0
VERTEX
  5
4DF
330
4D2
100
AcDbEntity
  8
Visible (ISO)
100
AcDbVertex
100
AcDb2dVertex
 10
148.1176578545421
 20
168.1872320722476
 30
0.0
  0
VERTEX
  5
4E0
330
4D2
100
AcDbEntity
  8
Visible (ISO)
100
AcDbVertex
100
AcDb2dVertex
 10
148.5867130303233
 20
168.1871506070099
 30
0.0
  0
VERTEX
  5
4E1
330
4D2
100
AcDbEntity
  8
Visible (ISO)
100
AcDbVertex
100
AcDb2dVertex
 10
149.0382802033273
 20
168.1870631706026
 30
0.0
  0
VERTEX
  5
4E2
330
4D2
100
AcDbEntity
  8
Visible (ISO)
100
AcDbVertex
100
AcDb2dVertex
 10
149.4729184651223
 20
168.1869696042499
 30
0.0
  0
VERTEX
  5
4E3
330
4D2
100
AcDbEntity
  8
Visible (ISO)
100
AcDbVertex
100
AcDb2dVertex
 10
149.8902225041236
 20
168.1868700819092
 30
0.0
  0
VERTEX
  5
4E4
330
4D2
100
AcDbEntity
  8
Visible (ISO)
100
AcDbVertex
100
AcDb2dVertex
 10
150.2887188935125
 20
168.1867650109575
 30
0.0
  0
VERTEX
  5
4E5
330
4D2
100
AcDbEntity
  8
Visible (ISO)
100
AcDbVertex
100
AcDb2dVertex
 10
150.6669353985631
 20
168.1866547987715
 30
0.0
  0
VERTEX
  5
4E6
330
4D2
100
AcDbEntity
  8
Visible (ISO)
100
AcDbVertex
100
AcDb2dVertex
 10
151.0233997845493
 20
168.1865398520954
 30
0.0
  0
VERTEX
  5
4E7
330
4D2
100
AcDbEntity
  8
Visible (ISO)
100
AcDbVertex
100
AcDb2dVertex
 10
151.3566386246523
 20
168.1864205038002
 30
0.0
  0
VERTEX
  5
4E8
330
4D2
100
AcDbEntity
  8
Visible (ISO)
100
AcDbVertex
100
AcDb2dVertex
 10
151.6661643528779
 20
168.1862969652059
 30
0.0
  0
VERTEX
  5
4E9
330
4D2
100
AcDbEntity
  8
Visible (ISO)
100
AcDbVertex
100
AcDb2dVertex
 10
151.952466919406
 20
168.1861690549019
 30
0.0
  0
VERTEX
  5
4EA
330
4D2
100
AcDbEntity
  8
Visible (ISO)
100
AcDbVertex
100
AcDb2dVertex
 10
152.2146617913084
 20
168.1860372738858
 30
0.0
  0
VERTEX
  5
4EB
330
4D2
100
AcDbEntity
  8
Visible (ISO)
100
AcDbVertex
100
AcDb2dVertex
 10
152.4518405937985
 20
168.1859020565566
 30
0.0
  0
VERTEX
  5
4EC
330
4D2
100
AcDbEntity
  8
Visible (ISO)
100
AcDbVertex
100
AcDb2dVertex
 10
152.6630925679041
 20
168.1857639875897
 30
0.0
  0
VERTEX
  5
4ED
330
4D2
100
AcDbEntity
  8
Visible (ISO)
100
AcDbVertex
100
AcDb2dVertex
 10
152.8475093388391
 20
168.1856235762063
 30
0.0
  0
VERTEX
  5
4EE
330
4D2
100
AcDbEntity
  8
Visible (ISO)
100
AcDbVertex
100
AcDb2dVertex
 10
153.0043828034232
 20
168.1854811508492
 30
0.0
  0
VERTEX
  5
4EF
330
4D2
100
AcDbEntity
  8
Visible (ISO)
100
AcDbVertex
100
AcDb2dVertex
 10
153.1341552281209
 20
168.1853367205532
 30
0.0
  0
VERTEX
  5
4F0
330
4D2
100
AcDbEntity
  8
Visible (ISO)
100
AcDbVertex
100
AcDb2dVertex
 10
153.2366954827137
 20
168.1851902217601
 30
0.0
  0
VERTEX
  5
4F1
330
4D2
100
AcDbEntity
  8
Visible (ISO)
100
AcDbVertex
100
AcDb2dVertex
 10
153.3116817021197
 20
168.1850425476062
 30
0.0
  0
VERTEX
  5
4F2
330
4D2
100
AcDbEntity
  8
Visible (ISO)
100
AcDbVertex
100
AcDb2dVertex
 10
153.3601820015732
 20
168.1848873955588
 30
0.0
  0
VERTEX
  5
4F3
330
4D2
100
AcDbEntity
  8
Visible (ISO)
100
AcDbVertex
100
AcDb2dVertex
 10
153.3757805371108
 20
168.1848071618103
 30
0.0
  0
VERTEX
  5
4F4
330
4D2
100
AcDbEntity
  8
Visible (ISO)
100
AcDbVertex
100
AcDb2dVertex
 10
153.4072577500166
 20
168.1841986090071
 30
0.0
  0
VERTEX
  5
4F5
330
4D2
100
AcDbEntity
  8
Visible (ISO)
100
AcDbVertex
100
AcDb2dVertex
 10
153.4523450875105
 20
168.1816828075145
 30
0.0
  0
VERTEX
  5
4F6
330
4D2
100
AcDbEntity
  8
Visible (ISO)
100
AcDbVertex
100
AcDb2dVertex
 10
153.5192906403364
 20
168.1741482985762
 30
0.0
  0
VERTEX
  5
4F7
330
4D2
100
AcDbEntity
  8
Visible (ISO)
100
AcDbVertex
100
AcDb2dVertex
 10
153.6557805085005
 20
168.1443175220901
 30
0.0
  0
VERTEX
  5
4F8
330
4D2
100
AcDbEntity
  8
Visible (ISO)
100
AcDbVertex
100
AcDb2dVertex
 10
153.9097201371016
 20
168.029292154177
 30
0.0
  0
VERTEX
  5
4F9
330
4D2
100
AcDbEntity
  8
Visible (ISO)
100
AcDbVertex
100
AcDb2dVertex
 10
154.1225444817366
 20
167.8481945957396
 30
0.0
  0
VERTEX
  5
4FA
330
4D2
100
AcDbEntity
  8
Visible (ISO)
100
AcDbVertex
100
AcDb2dVertex
 10
154.2769801163496
 20
167.6151944952623
 30
0.0
  0
VERTEX
  5
4FB
330
4D2
100
AcDbEntity
  8
Visible (ISO)
100
AcDbVertex
100
AcDb2dVertex
 10
154.3608796143355
 20
167.348461035957
 30
0.0
  0
VERTEX
  5
4FC
330
4D2
100
AcDbEntity
  8
Visible (ISO)
100
AcDbVertex
100
AcDb2dVertex
 10
154.3676316284956
 20
167.0690061696429
 30
0.0
  0
VERTEX
  5
4FD
330
4D2
100
AcDbEntity
  8
Visible (ISO)
100
AcDbVertex
100
AcDb2dVertex
 10
154.2967962765517
 20
166.7986833719637
 30
0.0
  0
VERTEX
  5
4FE
330
4D2
100
AcDbEntity
  8
Visible (ISO)
100
AcDbVertex
100
AcDb2dVertex
 10
154.1539668583693
 20
166.5585576305698
 30
0.0
  0
VERTEX
  5
4FF
330
4D2
100
AcDbEntity
  8
Visible (ISO)
100
AcDbVertex
100
AcDb2dVertex
 10
153.9503073239149
 20
166.3673225742839
 30
0.0
  0
VERTEX
  5
500
330
4D2
100
AcDbEntity
  8
Visible (ISO)
100
AcDbVertex
100
AcDb2dVertex
 10
153.7019264244856
 20
166.2398948865862
 30
0.0
  0
VERTEX
  5
501
330
4D2
100
AcDbEntity
  8
Visible (ISO)
100
AcDbVertex
100
AcDb2dVertex
 10
153.5670959496321
 20
166.2034951065402
 30
0.0
  0
VERTEX
  5
502
330
4D2
100
AcDbEntity
  8
Visible (ISO)
100
AcDbVertex
100
AcDb2dVertex
 10
153.4345089936079
 20
166.186529146888
 30
0.0
  0
VERTEX
  5
503
330
4D2
100
AcDbEntity
  8
Visible (ISO)
100
AcDbVertex
100
AcDb2dVertex
 10
153.400909855348
 20
166.1850634061694
 30
0.0
  0
VERTEX
  5
504
330
4D2
100
AcDbEntity
  8
Visible (ISO)
100
AcDbVertex
100
AcDb2dVertex
 10
153.388737394792
 20
166.1847784636265
 30
0.0
  0
VERTEX
  5
505
330
4D2
100
AcDbEntity
  8
Visible (ISO)
100
AcDbVertex
100
AcDb2dVertex
 10
153.3791362786115
 20
166.1846848797552
 30
0.0
  0
VERTEX
  5
506
330
4D2
100
AcDbEntity
  8
Visible (ISO)
100
AcDbVertex
100
AcDb2dVertex
 10
153.3431839489757
 20
166.1844986529976
 30
0.0
  0
VERTEX
  5
507
330
4D2
100
AcDbEntity
  8
Visible (ISO)
100
AcDbVertex
100
AcDb2dVertex
 10
153.2840275311289
 20
166.1843486950838
 30
0.0
  0
VERTEX
  5
508
330
4D2
100
AcDbEntity
  8
Visible (ISO)
100
AcDbVertex
100
AcDb2dVertex
 10
153.1974756264503
 20
166.1842007748747
 30
0.0
  0
VERTEX
  5
509
330
4D2
100
AcDbEntity
  8
Visible (ISO)
100
AcDbVertex
100
AcDb2dVertex
 10
153.0836474442297
 20
166.1840552427749
 30
0.0
  0
VERTEX
  5
50A
330
4D2
100
AcDbEntity
  8
Visible (ISO)
100
AcDbVertex
100
AcDb2dVertex
 10
152.9427122616582
 20
166.1839117564761
 30
0.0
  0
VERTEX
  5
50B
330
4D2
100
AcDbEntity
  8
Visible (ISO)
100
AcDbVertex
100
AcDb2dVertex
 10
152.7743434452823
 20
166.1837701743588
 30
0.0
  0
VERTEX
  5
50C
330
4D2
100
AcDbEntity
  8
Visible (ISO)
100
AcDbVertex
100
AcDb2dVertex
 10
152.5786041760255
 20
166.1836305614198
 30
0.0
  0
VERTEX
  5
50D
330
4D2
100
AcDbEntity
  8
Visible (ISO)
100
AcDbVertex
100
AcDb2dVertex
 10
152.3564040207672
 20
166.1834936497651
 30
0.0
  0
VERTEX
  5
50E
330
4D2
100
AcDbEntity
  8
Visible (ISO)
100
AcDbVertex
100
AcDb2dVertex
 10
152.1086525463866
 20
166.1833597255724
 30
0.0
  0
VERTEX
  5
50F
330
4D2
100
AcDbEntity
  8
Visible (ISO)
100
AcDbVertex
100
AcDb2dVertex
 10
151.83625812767
 20
166.1832294472327
 30
0.0
  0
VERTEX
  5
510
330
4D2
100
AcDbEntity
  8
Visible (ISO)
100
AcDbVertex
100
AcDb2dVertex
 10
151.5401339077754
 20
166.1831032499355
 30
0.0
  0
VERTEX
  5
511
330
4D2
100
AcDbEntity
  8
Visible (ISO)
100
AcDbVertex
100
AcDb2dVertex
 10
151.2209236168665
 20
166.1829815350482
 30
0.0
  0
VERTEX
  5
512
330
4D2
100
AcDbEntity
  8
Visible (ISO)
100
AcDbVertex
100
AcDb2dVertex
 10
150.8779346489708
 20
166.1828639624635
 30
0.0
  0
VERTEX
  5
513
330
4D2
100
AcDbEntity
  8
Visible (ISO)
100
AcDbVertex
100
AcDb2dVertex
 10
150.5122816109458
 20
166.1827509521714
 30
0.0
  0
VERTEX
  5
514
330
4D2
100
AcDbEntity
  8
Visible (ISO)
100
AcDbVertex
100
AcDb2dVertex
 10
150.1254415058889
 20
166.1826428351451
 30
0.0
  0
VERTEX
  5
515
330
4D2
100
AcDbEntity
  8
Visible (ISO)
100
AcDbVertex
100
AcDb2dVertex
 10
149.7188937210835
 20
166.1825400168637
 30
0.0
  0
VERTEX
  5
516
330
4D2
100
AcDbEntity
  8
Visible (ISO)
100
AcDbVertex
100
AcDb2dVertex
 10
149.2941200279987
 20
166.1824429027272
 30
0.0
  0
VERTEX
  5
517
330
4D2
100
AcDbEntity
  8
Visible (ISO)
100
AcDbVertex
100
AcDb2dVertex
 10
148.8525700115954
 20
166.1823518927588
 30
0.0
  0
VERTEX
  5
518
330
4D2
100
AcDbEntity
  8
Visible (ISO)
100
AcDbVertex
100
AcDb2dVertex
 10
148.3936780237947
 20
166.1822669338223
 30
0.0
  0
VERTEX
  5
519
330
4D2
100
AcDbEntity
  8
Visible (ISO)
100
AcDbVertex
100
AcDb2dVertex
 10
147.9179429554734
 20
166.1821880376598
 30
0.0
  0
VERTEX
  5
51A
330
4D2
100
AcDbEntity
  8
Visible (ISO)
100
AcDbVertex
100
AcDb2dVertex
 10
147.4272506975921
 20
166.1821154654845
 30
0.0
  0
VERTEX
  5
51B
330
4D2
100
AcDbEntity
  8
Visible (ISO)
100
AcDbVertex
100
AcDb2dVertex
 10
146.9234865450652
 20
166.1820494787265
 30
0.0
  0
VERTEX
  5
51C
330
4D2
100
AcDbEntity
  8
Visible (ISO)
100
AcDbVertex
100
AcDb2dVertex
 10
146.4085357928068
 20
166.1819903386386
 30
0.0
  0
VERTEX
  5
51D
330
4D2
100
AcDbEntity
  8
Visible (ISO)
100
AcDbVertex
100
AcDb2dVertex
 10
145.8842849278242
 20
166.1819383065818
 30
0.0
  0
VERTEX
  5
51E
330
4D2
100
AcDbEntity
  8
Visible (ISO)
100
AcDbVertex
100
AcDb2dVertex
 10
145.3513556265622
 20
166.1818935239363
 30
0.0
  0
VERTEX
  5
51F
330
4D2
100
AcDbEntity
  8
Visible (ISO)
100
AcDbVertex
100
AcDb2dVertex
 10
144.8089938902645
 20
166.1818558835006
 30
0.0
  0
VERTEX
  5
520
330
4D2
100
AcDbEntity
  8
Visible (ISO)
100
AcDbVertex
100
AcDb2dVertex
 10
144.2592191242962
 20
166.1818254387816
 30
0.0
  0
SEQEND
  5
4D5
330
4D2
100
AcDbEntity
  8
Visible (ISO)
  0
LINE
  5
521
330
75
100
AcDbEntity
  8
Visible (ISO)
100
AcDbLine
 10
143.2593249821453
 20
166.1817891921149
 30
0.0
 11
142.2593795799999
 21
166.1817770745924
 31
0.0
  0
POLYLINE
  5
522
330
75
100
AcDbEntity
  8
Visible (ISO)
100
AcDb2dPolyline
 66
     1
 10
0.0
 20
0.0
 30
0.0
 70
   128
  0
VERTEX
  5
523
330
522
100
AcDbEntity
  8
Visible (ISO)
100
AcDbVertex
100
AcDb2dVertex
 10
142.2593795799999
 20
168.1817770257779
 30
0.0
  0
VERTEX
  5
524
330
522
100
AcDbEntity
  8
Visible (ISO)
100
AcDbVertex
100
AcDb2dVertex
 10
142.7936729335575
 20
168.1817805006279
 30
0.0
  0
VERTEX
  5
526
330
522
100
AcDbEntity
  8
Visible (ISO)
100
AcDbVertex
100
AcDb2dVertex
 10
143.3281692409305
 20
168.181790871926
 30
0.0
  0
VERTEX
  5
527
330
522
100
AcDbEntity
  8
Visible (ISO)
100
AcDbVertex
100
AcDb2dVertex
 10
143.8610362553387
 20
168.1818080597913
 30
0.0
  0
VERTEX
  5
528
330
522
100
AcDbEntity
  8
Visible (ISO)
100
AcDbVertex
100
AcDb2dVertex
 10
144.390441133955
 20
168.1818319843467
 30
0.0
  0
VERTEX
  5
529
330
522
100
AcDbEntity
  8
Visible (ISO)
100
AcDbVertex
100
AcDb2dVertex
 10
144.9145519280224
 20
168.1818625657113
 30
0.0
  0
VERTEX
  5
52A
330
522
100
AcDbEntity
  8
Visible (ISO)
100
AcDbVertex
100
AcDb2dVertex
 10
145.4315363907605
 20
168.181899724008
 30
0.0
  0
VERTEX
  5
52B
330
522
100
AcDbEntity
  8
Visible (ISO)
100
AcDbVertex
100
AcDb2dVertex
 10
145.9396767163068
 20
168.1819433890854
 30
0.0
  0
VERTEX
  5
52C
330
522
100
AcDbEntity
  8
Visible (ISO)
100
AcDbVertex
100
AcDb2dVertex
 10
146.4398252510817
 20
168.1819936644187
 30
0.0
  0
VERTEX
  5
52D
330
522
100
AcDbEntity
  8
Visible (ISO)
100
AcDbVertex
100
AcDb2dVertex
 10
146.9314187311919
 20
168.1820504267451
 30
0.0
  0
VERTEX
  5
52E
330
522
100
AcDbEntity
  8
Visible (ISO)
100
AcDbVertex
100
AcDb2dVertex
 10
147.4128138565811
 20
168.1821134461639
 30
0.0
  0
VERTEX
  5
52F
330
522
100
AcDbEntity
  8
Visible (ISO)
100
AcDbVertex
100
AcDb2dVertex
 10
147.8823697113785
 20
168.1821824928142
 30
0.0
  0
VERTEX
  5
530
330
522
100
AcDbEntity
  8
Visible (ISO)
100
AcDbVertex
100
AcDb2dVertex
 10
148.3384435915742
 20
168.1822573367952
 30
0.0
  0
VERTEX
  5
531
330
522
100
AcDbEntity
  8
Visible (ISO)
100
AcDbVertex
100
AcDb2dVertex
 10
148.7793933892046
 20
168.1823377482064
 30
0.0
  0
VERTEX
  5
532
330
522
100
AcDbEntity
  8
Visible (ISO)
100
AcDbVertex
100
AcDb2dVertex
 10
149.2041909241474
 20
168.1824236120776
 30
0.0
  0
VERTEX
  5
533
330
522
100
AcDbEntity
  8
Visible (ISO)
100
AcDbVertex
100
AcDb2dVertex
 10
149.6137570881642
 20
168.1825150965151
 30
0.0
  0
VERTEX
  5
534
330
522
100
AcDbEntity
  8
Visible (ISO)
100
AcDbVertex
100
AcDb2dVertex
 10
150.0070416474142
 20
168.1826118957095
 30
0.0
  0
VERTEX
  5
535
330
522
100
AcDbEntity
  8
Visible (ISO)
100
AcDbVertex
100
AcDb2dVertex
 10
150.3827595257559
 20
168.1827136542735
 30
0.0
  0
VERTEX
  5
536
330
522
100
AcDbEntity
  8
Visible (ISO)
100
AcDbVertex
100
AcDb2dVertex
 10
150.7396232628624
 20
168.1828200171758
 30
0.0
  0
VERTEX
  5
537
330
522
100
AcDbEntity
  8
Visible (ISO)
100
AcDbVertex
100
AcDb2dVertex
 10
151.0763465904992
 20
168.1829306290687
 30
0.0
  0
VERTEX
  5
538
330
522
100
AcDbEntity
  8
Visible (ISO)
100
AcDbVertex
100
AcDb2dVertex
 10
151.3916408562464
 20
168.1830450603359
 30
0.0
  0
VERTEX
  5
539
330
522
100
AcDbEntity
  8
Visible (ISO)
100
AcDbVertex
100
AcDb2dVertex
 10
151.6853820824429
 20
168.1831635062458
 30
0.0
  0
VERTEX
  5
53A
330
522
100
AcDbEntity
  8
Visible (ISO)
100
AcDbVertex
100
AcDb2dVertex
 10
151.9578742527769
 20
168.1832859218655
 30
0.0
  0
VERTEX
  5
53B
330
522
100
AcDbEntity
  8
Visible (ISO)
100
AcDbVertex
100
AcDb2dVertex
 10
152.208312704544
 20
168.183411863287
 30
0.0
  0
VERTEX
  5
53C
330
522
100
AcDbEntity
  8
Visible (ISO)
100
AcDbVertex
100
AcDb2dVertex
 10
152.4358903908539
 20
168.1835408113061
 30
0.0
  0
VERTEX
  5
53D
330
522
100
AcDbEntity
  8
Visible (ISO)
100
AcDbVertex
100
AcDb2dVertex
 10
152.6398038410952
 20
168.183672395888
 30
0.0
  0
VERTEX
  5
53E
330
522
100
AcDbEntity
  8
Visible (ISO)
100
AcDbVertex
100
AcDb2dVertex
 10
152.8192436241916
 20
168.1838061726504
 30
0.0
  0
VERTEX
  5
53F
330
522
100
AcDbEntity
  8
Visible (ISO)
100
AcDbVertex
100
AcDb2dVertex
 10
152.9734873318486
 20
168.1839416641389
 30
0.0
  0
VERTEX
  5
540
330
522
100
AcDbEntity
  8
Visible (ISO)
100
AcDbVertex
100
AcDb2dVertex
 10
153.1028461003119
 20
168.1840790911619
 30
0.0
  0
VERTEX
  5
541
330
522
100
AcDbEntity
  8
Visible (ISO)
100
AcDbVertex
100
AcDb2dVertex
 10
153.2070958161171
 20
168.1842176143111
 30
0.0
  0
VERTEX
  5
542
330
522
100
AcDbEntity
  8
Visible (ISO)
100
AcDbVertex
100
AcDb2dVertex
 10
153.2857226872263
 20
168.184356605401
 30
0.0
  0
VERTEX
  5
543
330
522
100
AcDbEntity
  8
Visible (ISO)
100
AcDbVertex
100
AcDb2dVertex
 10
153.3383249783336
 20
168.184495514961
 30
0.0
  0
VERTEX
  5
544
330
522
100
AcDbEntity
  8
Visible (ISO)
100
AcDbVertex
100
AcDb2dVertex
 10
153.3605610871137
 20
168.1845987579222
 30
0.0
  0
SEQEND
  5
525
330
522
100
AcDbEntity
  8
Visible (ISO)
  0
LINE
  5
545
330
75
100
AcDbEntity
  8
Visible (ISO)
100
AcDbLine
 10
138.5593795323162
 20
168.1817770501851
 30
0.0
 11
138.9593795323162
 21
168.1817770501851
 31
0.0
  0
LINE
  5
546
330
75
100
AcDbEntity
  8
Visible (ISO)
100
AcDbLine
 10
140.5593795323162
 20
168.1817770501851
 30
0.0
 11
142.2593795323162
 21
168.1817770501851
 31
0.0
  0
LINE
  5
547
330
75
100
AcDbEntity
  8
Visible (ISO)
100
AcDbLine
 10
138.5593795323162
 20
166.1817770501852
 30
0.0
 11
138.9593795323162
 21
166.1817770501852
 31
0.0
  0
LINE
  5
548
330
75
100
AcDbEntity
  8
Visible (ISO)
100
AcDbLine
 10
140.5593795323162
 20
166.1817770501852
 30
0.0
 11
142.2593795323162
 21
166.1817770501852
 31
0.0
  0
ELLIPSE
  5
549
330
75
100
AcDbEntity
  8
Visible (ISO)
100
AcDbEllipse
 10
130.7410844317285
 20
185.4569920010755
 30
0.0
 11
-0.5999999999999996
 21
0.0
 31
0.0
210
0.0
220
0.0
230
1.0
 40
0.00026532020462
 41
0.0000084545779963
 42
1.570800554059005
  0
LINE
  5
54A
330
75
100
AcDbEntity
  8
Visible Narrow (ISO)
100
AcDbLine
 10
130.7410844317284
 20
185.4568328089527
 30
0.0
 11
130.7410844317284
 21
188.0568327174395
 31
0.0
  0
ELLIPSE
  5
54B
330
75
100
AcDbEntity
  8
Visible (ISO)
100
AcDbEllipse
 10
130.7410844317285
 20
188.0569919095623
 30
0.0
 11
-0.6000000000000004
 21
0.0
 31
0.0
210
0.0
220
0.0
230
1.0
 40
0.00026532020462
 41
0.0000042157644389
 42
1.570796326794305
  0
LINE
  5
54C
330
75
100
AcDbEntity
  8
Visible (ISO)
100
AcDbLine
 10
130.1410844317285
 20
188.0569919095623
 30
0.0
 11
130.1410844317285
 21
185.4569920010755
 31
0.0
  0
ELLIPSE
  5
54D
330
75
100
AcDbEntity
  8
Visible (ISO)
100
AcDbEllipse
 10
131.8410844317288
 20
185.4572838533006
 30
0.0
 11
1.7
 21
0.0
 31
0.0
210
0.0
220
0.0
230
1.0
 40
0.00026532020462
 41
4.712393200884111
 42
6.283193748140223
  0
LINE
  5
54E
330
75
100
AcDbEntity
  8
Visible (ISO)
100
AcDbLine
 10
130.7410844317284
 20
185.4568328089527
 30
0.0
 11
131.8410844317283
 21
185.4568328089527
 31
0.0
  0
LINE
  5
54F
330
75
100
AcDbEntity
  8
Visible (ISO)
100
AcDbLine
 10
130.1410844317285
 20
194.8570049362301
 30
0.0
 11
130.1410844317285
 21
188.0570051755725
 31
0.0
  0
LINE
  5
550
330
75
100
AcDbEntity
  8
Visible (ISO)
100
AcDbLine
 10
130.141084431728
 20
197.0662315915379
 30
0.0
 11
130.1410844317285
 21
194.8570049362301
 31
0.0
  0
LINE
  5
551
330
75
100
AcDbEntity
  8
Visible (ISO)
100
AcDbLine
 10
130.1410844317281
 20
197.0662315915379
 30
0.0
 11
130.1410844317281
 21
204.6565933449784
 31
0.0
  0
LINE
  5
552
330
75
100
AcDbEntity
  8
Visible (ISO)
100
AcDbLine
 10
130.1410844317281
 20
204.6565933449784
 30
0.0
 11
130.1410844317299
 21
204.6581852662061
 31
0.0
  0
LINE
  5
553
330
75
100
AcDbEntity
  8
Visible (ISO)
100
AcDbLine
 10
131.8410844317295
 20
188.0578542002273
 30
0.0
 11
131.7593795323234
 21
188.0578542002273
 31
0.0
  0
ELLIPSE
  5
554
330
75
100
AcDbEntity
  8
Visible (ISO)
100
AcDbEllipse
 10
131.8410844317291
 20
188.057496017951
 30
0.0
 11
1.35
 21
0.0000000000000001
 31
0.0
210
0.0
220
0.0
230
1.0
 40
0.00026532020462
 41
6.059092217738434
 42
7.853981635409898
  0
LINE
  5
555
330
75
100
AcDbEntity
  8
Visible (ISO)
100
AcDbLine
 10
133.5144044847972
 20
188.0574164218897
 30
0.0
 11
133.1573290898378
 21
188.0574164218897
 31
0.0
  0
ELLIPSE
  5
556
330
75
100
AcDbEntity
  8
Visible (ISO)
100
AcDbEllipse
 10
131.8410844317291
 20
188.057496017951
 30
0.0
 11
1.699999999999999
 21
0.0
 31
0.0
210
0.0
220
0.0
230
1.0
 40
0.00026532020462
 41
6.105789776677639
 42
7.853981633973897
  0
LINE
  5
557
330
75
100
AcDbEntity
  8
Visible (ISO)
100
AcDbLine
 10
131.7593795323235
 20
188.0579470622989
 30
0.0
 11
131.8410844317296
 21
188.0579470622989
 31
0.0
  0
LINE
  5
558
330
75
100
AcDbEntity
  8
Visible (ISO)
100
AcDbLine
 10
130.4910844317281
 20
204.6566066109887
 30
0.0
 11
130.4910844317298
 21
204.6581720001959
 31
0.0
  0
LINE
  5
559
330
75
100
AcDbEntity
  8
Visible (ISO)
100
AcDbLine
 10
130.4910844317285
 20
188.0569255795111
 30
0.0
 11
130.4910844317285
 21
190.3569254985571
 31
0.0
  0
ELLIPSE
  5
55A
330
75
100
AcDbEntity
  8
Visible (ISO)
100
AcDbEllipse
 10
130.9910844317286
 20
188.0570582396134
 30
0.0
 11
-0.4999999999999993
 21
0.0
 31
0.0
210
0.0
220
0.0
230
1.0
 40
0.00026532020462
 41
0.0000084598846164
 42
1.570800556687563
  0
LINE
  5
55B
330
75
100
AcDbEntity
  8
Visible (ISO)
100
AcDbLine
 10
130.9910844317284
 20
188.0569255795111
 30
0.0
 11
131.8410844317285
 21
188.0569255795111
 31
0.0
  0
ELLIPSE
  5
55C
330
75
100
AcDbEntity
  8
Visible (ISO)
100
AcDbEllipse
 10
130.9910844317281
 20
204.6566066109887
 30
0.0
 11
-0.5000000000000002
 21
0.0
 31
0.0
210
0.0
220
0.0
230
1.0
 40
0.00026532020462
 41
0.0000083967407873
 42
1.57080052514483
  0
LINE
  5
55D
330
75
100
AcDbEntity
  8
Visible (ISO)
100
AcDbLine
 10
131.8910844317279
 20
204.6564739508863
 30
0.0
 11
130.9910844317279
 21
204.6564739508863
 31
0.0
  0
ELLIPSE
  5
55E
330
75
100
AcDbEntity
  8
Visible (ISO)
100
AcDbEllipse
 10
130.9910844317298
 20
204.6581720001959
 30
0.0
 11
-0.4999999999999988
 21
0.0
 31
0.0
210
0.0
220
0.0
230
1.0
 40
0.00026532020462
 41
4.712388980384121
 42
6.283189544958236
  0
LINE
  5
55F
330
75
100
AcDbEntity
  8
Visible Narrow (ISO)
100
AcDbLine
 10
130.99108443173
 20
204.6564739508863
 30
0.0
 11
130.99108443173
 21
204.6583046602982
 31
0.0
  0
LINE
  5
560
330
75
100
AcDbEntity
  8
Visible (ISO)
100
AcDbLine
 10
133.5144044847972
 20
188.0573633578487
 30
0.0
 11
133.5144044847972
 21
188.0574164218897
 31
0.0
  0
LINE
  5
561
330
75
100
AcDbEntity
  8
Visible (ISO)
100
AcDbLine
 10
133.1573290898378
 20
188.0573633578487
 30
0.0
 11
133.1573290898378
 21
188.0574164218897
 31
0.0
  0
LINE
  5
562
330
75
100
AcDbEntity
  8
Visible Narrow (ISO)
100
AcDbLine
 10
131.8410844317295
 20
188.0569255795111
 30
0.0
 11
131.8410844317295
 21
188.0578542002273
 31
0.0
  0
ELLIPSE
  5
563
330
75
100
AcDbEntity
  8
Visible (ISO)
100
AcDbEllipse
 10
131.8410844317288
 20
188.0572837617874
 30
0.0
 11
1.7
 21
0.0000000000000001
 31
0.0
210
0.0
220
0.0
230
1.0
 40
0.00026532020462
 41
4.712388980627695
 42
6.460584912180664
  0
LINE
  5
564
330
75
100
AcDbEntity
  8
Visible Narrow (ISO)
100
AcDbLine
 10
131.8410844317283
 20
185.4568328089527
 30
0.0
 11
131.8410844317283
 21
188.0568327174395
 31
0.0
  0
LINE
  5
565
330
75
100
AcDbEntity
  8
Visible (ISO)
100
AcDbLine
 10
133.1573290898378
 20
188.0573633578487
 30
0.0
 11
133.5144044847971
 21
188.0573633578487
 31
0.0
  0
LINE
  5
566
330
75
100
AcDbEntity
  8
Visible (ISO)
100
AcDbLine
 10
133.1573290898378
 20
188.0572041657259
 30
0.0
 11
133.1573290898378
 21
188.0573633578487
 31
0.0
  0
ELLIPSE
  5
567
330
75
100
AcDbEntity
  8
Visible (ISO)
100
AcDbEllipse
 10
131.8410844317288
 20
188.0572837617874
 30
0.0
 11
1.349999999999999
 21
0.0
 31
0.0
210
0.0
220
0.0
230
1.0
 40
0.00026532020462
 41
4.712388980384083
 42
6.507282413776027
  0
ELLIPSE
  5
568
330
75
100
AcDbEntity
  8
Visible (ISO)
100
AcDbEllipse
 10
131.1910844317288
 20
194.8572702564348
 30
0.0
 11
1.0
 21
0.0
 31
0.0
210
0.0
220
0.0
230
1.0
 40
0.00026532020462
 41
4.712388980384085
 42
6.575200993997702
  0
LINE
  5
569
330
75
100
AcDbEntity
  8
Visible (ISO)
100
AcDbLine
 10
132.1487510803326
 20
194.857346636675
 30
0.0
 11
132.1487510803326
 21
194.8571938761944
 31
0.0
  0
ELLIPSE
  5
56A
330
75
100
AcDbEntity
  8
Visible (ISO)
100
AcDbEllipse
 10
131.1910844317288
 20
190.3572704148231
 30
0.0
 11
1.300000000000002
 21
0.0
 31
0.0
210
0.0
220
0.0
230
1.0
 40
0.00026532020462
 41
4.712388980384087
 42
6.283189518268216
  0
ELLIPSE
  5
56B
330
75
100
AcDbEntity
  8
Visible (ISO)
100
AcDbEllipse
 10
131.1910844317288
 20
194.8572702564348
 30
0.0
 11
1.300000000000001
 21
0.0000000000000001
 31
0.0
210
0.0
220
0.0
230
1.0
 40
0.00026532020462
 41
4.71238897965861
 42
6.50648208249299
  0
LINE
  5
56C
330
75
100
AcDbEntity
  8
Visible Narrow (ISO)
100
AcDbLine
 10
131.1910844317284
 20
194.8569253401688
 30
0.0
 11
131.1910844317285
 21
190.3569254985571
 31
0.0
  0
LINE
  5
56D
330
75
100
AcDbEntity
  8
Visible (ISO)
100
AcDbLine
 10
132.1487510803326
 20
194.857346636675
 30
0.0
 11
132.4588089324971
 21
194.857346636675
 31
0.0
  0
LINE
  5
56E
330
75
100
AcDbEntity
  8
Visible (ISO)
100
AcDbLine
 10
130.4910844317285
 20
190.3569254985571
 30
0.0
 11
131.1910844317285
 21
190.3569254985571
 31
0.0
  0
LINE
  5
56F
330
75
100
AcDbEntity
  8
Visible (ISO)
100
AcDbLine
 10
132.1487510803327
 20
194.8574326643786
 30
0.0
 11
132.1487510803327
 21
194.857346636675
 31
0.0
  0
ELLIPSE
  5
570
330
75
100
AcDbEntity
  8
Visible (ISO)
100
AcDbEllipse
 10
131.1910844317291
 20
194.8575090446189
 30
0.0
 11
1.0
 21
0.0000000000000001
 31
0.0
210
0.0
220
0.0
230
1.0
 40
0.00026532020462
 41
5.991173476135569
 42
7.853981634884865
  0
LINE
  5
571
330
75
100
AcDbEntity
  8
Visible (ISO)
100
AcDbLine
 10
132.4588089324971
 20
194.8574326643786
 30
0.0
 11
132.4588089324971
 21
194.857346636675
 31
0.0
  0
LINE
  5
572
330
75
100
AcDbEntity
  8
Visible (ISO)
100
AcDbLine
 10
132.4588089324971
 20
194.8574326643786
 30
0.0
 11
132.1487510803327
 21
194.8574326643786
 31
0.0
  0
ELLIPSE
  5
573
330
75
100
AcDbEntity
  8
Visible (ISO)
100
AcDbEllipse
 10
131.1910844317291
 20
194.8575090446189
 30
0.0
 11
1.300000000000001
 21
0.0
 31
0.0
210
0.0
220
0.0
230
1.0
 40
0.00026532020462
 41
6.059892533552244
 42
7.853981633973881
  0
LINE
  5
574
330
75
100
AcDbEntity
  8
Visible (ISO)
100
AcDbLine
 10
131.1910844317279
 20
196.8911466871219
 30
0.0
 11
131.1910844317279
 21
196.9063813615946
 31
0.0
  0
LINE
  5
575
330
75
100
AcDbEntity
  8
Visible (ISO)
100
AcDbLine
 10
131.1910844317284
 20
194.8569253401688
 30
0.0
 11
131.1910844317279
 21
196.8911466871219
 31
0.0
  0
LINE
  5
576
330
75
100
AcDbEntity
  8
Visible (ISO)
100
AcDbLine
 10
130.4910844317279
 20
196.8911466871219
 30
0.0
 11
131.1910844317279
 21
196.8911466871219
 31
0.0
  0
LINE
  5
577
330
75
100
AcDbEntity
  8
Visible Narrow (ISO)
100
AcDbLine
 10
131.89108443173
 20
204.6583046602982
 30
0.0
 11
131.89108443173
 21
204.6577474878685
 31
0.0
  0
LINE
  5
578
330
75
100
AcDbEntity
  8
Visible (ISO)
100
AcDbLine
 10
130.99108443173
 20
204.6583046602982
 30
0.0
 11
131.89108443173
 21
204.6583046602982
 31
0.0
  0
LINE
  5
579
330
75
100
AcDbEntity
  8
Visible (ISO)
100
AcDbLine
 10
130.491084431862
 20
196.9017299655025
 30
0.0
 11
130.4910844317279
 21
196.9064181249385
 31
0.0
  0
LINE
  5
57A
330
75
100
AcDbEntity
  8
Visible (ISO)
100
AcDbLine
 10
130.4910844317279
 20
196.8911466871219
 30
0.0
 11
130.4910844317279
 21
196.9017299655025
 31
0.0
  0
ELLIPSE
  5
57B
330
75
100
AcDbEntity
  8
Visible (ISO)
100
AcDbEllipse
 10
131.8910844317283
 20
196.906752809881
 30
0.0
 11
1.4
 21
0.0
 31
0.0
210
0.0
220
0.0
230
1.0
 40
0.00026532020462
 41
4.712388980384105
 42
6.283189518484856
  0
LINE
  5
57C
330
75
100
AcDbEntity
  8
Visible (ISO)
100
AcDbLine
 10
130.9410844317278
 20
196.9063813615946
 30
0.0
 11
131.8910844317279
 21
196.9063813615946
 31
0.0
  0
ELLIPSE
  5
57D
330
75
100
AcDbEntity
  8
Visible (ISO)
100
AcDbEllipse
 10
130.9410844317281
 20
196.9065936177583
 30
0.0
 11
0.8000000000000046
 21
0.0000000000000001
 31
0.0
210
0.0
220
0.0
230
1.0
 40
0.00026532020462
 41
4.11498163592317
 42
4.712388516475201
  0
ELLIPSE
  5
57E
330
75
100
AcDbEntity
  8
Visible (ISO)
100
AcDbEllipse
 10
131.8910844317283
 20
204.6567525371012
 30
0.0
 11
1.4
 21
0.0
 31
0.0
210
0.0
220
0.0
230
1.0
 40
0.00026532020462
 41
4.712388980384105
 42
7.853981633973899
  0
LINE
  5
57F
330
75
100
AcDbEntity
  8
Visible Narrow (ISO)
100
AcDbLine
 10
131.8910844317279
 20
196.9063813615946
 30
0.0
 11
131.8910844317279
 21
204.6563810888147
 31
0.0
  0
LINE
  5
580
330
75
100
AcDbEntity
  8
Visible (ISO)
100
AcDbLine
 10
131.8910844317286
 20
204.657031123316
 30
0.0
 11
131.8910844317286
 21
204.6564739508863
 31
0.0
  0
LINE
  5
581
330
75
100
AcDbEntity
  8
Visible (ISO)
100
AcDbLine
 10
131.8910844317287
 20
204.6571239853877
 30
0.0
 11
131.8910844317286
 21
204.657031123316
 31
0.0
  0
ELLIPSE
  5
582
330
75
100
AcDbEntity
  8
Visible (ISO)
100
AcDbEllipse
 10
131.8910844317283
 20
204.6567525371012
 30
0.0
 11
1.05
 21
0.0
 31
0.0
210
0.0
220
0.0
230
1.0
 40
0.00026532020462
 41
4.71238898038408
 42
7.853981633973873
  0
ELLIPSE
  5
583
330
75
100
AcDbEntity
  8
Visible (ISO)
100
AcDbEllipse
 10
130.9410844317298
 20
204.6581852662061
 30
0.0
 11
-0.8
 21
0.0
 31
0.0
210
0.0
220
0.0
230
1.0
 40
0.00026532020462
 41
4.712388980384112
 42
6.283189521301173
  0
LINE
  5
584
330
75
100
AcDbEntity
  8
Visible Narrow (ISO)
100
AcDbLine
 10
130.9410844317278
 20
196.9063813615946
 30
0.0
 11
130.9410844317278
 21
204.6563810888147
 31
0.0
  0
ELLIPSE
  5
585
330
75
100
AcDbEntity
  8
Visible (ISO)
100
AcDbEllipse
 10
130.9410844317281
 20
204.6565933449784
 30
0.0
 11
-0.8
 21
0.0
 31
0.0
210
0.0
220
0.0
230
1.0
 40
0.00026532020462
 41
0.0000084282122747
 42
1.570800540916193
  0
POLYLINE
  5
586
330
75
100
AcDbEntity
  8
Visible (ISO)
100
AcDb2dPolyline
 66
     1
 10
0.0
 20
0.0
 30
0.0
 70
   128
  0
VERTEX
  5
587
330
586
100
AcDbEntity
  8
Visible (ISO)
100
AcDbVertex
100
AcDb2dVertex
 10
130.4410819849572
 20
196.8988960910275
 30
0.0
  0
VERTEX
  5
588
330
586
100
AcDbEntity
  8
Visible (ISO)
100
AcDbVertex
100
AcDb2dVertex
 10
130.4209129652581
 20
196.8980791689578
 30
0.0
  0
VERTEX
  5
58A
330
586
100
AcDbEntity
  8
Visible (ISO)
100
AcDbVertex
100
AcDb2dVertex
 10
130.4008488683603
 20
196.8983783290333
 30
0.0
  0
VERTEX
  5
58B
330
586
100
AcDbEntity
  8
Visible (ISO)
100
AcDbVertex
100
AcDb2dVertex
 10
130.3809464676879
 20
196.8997578167712
 30
0.0
  0
VERTEX
  5
58C
330
586
100
AcDbEntity
  8
Visible (ISO)
100
AcDbVertex
100
AcDb2dVertex
 10
130.3612729674779
 20
196.9021842591855
 30
0.0
  0
VERTEX
  5
58D
330
586
100
AcDbEntity
  8
Visible (ISO)
100
AcDbVertex
100
AcDb2dVertex
 10
130.342038306465
 20
196.9055884790711
 30
0.0
  0
VERTEX
  5
58E
330
586
100
AcDbEntity
  8
Visible (ISO)
100
AcDbVertex
100
AcDb2dVertex
 10
130.3233455448053
 20
196.9099072815906
 30
0.0
  0
VERTEX
  5
58F
330
586
100
AcDbEntity
  8
Visible (ISO)
100
AcDbVertex
100
AcDb2dVertex
 10
130.3052457189761
 20
196.9150810610731
 30
0.0
  0
VERTEX
  5
590
330
586
100
AcDbEntity
  8
Visible (ISO)
100
AcDbVertex
100
AcDb2dVertex
 10
130.2877898282013
 20
196.9210525963499
 30
0.0
  0
VERTEX
  5
591
330
586
100
AcDbEntity
  8
Visible (ISO)
100
AcDbVertex
100
AcDb2dVertex
 10
130.2710289089583
 20
196.9277634738435
 30
0.0
  0
VERTEX
  5
592
330
586
100
AcDbEntity
  8
Visible (ISO)
100
AcDbVertex
100
AcDb2dVertex
 10
130.2550139884107
 20
196.9351540880412
 30
0.0
  0
VERTEX
  5
593
330
586
100
AcDbEntity
  8
Visible (ISO)
100
AcDbVertex
100
AcDb2dVertex
 10
130.2397960844092
 20
196.9431672176165
 30
0.0
  0
VERTEX
  5
594
330
586
100
AcDbEntity
  8
Visible (ISO)
100
AcDbVertex
100
AcDb2dVertex
 10
130.2254334325544
 20
196.9517384849689
 30
0.0
  0
VERTEX
  5
595
330
586
100
AcDbEntity
  8
Visible (ISO)
100
AcDbVertex
100
AcDb2dVertex
 10
130.2121173730694
 20
196.960711643384
 30
0.0
  0
VERTEX
  5
596
330
586
100
AcDbEntity
  8
Visible (ISO)
100
AcDbVertex
100
AcDb2dVertex
 10
130.1999201812424
 20
196.9699853247218
 30
0.0
  0
VERTEX
  5
597
330
586
100
AcDbEntity
  8
Visible (ISO)
100
AcDbVertex
100
AcDb2dVertex
 10
130.1888492098652
 20
196.9794951468749
 30
0.0
  0
VERTEX
  5
598
330
586
100
AcDbEntity
  8
Visible (ISO)
100
AcDbVertex
100
AcDb2dVertex
 10
130.1789118070729
 20
196.9891791120008
 30
0.0
  0
VERTEX
  5
599
330
586
100
AcDbEntity
  8
Visible (ISO)
100
AcDbVertex
100
AcDb2dVertex
 10
130.1701153279856
 20
196.998975222178
 30
0.0
  0
VERTEX
  5
59A
330
586
100
AcDbEntity
  8
Visible (ISO)
100
AcDbVertex
100
AcDb2dVertex
 10
130.1624669600852
 20
197.0088202874709
 30
0.0
  0
VERTEX
  5
59B
330
586
100
AcDbEntity
  8
Visible (ISO)
100
AcDbVertex
100
AcDb2dVertex
 10
130.1559714053866
 20
197.0186666186305
 30
0.0
  0
VERTEX
  5
59C
330
586
100
AcDbEntity
  8
Visible (ISO)
100
AcDbVertex
100
AcDb2dVertex
 10
130.1506364177323
 20
197.0284665241935
 30
0.0
  0
VERTEX
  5
59D
330
586
100
AcDbEntity
  8
Visible (ISO)
100
AcDbVertex
100
AcDb2dVertex
 10
130.1464711118598
 20
197.0381711195761
 30
0.0
  0
VERTEX
  5
59E
330
586
100
AcDbEntity
  8
Visible (ISO)
100
AcDbVertex
100
AcDb2dVertex
 10
130.1434846026524
 20
197.0477327120499
 30
0.0
  0
VERTEX
  5
59F
330
586
100
AcDbEntity
  8
Visible (ISO)
100
AcDbVertex
100
AcDb2dVertex
 10
130.1416860040109
 20
197.0571024168729
 30
0.0
  0
VERTEX
  5
5A0
330
586
100
AcDbEntity
  8
Visible (ISO)
100
AcDbVertex
100
AcDb2dVertex
 10
130.1410844317281
 20
197.066231349382
 30
0.0
  0
SEQEND
  5
589
330
586
100
AcDbEntity
  8
Visible (ISO)
  0
ELLIPSE
  5
5A1
330
75
100
AcDbEntity
  8
Visible (ISO)
100
AcDbEllipse
 10
130.6631873299783
 20
196.8374835476576
 30
0.0
 11
0.4506564841999513
 21
-0.0071463613228913
 31
0.0
210
0.0
220
0.0
230
0.9999999999999998
 40
0.1478070450341106
 41
1.964983557531322
 42
2.088492766451738
  0
ELLIPSE
  5
5A2
330
75
100
AcDbEntity
  8
Visible (ISO)
100
AcDbEllipse
 10
131.8910844317297
 20
204.6580260740833
 30
0.0
 11
1.399999999999999
 21
0.0
 31
0.0
210
0.0
220
0.0
230
1.0
 40
0.00026532020462
 41
4.712388980384105
 42
7.853981633973899
  0
LINE
  5
5A3
330
75
100
AcDbEntity
  8
Visible (ISO)
100
AcDbLine
 10
131.8910844317293
 20
204.6576546257969
 30
0.0
 11
131.8910844317293
 21
204.6571239853877
 31
0.0
  0
ELLIPSE
  5
5A4
330
75
100
AcDbEntity
  8
Visible (ISO)
100
AcDbEllipse
 10
131.8910844317297
 20
204.6580260740833
 30
0.0
 11
1.049999999999999
 21
0.0
 31
0.0
210
0.0
220
0.0
230
1.0
 40
0.00026532020462
 41
4.71238898038408
 42
7.853981633973873
  0
LINE
  5
5A5
330
75
100
AcDbEntity
  8
Visible (ISO)
100
AcDbLine
 10
131.8910844317294
 20
204.6577474878685
 30
0.0
 11
131.8910844317293
 21
204.6576546257969
 31
0.0
  0
LINE
  5
5A6
330
75
100
AcDbEntity
  8
Visible (ISO)
100
AcDbLine
 10
130.7410844317284
 20
188.0568327174394
 30
0.0
 11
131.8410844317283
 21
188.0568327174394
 31
0.0
  0
LINE
  5
5A7
330
75
100
AcDbEntity
  8
Visible (ISO)
100
AcDbLine
 10
130.4410844317285
 20
188.0569255795111
 30
0.0
 11
130.4910844317285
 21
188.0569255795111
 31
0.0
  0
ELLIPSE
  5
5A8
330
75
100
AcDbEntity
  8
Visible (ISO)
100
AcDbEllipse
 10
130.4410844317285
 20
188.0570051755725
 30
0.0
 11
-0.2999999999999999
 21
0.0
 31
0.0
210
0.0
220
0.0
230
1.0
 40
0.00026532020462
 41
0.0000042108358835
 42
1.570796326794305
  0
LINE
  5
5A9
330
75
100
AcDbEntity
  8
Visible Narrow (ISO)
100
AcDbLine
 10
130.4410844317285
 20
194.8569253401688
 30
0.0
 11
131.1910844317284
 21
194.8569253401688
 31
0.0
  0
LINE
  5
5AA
330
75
100
AcDbEntity
  8
Visible Narrow (ISO)
100
AcDbLine
 10
130.4410844317285
 20
188.0569255795111
 30
0.0
 11
130.4410844317285
 21
194.8569253401688
 31
0.0
  0
LINE
  5
5AB
330
75
100
AcDbEntity
  8
Visible Narrow (ISO)
100
AcDbLine
 10
130.4410844317285
 20
194.8569253401688
 30
0.0
 11
130.4410844317279
 21
196.8989018372519
 31
0.0
  0
LINE
  5
5AC
330
75
100
AcDbEntity
  8
Visible (ISO)
100
AcDbLine
 10
130.9410844317278
 20
204.6563810888147
 30
0.0
 11
131.8910844317279
 21
204.6563810888147
 31
0.0
  0
ELLIPSE
  5
5AD
330
75
100
AcDbEntity
  8
Visible Narrow (ISO)
100
AcDbEllipse
 10
130.4410844317285
 20
194.8570049362301
 30
0.0
 11
-0.2999999999999996
 21
0.0
 31
0.0
210
0.0
220
0.0
230
1.0
 40
0.00026532020462
 41
0.000004204264477
 42
1.570796326794305
  0
LINE
  5
5AE
330
75
100
AcDbEntity
  8
Visible (ISO)
100
AcDbLine
 10
130.9410844317301
 20
204.6583975223698
 30
0.0
 11
131.8910844317301
 21
204.6583975223698
 31
0.0
  0
LINE
  5
5AF
330
75
100
AcDbEntity
  8
Visible (ISO)
100
AcDbLine
 10
133.5410844317291
 20
188.0572837617873
 30
0.0
 11
133.5410844317291
 21
188.057496017951
 31
0.0
  0
LINE
  5
5B0
330
75
100
AcDbEntity
  8
Visible (ISO)
100
AcDbLine
 10
133.5410844317288
 20
185.4572838533006
 30
0.0
 11
133.5410844317288
 21
188.0572837617873
 31
0.0
  0
LINE
  5
5B1
330
75
100
AcDbEntity
  8
Visible (ISO)
100
AcDbLine
 10
132.4910844317289
 20
194.8572702564348
 30
0.0
 11
132.4910844317289
 21
190.3572704148231
 31
0.0
  0
LINE
  5
5B2
330
75
100
AcDbEntity
  8
Visible (ISO)
100
AcDbLine
 10
132.4910844317291
 20
194.8575090446189
 30
0.0
 11
132.4910844317291
 21
194.8572702564348
 31
0.0
  0
LINE
  5
5B3
330
75
100
AcDbEntity
  8
Visible (ISO)
100
AcDbLine
 10
133.2910844317283
 20
204.6567525371012
 30
0.0
 11
133.2910844317283
 21
196.906752809881
 31
0.0
  0
LINE
  5
5B4
330
75
100
AcDbEntity
  8
Visible (ISO)
100
AcDbLine
 10
133.2910844317297
 20
204.6580260740833
 30
0.0
 11
133.2910844317297
 21
204.6567525371012
 31
0.0
  0
LINE
  5
5B5
330
75
100
AcDbEntity
  8
Visible Narrow (ISO)
100
AcDbLine
 10
142.3679894590168
 20
168.181785671401
 30
0.0
 11
142.2593796634464
 21
168.1817761346578
 31
0.0
  0
LINE
  5
5B6
330
75
100
AcDbEntity
  8
Visible Narrow (ISO)
100
AcDbLine
 10
142.3679894590168
 20
168.181785671401
 30
0.0
 11
142.2593796634464
 21
168.1817761346578
 31
0.0
  0
ENDSEC
  0
SECTION
  2
OBJECTS
  0
DICTIONARY
  5
C
330
0
100
AcDbDictionary
281
     1
  3
ACAD_COLOR
350
6B
  3
ACAD_GROUP
350
D
  3
ACAD_LAYOUT
350
6A
  3
ACAD_MATERIAL
350
10
  3
ACAD_MLEADERSTYLE
350
6E
  3
ACAD_MLINESTYLE
350
67
  3
ACAD_PLOTSETTINGS
350
69
  3
ACAD_PLOTSTYLENAME
350
E
  3
ACAD_SCALELIST
350
3A
  3
ACAD_TABLESTYLE
350
6C
  3
ACAD_VISUALSTYLE
350
29
  3
ACDB_RECOMPOSE_DATA
350
5C5
  3
AcDbVariableDictionary
350
5B7
  3
DWGPROPS
350
5C6
  0
DICTIONARY
  5
6B
102
{ACAD_REACTORS
330
C
102
}
330
C
100
AcDbDictionary
281
     1
  0
DICTIONARY
  5
D
102
{ACAD_REACTORS
330
C
102
}
330
C
100
AcDbDictionary
281
     1
  0
DICTIONARY
  5
6A
102
{ACAD_REACTORS
330
C
102
}
330
C
100
AcDbDictionary
281
     1
  3
Layout1
350
74
  3
Layout2
350
7C
  3
Model
350
78
  0
DICTIONARY
  5
10
102
{ACAD_REACTORS
330
C
102
}
330
C
100
AcDbDictionary
281
     1
  3
ByBlock
350
19
  3
ByLayer
350
11
  3
Global
350
21
  0
DICTIONARY
  5
6E
102
{ACAD_REACTORS
330
C
102
}
330
C
100
AcDbDictionary
281
     1
  3
Standard
350
6F
  0
DICTIONARY
  5
67
102
{ACAD_REACTORS
330
C
102
}
330
C
100
AcDbDictionary
281
     1
  3
Standard
350
68
  0
DICTIONARY
  5
69
102
{ACAD_REACTORS
330
C
102
}
330
C
100
AcDbDictionary
281
     1
  0
ACDBDICTIONARYWDFLT
  5
E
102
{ACAD_REACTORS
330
C
102
}
330
C
100
AcDbDictionary
281
     1
  3
Normal
350
F
100
AcDbDictionaryWithDefault
340
F
  0
DICTIONARY
  5
3A
102
{ACAD_REACTORS
330
C
102
}
330
C
100
AcDbDictionary
281
     1
  3
A0
350
3B
  3
A1
350
3C
  3
A2
350
3D
  3
A3
350
3E
  3
A4
350
3F
  3
A5
350
40
  3
A6
350
41
  3
A7
350
42
  3
A8
350
43
  3
A9
350
44
  3
B0
350
45
  3
B1
350
46
  3
B2
350
47
  3
B3
350
48
  3
B4
350
49
  3
B5
350
4A
  3
B6
350
4B
  3
B7
350
4C
  3
B8
350
4D
  3
B9
350
4E
  3
C0
350
4F
  3
C1
350
50
  3
C2
350
51
  3
C3
350
52
  3
C4
350
53
  3
C5
350
54
  3
C6
350
55
  3
C7
350
56
  3
C8
350
57
  3
C9
350
58
  3
D0
350
59
  3
D1
350
5A
  3
D2
350
5B
  0
DICTIONARY
  5
6C
102
{ACAD_REACTORS
330
C
102
}
330
C
100
AcDbDictionary
281
     1
  3
Standard
350
6D
  0
DICTIONARY
  5
29
102
{ACAD_REACTORS
330
C
102
}
330
C
100
AcDbDictionary
281
     1
  3
2dWireframe
350
2F
  3
3D Hidden
350
31
  3
3dWireframe
350
30
  3
Basic
350
2E
  3
Brighten
350
35
  3
ColorChange
350
39
  3
Conceptual
350
32
  3
Dim
350
34
  3
Facepattern
350
38
  3
Flat
350
2A
  3
FlatWithEdges
350
2B
  3
Gouraud
350
2C
  3
GouraudWithEdges
350
2D
  3
Linepattern
350
37
  3
Realistic
350
33
  3
Thicken
350
36
  0
XRECORD
  5
5C5
102
{ACAD_REACTORS
330
C
102
}
330
C
100
AcDbXrecord
280
     1
 90
        1
330
6D
  0
DICTIONARY
  5
5B7
102
{ACAD_REACTORS
330
C
102
}
330
C
100
AcDbDictionary
281
     1
  3
CANNOSCALE
350
5BB
  3
CMLEADERSTYLE
350
5B9
  3
CTABLESTYLE
350
5B8
  3
DIMASSOC
350
5C2
  3
HIDETEXT
350
5C1
  3
INDEXCTL
350
5C0
  3
LAYEREVAL
350
5BD
  3
LAYERNOTIFY
350
5BE
  3
LIGHTINGUNITS
350
5BC
  3
MSLTSCALE
350
5BA
  3
SORTENTS
350
5BF
  0
XRECORD
  5
5C6
102
{ACAD_REACTORS
330
C
102
}
330
C
100
AcDbXrecord
280
     1
  1
DWGPROPS COOKIE
  2

  3

  4
rahns
  6
Oberflächen:^M^J1) CLEANED^M^J2) WITH PROTECTION FOIL ON VISIBLE SURFACE^M^J3)BURR FREE^M^J4) Verzinnen Cu:^M^JISO 2093-Cu/Sn6^M^J5) Verzinnen Al:^M^JISO 2093-Al/Ni3Sn10^M^J6) Verzinnen CuZn:^M^JISO 2093-Cu/Ni2Sn6^M^J7) Verzinken von Blech:^M^JZINC PLATED: DIN 50961 - S235JRG1//Zn8// ^M^J8) Frontfolie:^M^JSILK-SCREEN-PRINTING FROM THE BACK
  7

  8

  9

300
Manager=
301
Company=Puls GmbH München
302
Category=
303
Part Number=
304
Description=
305
Project=
306
Designer=rahns
307
Engineer=
308
Authority=
309
Cost Center=
 40
0.000009525462963
 41
2456846.596170857
 42
2456846.596170857
  1

 90
       29
300
Vendor=
300
User Status=
300
Design Status=WorkInProgress
300
Checked by=
300
Engr Approved by=
300
Mfg Approved by=
300
Scale=
300
Finish=
300
UI_1=
300
UI_2=
300
UI_3=
300
Change_1=
300
Change_2=
300
Change_3=
300
Name_1=
300
Name_2=
300
Name_3=
300
Thickness=
300
General Tolerance=ISO 2768-mK-E
  0
LAYOUT
  5
74
102
{ACAD_XDICTIONARY
360
5CB
102
}
102
{ACAD_REACTORS
330
6A
102
}
330
6A
100
AcDbPlotSettings
  1

  2

  4

  6

 40
0.0
 41
0.0
 42
0.0
 43
0.0
 44
0.0
 45
0.0
 46
0.0
 47
0.0
 48
0.0
 49
0.0
140
0.0
141
0.0
142
1.0
143
1.0
 70
   688
 72
     0
 73
     0
 74
     5
  7

 75
    16
147
1.0
148
0.0
149
0.0
100
AcDbLayout
  1
Layout1
 70
     1
 71
     1
 10
0.0
 20
0.0
 11
12.0
 21
9.0
 12
0.0
 22
0.0
 32
0.0
 14
0.0
 24
0.0
 34
0.0
 15
0.0
 25
0.0
 35
0.0
146
0.0
 13
0.0
 23
0.0
 33
0.0
 16
1.0
 26
0.0
 36
0.0
 17
0.0
 27
1.0
 37
0.0
 76
     0
330
71
  0
LAYOUT
  5
7C
102
{ACAD_XDICTIONARY
360
5CF
102
}
102
{ACAD_REACTORS
330
6A
102
}
330
6A
100
AcDbPlotSettings
  1

  2

  4

  6

 40
0.0
 41
0.0
 42
0.0
 43
0.0
 44
0.0
 45
0.0
 46
0.0
 47
0.0
 48
0.0
 49
0.0
140
0.0
141
0.0
142
1.0
143
1.0
 70
   688
 72
     0
 73
     0
 74
     5
  7

 75
    16
147
1.0
148
0.0
149
0.0
100
AcDbLayout
  1
Layout2
 70
     1
 71
     2
 10
0.0
 20
0.0
 11
12.0
 21
9.0
 12
0.0
 22
0.0
 32
0.0
 14
0.0
 24
0.0
 34
0.0
 15
0.0
 25
0.0
 35
0.0
146
0.0
 13
0.0
 23
0.0
 33
0.0
 16
1.0
 26
0.0
 36
0.0
 17
0.0
 27
1.0
 37
0.0
 76
     0
330
79
  0
LAYOUT
  5
78
102
{ACAD_XDICTIONARY
360
5CD
102
}
102
{ACAD_REACTORS
330
6A
102
}
330
6A
100
AcDbPlotSettings
  1

  2

  4

  6

 40
0.0
 41
0.0
 42
0.0
 43
0.0
 44
0.0
 45
0.0
 46
0.0
 47
0.0
 48
0.0
 49
0.0
140
0.0
141
0.0
142
1.0
143
1.0
 70
  1712
 72
     0
 73
     0
 74
     0
  7

 75
     0
147
1.0
148
0.0
149
0.0
100
AcDbLayout
  1
Model
 70
     1
 71
     0
 10
0.0
 20
0.0
 11
12.0
 21
9.0
 12
0.0
 22
0.0
 32
0.0
 14
0.0
 24
0.0
 34
0.0
 15
0.0
 25
0.0
 35
0.0
146
0.0
 13
0.0
 23
0.0
 33
0.0
 16
1.0
 26
0.0
 36
0.0
 17
0.0
 27
1.0
 37
0.0
 76
     0
330
75
  0
MATERIAL
  5
19
102
{ACAD_XDICTIONARY
360
1A
102
}
102
{ACAD_REACTORS
330
10
102
}
330
10
100
AcDbMaterial
  1
ByBlock
 72
     0
 43
0.0208333333333333
 43
0.0
 43
0.0
 43
0.0
 43
0.0
 43
0.0208333333333333
 43
0.0
 43
0.0
 43
0.0
 43
0.0
 43
1.0
 43
0.0
 43
0.0
 43
0.0
 43
0.0
 43
1.0
 77
     0
 47
0.0208333333333333
 47
0.0
 47
0.0
 47
0.0
 47
0.0
 47
0.0208333333333333
 47
0.0
 47
0.0
 47
0.0
 47
0.0
 47
1.0
 47
0.0
 47
0.0
 47
0.0
 47
0.0
 47
1.0
171
     0
 49
0.0208333333333333
 49
0.0
 49
0.0
 49
0.0
 49
0.0
 49
0.0208333333333333
 49
0.0
 49
0.0
 49
0.0
 49
0.0
 49
1.0
 49
0.0
 49
0.0
 49
0.0
 49
0.0
 49
1.0
175
     0
142
0.0208333333333333
142
0.0
142
0.0
142
0.0
142
0.0
142
0.0208333333333333
142
0.0
142
0.0
142
0.0
142
0.0
142
1.0
142
0.0
142
0.0
142
0.0
142
0.0
142
1.0
179
     0
144
0.0208333333333333
144
0.0
144
0.0
144
0.0
144
0.0
144
0.0208333333333333
144
0.0
144
0.0
144
0.0
144
0.0
144
1.0
144
0.0
144
0.0
144
0.0
144
0.0
144
1.0
147
0.0208333333333333
147
0.0
147
0.0
147
0.0
147
0.0
147
0.0208333333333333
147
0.0
147
0.0
147
0.0
147
0.0
147
1.0
147
0.0
147
0.0
147
0.0
147
0.0
147
1.0
  0
MATERIAL
  5
11
102
{ACAD_XDICTIONARY
360
12
102
}
102
{ACAD_REACTORS
330
10
102
}
330
10
100
AcDbMaterial
  1
ByLayer
 72
     0
 43
0.0208333333333333
 43
0.0
 43
0.0
 43
0.0
 43
0.0
 43
0.0208333333333333
 43
0.0
 43
0.0
 43
0.0
 43
0.0
 43
1.0
 43
0.0
 43
0.0
 43
0.0
 43
0.0
 43
1.0
 77
     0
 47
0.0208333333333333
 47
0.0
 47
0.0
 47
0.0
 47
0.0
 47
0.0208333333333333
 47
0.0
 47
0.0
 47
0.0
 47
0.0
 47
1.0
 47
0.0
 47
0.0
 47
0.0
 47
0.0
 47
1.0
171
     0
 49
0.0208333333333333
 49
0.0
 49
0.0
 49
0.0
 49
0.0
 49
0.0208333333333333
 49
0.0
 49
0.0
 49
0.0
 49
0.0
 49
1.0
 49
0.0
 49
0.0
 49
0.0
 49
0.0
 49
1.0
175
     0
142
0.0208333333333333
142
0.0
142
0.0
142
0.0
142
0.0
142
0.0208333333333333
142
0.0
142
0.0
142
0.0
142
0.0
142
1.0
142
0.0
142
0.0
142
0.0
142
0.0
142
1.0
179
     0
144
0.0208333333333333
144
0.0
144
0.0
144
0.0
144
0.0
144
0.0208333333333333
144
0.0
144
0.0
144
0.0
144
0.0
144
1.0
144
0.0
144
0.0
144
0.0
144
0.0
144
1.0
147
0.0208333333333333
147
0.0
147
0.0
147
0.0
147
0.0
147
0.0208333333333333
147
0.0
147
0.0
147
0.0
147
0.0
147
1.0
147
0.0
147
0.0
147
0.0
147
0.0
147
1.0
  0
MATERIAL
  5
21
102
{ACAD_XDICTIONARY
360
22
102
}
102
{ACAD_REACTORS
330
10
102
}
330
10
100
AcDbMaterial
  1
Global
 72
     0
 43
0.0208333333333333
 43
0.0
 43
0.0
 43
0.0
 43
0.0
 43
0.0208333333333333
 43
0.0
 43
0.0
 43
0.0
 43
0.0
 43
1.0
 43
0.0
 43
0.0
 43
0.0
 43
0.0
 43
1.0
 77
     0
 47
0.0208333333333333
 47
0.0
 47
0.0
 47
0.0
 47
0.0
 47
0.0208333333333333
 47
0.0
 47
0.0
 47
0.0
 47
0.0
 47
1.0
 47
0.0
 47
0.0
 47
0.0
 47
0.0
 47
1.0
171
     0
 49
0.0208333333333333
 49
0.0
 49
0.0
 49
0.0
 49
0.0
 49
0.0208333333333333
 49
0.0
 49
0.0
 49
0.0
 49
0.0
 49
1.0
 49
0.0
 49
0.0
 49
0.0
 49
0.0
 49
1.0
175
     0
142
0.0208333333333333
142
0.0
142
0.0
142
0.0
142
0.0
142
0.0208333333333333
142
0.0
142
0.0
142
0.0
142
0.0
142
1.0
142
0.0
142
0.0
142
0.0
142
0.0
142
1.0
179
     0
144
0.0208333333333333
144
0.0
144
0.0
144
0.0
144
0.0
144
0.0208333333333333
144
0.0
144
0.0
144
0.0
144
0.0
144
1.0
144
0.0
144
0.0
144
0.0
144
0.0
144
1.0
147
0.0208333333333333
147
0.0
147
0.0
147
0.0
147
0.0
147
0.0208333333333333
147
0.0
147
0.0
147
0.0
147
0.0
147
1.0
147
0.0
147
0.0
147
0.0
147
0.0
147
1.0
  0
MLEADERSTYLE
  5
6F
102
{ACAD_REACTORS
330
6E
102
}
330
6E
100
AcDbMLeaderStyle
170
     2
171
     1
172
     0
 90
        2
 40
0.0
 41
0.0
173
     1
 91
-1056964608
340
63
 92
       -2
290
     1
 42
0.09
291
     1
 43
0.36
  3
Standard
 44
0.18
300

342
5D
174
     1
178
     6
175
     1
176
     0
 93
-1056964608
 45
0.18
292
     0
297
     0
 46
0.18
 94
-1056964608
 47
1.0
 49
1.0
140
1.0
293
     1
141
0.0
294
     1
177
     0
142
1.0
295
     0
296
     0
143
0.125
1001
ACAD_MLEADERVER
1070
     2
  0
MLINESTYLE
  5
68
102
{ACAD_REACTORS
330
67
102
}
330
67
100
AcDbMlineStyle
  2
STANDARD
 70
     0
  3

 62
   256
 51
90.0
 52
90.0
 71
     2
 49
0.5
 62
   256
  6
BYLAYER
 49
-0.5
 62
   256
  6
BYLAYER
  0
ACDBPLACEHOLDER
  5
F
102
{ACAD_REACTORS
330
E
102
}
330
E
  0
SCALE
  5
3B
102
{ACAD_REACTORS
330
3A
102
}
330
3A
100
AcDbScale
 70
     0
300
1:1
140
1.0
141
1.0
290
     1
  0
SCALE
  5
3C
102
{ACAD_REACTORS
330
3A
102
}
330
3A
100
AcDbScale
 70
     0
300
1:2
140
1.0
141
2.0
290
     0
  0
SCALE
  5
3D
102
{ACAD_REACTORS
330
3A
102
}
330
3A
100
AcDbScale
 70
     0
300
1:4
140
1.0
141
4.0
290
     0
  0
SCALE
  5
3E
102
{ACAD_REACTORS
330
3A
102
}
330
3A
100
AcDbScale
 70
     0
300
1:5
140
1.0
141
5.0
290
     0
  0
SCALE
  5
3F
102
{ACAD_REACTORS
330
3A
102
}
330
3A
100
AcDbScale
 70
     0
300
1:8
140
1.0
141
8.0
290
     0
  0
SCALE
  5
40
102
{ACAD_REACTORS
330
3A
102
}
330
3A
100
AcDbScale
 70
     0
300
1:10
140
1.0
141
10.0
290
     0
  0
SCALE
  5
41
102
{ACAD_REACTORS
330
3A
102
}
330
3A
100
AcDbScale
 70
     0
300
1:16
140
1.0
141
16.0
290
     0
  0
SCALE
  5
42
102
{ACAD_REACTORS
330
3A
102
}
330
3A
100
AcDbScale
 70
     0
300
1:20
140
1.0
141
20.0
290
     0
  0
SCALE
  5
43
102
{ACAD_REACTORS
330
3A
102
}
330
3A
100
AcDbScale
 70
     0
300
1:30
140
1.0
141
30.0
290
     0
  0
SCALE
  5
44
102
{ACAD_REACTORS
330
3A
102
}
330
3A
100
AcDbScale
 70
     0
300
1:40
140
1.0
141
40.0
290
     0
  0
SCALE
  5
45
102
{ACAD_REACTORS
330
3A
102
}
330
3A
100
AcDbScale
 70
     0
300
1:50
140
1.0
141
50.0
290
     0
  0
SCALE
  5
46
102
{ACAD_REACTORS
330
3A
102
}
330
3A
100
AcDbScale
 70
     0
300
1:100
140
1.0
141
100.0
290
     0
  0
SCALE
  5
47
102
{ACAD_REACTORS
330
3A
102
}
330
3A
100
AcDbScale
 70
     0
300
2:1
140
2.0
141
1.0
290
     0
  0
SCALE
  5
48
102
{ACAD_REACTORS
330
3A
102
}
330
3A
100
AcDbScale
 70
     0
300
4:1
140
4.0
141
1.0
290
     0
  0
SCALE
  5
49
102
{ACAD_REACTORS
330
3A
102
}
330
3A
100
AcDbScale
 70
     0
300
8:1
140
8.0
141
1.0
290
     0
  0
SCALE
  5
4A
102
{ACAD_REACTORS
330
3A
102
}
330
3A
100
AcDbScale
 70
     0
300
10:1
140
10.0
141
1.0
290
     0
  0
SCALE
  5
4B
102
{ACAD_REACTORS
330
3A
102
}
330
3A
100
AcDbScale
 70
     0
300
100:1
140
100.0
141
1.0
290
     0
  0
SCALE
  5
4C
102
{ACAD_REACTORS
330
3A
102
}
330
3A
100
AcDbScale
 70
     0
300
1/128" = 1'-0"
140
0.0078125
141
12.0
290
     0
  0
SCALE
  5
4D
102
{ACAD_REACTORS
330
3A
102
}
330
3A
100
AcDbScale
 70
     0
300
1/64" = 1'-0"
140
0.015625
141
12.0
290
     0
  0
SCALE
  5
4E
102
{ACAD_REACTORS
330
3A
102
}
330
3A
100
AcDbScale
 70
     0
300
1/32" = 1'-0"
140
0.03125
141
12.0
290
     0
  0
SCALE
  5
4F
102
{ACAD_REACTORS
330
3A
102
}
330
3A
100
AcDbScale
 70
     0
300
1/16" = 1'-0"
140
0.0625
141
12.0
290
     0
  0
SCALE
  5
50
102
{ACAD_REACTORS
330
3A
102
}
330
3A
100
AcDbScale
 70
     0
300
3/32" = 1'-0"
140
0.09375
141
12.0
290
     0
  0
SCALE
  5
51
102
{ACAD_REACTORS
330
3A
102
}
330
3A
100
AcDbScale
 70
     0
300
1/8" = 1'-0"
140
0.125
141
12.0
290
     0
  0
SCALE
  5
52
102
{ACAD_REACTORS
330
3A
102
}
330
3A
100
AcDbScale
 70
     0
300
3/16" = 1'-0"
140
0.1875
141
12.0
290
     0
  0
SCALE
  5
53
102
{ACAD_REACTORS
330
3A
102
}
330
3A
100
AcDbScale
 70
     0
300
1/4" = 1'-0"
140
0.25
141
12.0
290
     0
  0
SCALE
  5
54
102
{ACAD_REACTORS
330
3A
102
}
330
3A
100
AcDbScale
 70
     0
300
3/8" = 1'-0"
140
0.375
141
12.0
290
     0
  0
SCALE
  5
55
102
{ACAD_REACTORS
330
3A
102
}
330
3A
100
AcDbScale
 70
     0
300
1/2" = 1'-0"
140
0.5
141
12.0
290
     0
  0
SCALE
  5
56
102
{ACAD_REACTORS
330
3A
102
}
330
3A
100
AcDbScale
 70
     0
300
3/4" = 1'-0"
140
0.75
141
12.0
290
     0
  0
SCALE
  5
57
102
{ACAD_REACTORS
330
3A
102
}
330
3A
100
AcDbScale
 70
     0
300
1" = 1'-0"
140
1.0
141
12.0
290
     0
  0
SCALE
  5
58
102
{ACAD_REACTORS
330
3A
102
}
330
3A
100
AcDbScale
 70
     0
300
1-1/2" = 1'-0"
140
1.5
141
12.0
290
     0
  0
SCALE
  5
59
102
{ACAD_REACTORS
330
3A
102
}
330
3A
100
AcDbScale
 70
     0
300
3" = 1'-0"
140
3.0
141
12.0
290
     0
  0
SCALE
  5
5A
102
{ACAD_REACTORS
330
3A
102
}
330
3A
100
AcDbScale
 70
     0
300
6" = 1'-0"
140
6.0
141
12.0
290
     0
  0
SCALE
  5
5B
102
{ACAD_REACTORS
330
3A
102
}
330
3A
100
AcDbScale
 70
     0
300
1'-0" = 1'-0"
140
12.0
141
12.0
290
     0
  0
TABLESTYLE
  5
6D
102
{ACAD_XDICTIONARY
360
5C3
102
}
102
{ACAD_REACTORS
330
6C
102
}
330
6C
100
AcDbTableStyle
  3
Standard
 70
     0
 71
     0
 40
0.06
 41
0.06
280
     0
281
     0
  7
Standard
140
0.18
170
     2
 62
     0
 63
     7
283
     0
274
    -2
284
     1
 64
     0
275
    -2
285
     1
 65
     0
276
    -2
286
     1
 66
     0
277
    -2
287
     1
 67
     0
278
    -2
288
     1
 68
     0
279
    -2
289
     1
 69
     0
  7
Standard
140
0.25
170
     5
 62
     0
 63
     7
283
     0
274
    -2
284
     1
 64
     0
275
    -2
285
     1
 65
     0
276
    -2
286
     1
 66
     0
277
    -2
287
     1
 67
     0
278
    -2
288
     1
 68
     0
279
    -2
289
     1
 69
     0
  7
Standard
140
0.18
170
     5
 62
     0
 63
     7
283
     0
274
    -2
284
     1
 64
     0
275
    -2
285
     1
 65
     0
276
    -2
286
     1
 66
     0
277
    -2
287
     1
 67
     0
278
    -2
288
     1
 68
     0
279
    -2
289
     1
 69
     0
  0
VISUALSTYLE
  5
2F
102
{ACAD_REACTORS
330
29
102
}
330
29
100
AcDbVisualStyle
  2
2dWireframe
 70
     4
 71
     0
 72
     2
 73
     0
 90
        0
 40
-0.6
 41
-30.0
 62
     5
 63
     7
 74
     1
 91
        4
 64
     7
 65
   257
 75
     1
175
     1
 42
1.0
 92
        0
 66
   257
 43
1.0
 76
     1
 77
     6
 78
     2
 67
     7
 79
     5
170
     0
171
     0
290
     0
174
     0
 93
        1
 44
0.0
173
     0
291
     0
 45
0.0
1001
ACAD
1000
AcDbSavedByObjectVersion
1070
     0
  0
VISUALSTYLE
  5
31
102
{ACAD_REACTORS
330
29
102
}
330
29
100
AcDbVisualStyle
  2
3D Hidden
 70
     6
 71
     1
 72
     2
 73
     2
 90
        0
 40
-0.6
 41
-30.0
 62
     5
 63
     7
 74
     2
 91
        2
 64
     7
 65
   257
 75
     2
175
     1
 42
40.0
 92
        0
 66
   257
 43
1.0
 76
     1
 77
     6
 78
     2
 67
     7
 79
     3
170
     0
171
     0
290
     0
174
     0
 93
        1
 44
0.0
173
     0
291
     0
 45
0.0
1001
ACAD
1000
AcDbSavedByObjectVersion
1070
     0
  0
VISUALSTYLE
  5
30
102
{ACAD_REACTORS
330
29
102
}
330
29
100
AcDbVisualStyle
  2
3dWireframe
 70
     5
 71
     0
 72
     2
 73
     0
 90
        0
 40
-0.6
 41
-30.0
 62
     5
 63
     7
 74
     1
 91
        4
 64
     7
 65
   257
 75
     1
175
     1
 42
1.0
 92
        0
 66
   257
 43
1.0
 76
     1
 77
     6
 78
     2
 67
     7
 79
     5
170
     0
171
     0
290
     0
174
     0
 93
        1
 44
0.0
173
     0
291
     0
 45
0.0
1001
ACAD
1000
AcDbSavedByObjectVersion
1070
     0
  0
VISUALSTYLE
  5
2E
102
{ACAD_REACTORS
330
29
102
}
330
29
100
AcDbVisualStyle
  2
Basic
 70
     7
 71
     1
 72
     0
 73
     1
 90
        0
 40
-0.6
 41
-30.0
 62
     5
 63
     7
 74
     0
 91
        4
 64
     7
 65
   257
 75
     1
175
     1
 42
1.0
 92
        8
 66
     7
 43
1.0
 76
     1
 77
     6
 78
     2
 67
     7
 79
     5
170
     0
171
     0
290
     0
174
     0
 93
        1
 44
0.0
173
     0
291
     1
 45
0.0
1001
ACAD
1000
AcDbSavedByObjectVersion
1070
     0
  0
VISUALSTYLE
  5
35
102
{ACAD_REACTORS
330
29
102
}
330
29
100
AcDbVisualStyle
  2
Brighten
 70
    12
 71
     2
 72
     2
 73
     0
 90
        0
 40
-0.6
 41
-30.0
 62
     5
 63
     7
 74
     1
 91
        4
 64
     7
 65
   257
 75
     1
175
     1
 42
1.0
 92
        8
 66
     7
 43
1.0
 76
     1
 77
     6
 78
     2
 67
     7
 79
     5
170
     0
171
     0
290
     0
174
     0
 93
        1
 44
50.0
173
     0
291
     1
 45
0.0
1001
ACAD
1000
AcDbSavedByObjectVersion
1070
     0
  0
VISUALSTYLE
  5
39
102
{ACAD_REACTORS
330
29
102
}
330
29
100
AcDbVisualStyle
  2
ColorChange
 70
    16
 71
     2
 72
     2
 73
     3
 90
        0
 40
-0.6
 41
-30.0
 62
     5
 63
     8
 74
     1
 91
        4
 64
     7
 65
   257
 75
     1
175
     1
 42
1.0
 92
        8
 66
     8
 43
1.0
 76
     1
 77
     6
 78
     2
 67
     7
 79
     5
170
     0
171
     0
290
     0
174
     0
 93
        1
 44
0.0
173
     0
291
     1
 45
0.0
1001
ACAD
1000
AcDbSavedByObjectVersion
1070
     0
  0
VISUALSTYLE
  5
32
102
{ACAD_REACTORS
330
29
102
}
330
29
100
AcDbVisualStyle
  2
Conceptual
 70
     9
 71
     3
 72
     2
 73
     0
 90
        0
 40
-0.6
 41
-30.0
 62
     5
 63
     7
 74
     2
 91
        2
 64
     7
 65
   257
 75
     1
175
     1
 42
40.0
 92
        8
 66
     7
 43
1.0
 76
     1
 77
     6
 78
     2
 67
     7
 79
     3
170
     0
171
     0
290
     0
174
     0
 93
        1
 44
0.0
173
     0
291
     0
 45
0.0
1001
ACAD
1000
AcDbSavedByObjectVersion
1070
     0
  0
VISUALSTYLE
  5
34
102
{ACAD_REACTORS
330
29
102
}
330
29
100
AcDbVisualStyle
  2
Dim
 70
    11
 71
     2
 72
     2
 73
     0
 90
        0
 40
-0.6
 41
-30.0
 62
     5
 63
     7
 74
     1
 91
        4
 64
     7
 65
   257
 75
     1
175
     1
 42
1.0
 92
        8
 66
     7
 43
1.0
 76
     1
 77
     6
 78
     2
 67
     7
 79
     5
170
     0
171
     0
290
     0
174
     0
 93
        1
 44
-50.0
173
     0
291
     1
 45
0.0
1001
ACAD
1000
AcDbSavedByObjectVersion
1070
     0
  0
VISUALSTYLE
  5
38
102
{ACAD_REACTORS
330
29
102
}
330
29
100
AcDbVisualStyle
  2
Facepattern
 70
    15
 71
     2
 72
     2
 73
     0
 90
        0
 40
-0.6
 41
-30.0
 62
     5
 63
     7
 74
     1
 91
        4
 64
     7
 65
   257
 75
     1
175
     1
 42
1.0
 92
        8
 66
     7
 43
1.0
 76
     1
 77
     6
 78
     2
 67
     7
 79
     5
170
     0
171
     0
290
     0
174
     0
 93
        1
 44
0.0
173
     0
291
     1
 45
0.0
1001
ACAD
1000
AcDbSavedByObjectVersion
1070
     0
  0
VISUALSTYLE
  5
2A
102
{ACAD_REACTORS
330
29
102
}
330
29
100
AcDbVisualStyle
  2
Flat
 70
     0
 71
     2
 72
     1
 73
     1
 90
        2
 40
-0.6
 41
30.0
 62
     5
 63
     7
 74
     0
 91
        4
 64
     7
 65
   257
 75
     1
175
     1
 42
1.0
 92
        8
 66
     7
 43
1.0
 76
     1
 77
     6
 78
     2
 67
     7
 79
     5
170
     0
171
     0
290
     0
174
     0
 93
       13
 44
0.0
173
     0
291
     1
 45
0.0
1001
ACAD
1000
AcDbSavedByObjectVersion
1070
     0
  0
VISUALSTYLE
  5
2B
102
{ACAD_REACTORS
330
29
102
}
330
29
100
AcDbVisualStyle
  2
FlatWithEdges
 70
     1
 71
     2
 72
     1
 73
     1
 90
        2
 40
-0.6
 41
30.0
 62
     5
 63
     7
 74
     1
 91
        4
 64
     7
 65
   257
 75
     1
175
     1
 42
1.0
 92
        0
 66
   257
 43
1.0
 76
     1
 77
     6
 78
     2
 67
     7
 79
     5
170
     0
171
     0
290
     0
174
     0
 93
       13
 44
0.0
173
     0
291
     1
 45
0.0
1001
ACAD
1000
AcDbSavedByObjectVersion
1070
     0
  0
VISUALSTYLE
  5
2C
102
{ACAD_REACTORS
330
29
102
}
330
29
100
AcDbVisualStyle
  2
Gouraud
 70
     2
 71
     2
 72
     2
 73
     1
 90
        2
 40
-0.6
 41
30.0
 62
     5
 63
     7
 74
     0
 91
        4
 64
     7
 65
   257
 75
     1
175
     1
 42
1.0
 92
        0
 66
     7
 43
1.0
 76
     1
 77
     6
 78
     2
 67
     7
 79
     5
170
     0
171
     0
290
     0
174
     0
 93
       13
 44
0.0
173
     0
291
     1
 45
0.0
1001
ACAD
1000
AcDbSavedByObjectVersion
1070
     0
  0
VISUALSTYLE
  5
2D
102
{ACAD_REACTORS
330
29
102
}
330
29
100
AcDbVisualStyle
  2
GouraudWithEdges
 70
     3
 71
     2
 72
     2
 73
     1
 90
        2
 40
-0.6
 41
30.0
 62
     5
 63
     7
 74
     1
 91
        4
 64
     7
 65
   257
 75
     1
175
     1
 42
1.0
 92
        0
 66
   257
 43
1.0
 76
     1
 77
     6
 78
     2
 67
     7
 79
     5
170
     0
171
     0
290
     0
174
     0
 93
       13
 44
0.0
173
     0
291
     1
 45
0.0
1001
ACAD
1000
AcDbSavedByObjectVersion
1070
     0
  0
VISUALSTYLE
  5
37
102
{ACAD_REACTORS
330
29
102
}
330
29
100
AcDbVisualStyle
  2
Linepattern
 70
    14
 71
     2
 72
     2
 73
     0
 90
        0
 40
-0.6
 41
-30.0
 62
     5
 63
     7
 74
     1
 91
        4
 64
     7
 65
   257
 75
     7
175
     7
 42
1.0
 92
        8
 66
     7
 43
1.0
 76
     1
 77
     6
 78
     2
 67
     7
 79
     5
170
     0
171
     0
290
     0
174
     0
 93
        1
 44
0.0
173
     0
291
     1
 45
0.0
1001
ACAD
1000
AcDbSavedByObjectVersion
1070
     0
  0
VISUALSTYLE
  5
33
102
{ACAD_REACTORS
330
29
102
}
330
29
100
AcDbVisualStyle
  2
Realistic
 70
     8
 71
     2
 72
     2
 73
     0
 90
        0
 40
-0.6
 41
-30.0
 62
     5
 63
     7
 74
     1
 91
        0
 64
     7
 65
   257
 75
     1
175
     1
 42
1.0
 92
        8
 66
     8
 43
1.0
 76
     1
 77
     6
 78
     2
 67
     7
 79
     5
170
     0
171
     0
290
     0
174
     0
 93
       13
 44
0.0
173
     0
291
     0
 45
0.0
1001
ACAD
1000
AcDbSavedByObjectVersion
1070
     0
  0
VISUALSTYLE
  5
36
102
{ACAD_REACTORS
330
29
102
}
330
29
100
AcDbVisualStyle
  2
Thicken
 70
    13
 71
     2
 72
     2
 73
     0
 90
        0
 40
-0.6
 41
-30.0
 62
     5
 63
     7
 74
     1
 91
        4
 64
     7
 65
   257
 75
     1
175
     1
 42
1.0
 92
       12
 66
     7
 43
1.0
 76
     1
 77
     6
 78
     2
 67
     7
 79
     5
170
     0
171
     0
290
     0
174
     0
 93
        1
 44
0.0
173
     0
291
     1
 45
0.0
1001
ACAD
1000
AcDbSavedByObjectVersion
1070
     0
  0
DICTIONARYVAR
  5
5BB
102
{ACAD_REACTORS
330
5B7
102
}
330
5B7
100
DictionaryVariables
280
     0
  1
1:1
  0
DICTIONARYVAR
  5
5B9
102
{ACAD_REACTORS
330
5B7
102
}
330
5B7
100
DictionaryVariables
280
     0
  1
STANDARD
  0
DICTIONARYVAR
  5
5B8
102
{ACAD_REACTORS
330
5B7
102
}
330
5B7
100
DictionaryVariables
280
     0
  1
STANDARD
  0
DICTIONARYVAR
  5
5C2
102
{ACAD_REACTORS
330
5B7
102
}
330
5B7
100
DictionaryVariables
280
     0
  1
1
  0
DICTIONARYVAR
  5
5C1
102
{ACAD_REACTORS
330
5B7
102
}
330
5B7
100
DictionaryVariables
280
     0
  1
1
  0
DICTIONARYVAR
  5
5C0
102
{ACAD_REACTORS
330
5B7
102
}
330
5B7
100
DictionaryVariables
280
     0
  1
0
  0
DICTIONARYVAR
  5
5BD
102
{ACAD_REACTORS
330
5B7
102
}
330
5B7
100
DictionaryVariables
280
     0
  1
0
  0
DICTIONARYVAR
  5
5BE
102
{ACAD_REACTORS
330
5B7
102
}
330
5B7
100
DictionaryVariables
280
     0
  1
0
  0
DICTIONARYVAR
  5
5BC
102
{ACAD_REACTORS
330
5B7
102
}
330
5B7
100
DictionaryVariables
280
     0
  1
2
  0
DICTIONARYVAR
  5
5BA
102
{ACAD_REACTORS
330
5B7
102
}
330
5B7
100
DictionaryVariables
280
     0
  1
1
  0
DICTIONARYVAR
  5
5BF
102
{ACAD_REACTORS
330
5B7
102
}
330
5B7
100
DictionaryVariables
280
     0
  1
127
  0
DICTIONARY
  5
5CB
330
74
100
AcDbDictionary
280
     1
281
     1
  3
ACAD_XREC_ROUNDTRIP
360
5CC
  0
DICTIONARY
  5
5CF
330
7C
100
AcDbDictionary
280
     1
281
     1
  3
ACAD_XREC_ROUNDTRIP
360
5D0
  0
DICTIONARY
  5
5CD
330
78
100
AcDbDictionary
280
     1
281
     1
  3
ACAD_XREC_ROUNDTRIP
360
5CE
  0
DICTIONARY
  5
1A
330
19
100
AcDbDictionary
280
     1
281
     1
  3
ACAD_XREC_ROUNDTRIP
360
5C8
  3
BUMPTILE
360
1C
  3
DIFFUSETILE
360
1B
  3
OPACITYTILE
360
1F
  3
REFLECTIONTILE
360
1E
  3
REFRACTIONTILE
360
20
  3
SPECULARTILE
360
1D
  0
DICTIONARY
  5
12
330
11
100
AcDbDictionary
280
     1
281
     1
  3
ACAD_XREC_ROUNDTRIP
360
5C7
  3
BUMPTILE
360
14
  3
DIFFUSETILE
360
13
  3
OPACITYTILE
360
17
  3
REFLECTIONTILE
360
16
  3
REFRACTIONTILE
360
18
  3
SPECULARTILE
360
15
  0
DICTIONARY
  5
22
330
21
100
AcDbDictionary
280
     1
281
     1
  3
ACAD_XREC_ROUNDTRIP
360
5C9
  3
BUMPTILE
360
24
  3
DIFFUSETILE
360
23
  3
OPACITYTILE
360
27
  3
REFLECTIONTILE
360
26
  3
REFRACTIONTILE
360
28
  3
SPECULARTILE
360
25
  0
DICTIONARY
  5
5C3
330
6D
100
AcDbDictionary
280
     1
281
     1
  3
ACAD_ROUNDTRIP_2008_TABLESTYLE_CELLSTYLEMAP
360
5C4
  3
ACAD_XREC_ROUNDTRIP
360
5CA
  0
XRECORD
  5
5CC
102
{ACAD_REACTORS
330
5CB
102
}
330
5CB
100
AcDbXrecord
280
     1
102
SHADEPLOT
 70
     0
102
SHADEPLOTRESLEVEL
 70
     2
102
SHADEPLOTCUSTOMDPI
 70
   300
  0
XRECORD
  5
5D0
102
{ACAD_REACTORS
330
5CF
102
}
330
5CF
100
AcDbXrecord
280
     1
102
SHADEPLOT
 70
     0
102
SHADEPLOTRESLEVEL
 70
     2
102
SHADEPLOTCUSTOMDPI
 70
   300
  0
XRECORD
  5
5CE
102
{ACAD_REACTORS
330
5CD
102
}
330
5CD
100
AcDbXrecord
280
     1
102
SHADEPLOT
 70
     0
102
SHADEPLOTRESLEVEL
 70
     2
102
SHADEPLOTCUSTOMDPI
 70
   300
  0
XRECORD
  5
5C8
102
{ACAD_REACTORS
330
1A
102
}
330
1A
100
AcDbXrecord
280
     1
102
MATERIAL
148
0.0
149
0.0
149
0.0
 93
        0
 94
      127
282
     0
 72
     0
 77
     0
171
     0
175
     0
179
     0
273
     0
  0
XRECORD
  5
1C
102
{ACAD_REACTORS
330
1A
102
}
330
1A
100
AcDbXrecord
280
     1
270
     1
271
     1
  0
XRECORD
  5
1B
102
{ACAD_REACTORS
330
1A
102
}
330
1A
100
AcDbXrecord
280
     1
270
     1
271
     1
  0
XRECORD
  5
1F
102
{ACAD_REACTORS
330
1A
102
}
330
1A
100
AcDbXrecord
280
     1
270
     1
271
     1
  0
XRECORD
  5
1E
102
{ACAD_REACTORS
330
1A
102
}
330
1A
100
AcDbXrecord
280
     1
270
     1
271
     1
  0
XRECORD
  5
20
102
{ACAD_REACTORS
330
1A
102
}
330
1A
100
AcDbXrecord
280
     1
270
     1
271
     1
  0
XRECORD
  5
1D
102
{ACAD_REACTORS
330
1A
102
}
330
1A
100
AcDbXrecord
280
     1
270
     1
271
     1
  0
XRECORD
  5
5C7
102
{ACAD_REACTORS
330
12
102
}
330
12
100
AcDbXrecord
280
     1
102
MATERIAL
148
0.0
149
0.0
149
0.0
 93
        0
 94
      127
282
     0
 72
     0
 77
     0
171
     0
175
     0
179
     0
273
     0
  0
XRECORD
  5
14
102
{ACAD_REACTORS
330
12
102
}
330
12
100
AcDbXrecord
280
     1
270
     1
271
     1
  0
XRECORD
  5
13
102
{ACAD_REACTORS
330
12
102
}
330
12
100
AcDbXrecord
280
     1
270
     1
271
     1
  0
XRECORD
  5
17
102
{ACAD_REACTORS
330
12
102
}
330
12
100
AcDbXrecord
280
     1
270
     1
271
     1
  0
XRECORD
  5
16
102
{ACAD_REACTORS
330
12
102
}
330
12
100
AcDbXrecord
280
     1
270
     1
271
     1
  0
XRECORD
  5
18
102
{ACAD_REACTORS
330
12
102
}
330
12
100
AcDbXrecord
280
     1
270
     1
271
     1
  0
XRECORD
  5
15
102
{ACAD_REACTORS
330
12
102
}
330
12
100
AcDbXrecord
280
     1
270
     1
271
     1
  0
XRECORD
  5
5C9
102
{ACAD_REACTORS
330
22
102
}
330
22
100
AcDbXrecord
280
     1
102
MATERIAL
148
0.0
149
0.0
149
0.0
 93
        0
 94
      127
282
     0
 72
     0
 77
     0
171
     0
175
     0
179
     0
273
     0
  0
XRECORD
  5
24
102
{ACAD_REACTORS
330
22
102
}
330
22
100
AcDbXrecord
280
     1
270
     1
271
     1
  0
XRECORD
  5
23
102
{ACAD_REACTORS
330
22
102
}
330
22
100
AcDbXrecord
280
     1
270
     1
271
     1
  0
XRECORD
  5
27
102
{ACAD_REACTORS
330
22
102
}
330
22
100
AcDbXrecord
280
     1
270
     1
271
     1
  0
XRECORD
  5
26
102
{ACAD_REACTORS
330
22
102
}
330
22
100
AcDbXrecord
280
     1
270
     1
271
     1
  0
XRECORD
  5
28
102
{ACAD_REACTORS
330
22
102
}
330
22
100
AcDbXrecord
280
     1
270
     1
271
     1
  0
XRECORD
  5
25
102
{ACAD_REACTORS
330
22
102
}
330
22
100
AcDbXrecord
280
     1
270
     1
271
     1
  0
CELLSTYLEMAP
  5
5C4
102
{ACAD_REACTORS
330
5C3
102
}
330
5C3
100
AcDbCellStyleMap
 90
        3
300
CELLSTYLE
  1
TABLEFORMAT_BEGIN
 90
        5
170
     1
 91
        0
 92
    32768
 62
   257
 93
        1
300
CONTENTFORMAT
  1
CONTENTFORMAT_BEGIN
 90
        0
 91
        0
 92
      512
 93
        0
300

 40
0.0
140
1.0
 94
        5
 62
     0
340
5D
144
0.25
309
CONTENTFORMAT_END
171
     0
 94
        0
309
TABLEFORMAT_END
  1
CELLSTYLE_BEGIN
 90
        1
 91
        1
300
_TITLE
309
CELLSTYLE_END
300
CELLSTYLE
  1
TABLEFORMAT_BEGIN
 90
        5
170
     1
 91
        0
 92
        0
 62
   257
 93
        1
300
CONTENTFORMAT
  1
CONTENTFORMAT_BEGIN
 90
        0
 91
        0
 92
      512
 93
        0
300

 40
0.0
140
1.0
 94
        5
 62
     0
340
5D
144
0.18
309
CONTENTFORMAT_END
171
     0
 94
        0
309
TABLEFORMAT_END
  1
CELLSTYLE_BEGIN
 90
        2
 91
        1
300
_HEADER
309
CELLSTYLE_END
300
CELLSTYLE
  1
TABLEFORMAT_BEGIN
 90
        5
170
     1
 91
        0
 92
        0
 62
   257
 93
        1
300
CONTENTFORMAT
  1
CONTENTFORMAT_BEGIN
 90
        0
 91
        0
 92
      512
 93
        0
300

 40
0.0
140
1.0
 94
        2
 62
     0
340
5D
144
0.18
309
CONTENTFORMAT_END
171
     0
 94
        0
309
TABLEFORMAT_END
  1
CELLSTYLE_BEGIN
 90
        3
 91
        2
300
_DATA
309
CELLSTYLE_END
  0
XRECORD
  5
5CA
102
{ACAD_REACTORS
330
5C3
102
}
330
5C3
100
AcDbXrecord
280
     1
102
ACAD_ROUNDTRIP_PRE2007_TABLESTYLE
 90
      512
 91
        0
  1

 92
      512
 93
        0
  2

 94
      512
 95
        0
  3

  0
ENDSEC
  0
EOF
