  0
SECTION
  2
HEADER
  9
$ACADVER
  1
AC1009
  9
$INSBASE
 10
0.0
 20
0.0
 30
0.0
  9
$EXTMIN
 10
38.612032273074767
 20
-67.692194988780059
 30
0.0
  9
$EXTMAX
 10
228.59370343663431
 20
62.507805011219972
 30
0.0
  9
$LIMMIN
 10
0.0
 20
0.0
  9
$LIMMAX
 10
17.0
 20
11.0
  9
$ORTHOMODE
 70
     0
  9
$REGENMODE
 70
     1
  9
$FILLMODE
 70
     1
  9
$QTEXTMODE
 70
     0
  9
$MIRRTEXT
 70
     1
  9
$DRAGMODE
 70
     2
  9
$LTSCALE
 40
3.9292311833600002
  9
$OSMODE
 70
    39
  9
$ATTMODE
 70
     1
  9
$TEXTSIZE
 40
0.2
  9
$TRACEWID
 40
0.05
  9
$TEXTSTYLE
  7
STANDARD
  9
$CLAYER
  8
0
  9
$CELTYPE
  6
BYLAYER
  9
$CECOLOR
 62
   256
  9
$DIMSCALE
 40
1.0
  9
$DIMASZ
 40
0.1
  9
$DIMEXO
 40
0.05
  9
$DIMDLI
 40
0.5
  9
$DIMRND
 40
0.0
  9
$DIMDLE
 40
0.0
  9
$DIMEXE
 40
0.1
  9
$DIMTP
 40
0.1
  9
$DIMTM
 40
0.1
  9
$DIMTXT
 40
0.12
  9
$DIMCEN
 40
0.0
  9
$DIMTSZ
 40
0.0
  9
$DIMTOL
 70
     0
  9
$DIMLIM
 70
     0
  9
$DIMTIH
 70
     1
  9
$DIMTOH
 70
     1
  9
$DIMSE1
 70
     0
  9
$DIMSE2
 70
     0
  9
$DIMTAD
 70
     0
  9
$DIMZIN
 70
     7
  9
$DIMBLK
  1

  9
$DIMASO
 70
     1
  9
$DIMSHO
 70
     1
  9
$DIMPOST
  1

  9
$DIMAPOST
  1
mm
  9
$DIMALT
 70
     0
  9
$DIMALTD
 70
     2
  9
$DIMALTF
 40
25.399999999999999
  9
$DIMLFAC
 40
1.0
  9
$DIMTOFL
 70
     0
  9
$DIMTVP
 40
0.0
  9
$DIMTIX
 70
     0
  9
$DIMSOXD
 70
     0
  9
$DIMSAH
 70
     0
  9
$DIMBLK1
  1

  9
$DIMBLK2
  1

  9
$DIMSTYLE
  2
AM_ANSI
  9
$DIMCLRD
 70
   256
  9
$DIMCLRE
 70
   256
  9
$DIMCLRT
 70
     2
  9
$DIMTFAC
 40
0.71
  9
$DIMGAP
 40
0.06
  9
$LUNITS
 70
     2
  9
$LUPREC
 70
     4
  9
$SKETCHINC
 40
0.1
  9
$FILLETRAD
 40
0.125
  9
$AUNITS
 70
     0
  9
$AUPREC
 70
     0
  9
$MENU
  1
.
  9
$ELEVATION
 40
0.0
  9
$PELEVATION
 40
0.0
  9
$THICKNESS
 40
0.0
  9
$LIMCHECK
 70
     0
  9
$BLIPMODE
 70
     0
  9
$CHAMFERA
 40
0.125
  9
$CHAMFERB
 40
0.125
  9
$SKPOLY
 70
     0
  9
$TDCREATE
 40
2453298.6294947001
  9
$TDUPDATE
 40
2454070.524416585
  9
$TDINDWG
 40
0.7584245023
  9
$TDUSRTIMER
 40
0.7584237384
  9
$USRTIMER
 70
     1
  9
$ANGBASE
 50
0.0
  9
$ANGDIR
 70
     0
  9
$PDMODE
 70
     0
  9
$PDSIZE
 40
0.0
  9
$PLINEWID
 40
0.0
  9
$COORDS
 70
     1
  9
$SPLFRAME
 70
     0
  9
$SPLINETYPE
 70
     6
  9
$SPLINESEGS
 70
     8
  9
$ATTDIA
 70
     0
  9
$ATTREQ
 70
     1
  9
$HANDLING
 70
     1
  9
$HANDSEED
  5
ADF
  9
$SURFTAB1
 70
     6
  9
$SURFTAB2
 70
     6
  9
$SURFTYPE
 70
     6
  9
$SURFU
 70
     6
  9
$SURFV
 70
     6
  9
$UCSNAME
  2

  9
$UCSORG
 10
0.0
 20
0.0
 30
0.0
  9
$UCSXDIR
 10
1.0
 20
0.0
 30
0.0
  9
$UCSYDIR
 10
0.0
 20
1.0
 30
0.0
  9
$PUCSNAME
  2

  9
$PUCSORG
 10
0.0
 20
0.0
 30
0.0
  9
$PUCSXDIR
 10
1.0
 20
0.0
 30
0.0
  9
$PUCSYDIR
 10
0.0
 20
1.0
 30
0.0
  9
$USERI1
 70
     0
  9
$USERI2
 70
     0
  9
$USERI3
 70
     0
  9
$USERI4
 70
     0
  9
$USERI5
 70
     0
  9
$USERR1
 40
0.0
  9
$USERR2
 40
0.0
  9
$USERR3
 40
0.0
  9
$USERR4
 40
0.0
  9
$USERR5
 40
0.0
  9
$WORLDVIEW
 70
     1
  9
$SHADEDGE
 70
     3
  9
$SHADEDIF
 70
    70
  9
$TILEMODE
 70
     1
  9
$MAXACTVP
 70
    64
  9
$PLIMCHECK
 70
     0
  9
$PEXTMIN
 10
-178.92937632875291
 20
-71.976767289358691
 30
-0.0015258207003583
  9
$PEXTMAX
 10
27.159755989775022
 20
211.51068949213141
 30
0.0000000349246037
  9
$PLIMMIN
 10
-0.2812495194082185
 20
-0.2812499887361301
  9
$PLIMMAX
 10
10.71875024029589
 20
8.2187497709679782
  9
$UNITMODE
 70
     0
  9
$VISRETAIN
 70
     1
  9
$PLINEGEN
 70
     0
  9
$PSLTSCALE
 70
     1
  0
ENDSEC
  0
SECTION
  2
TABLES
  0
TABLE
  2
VPORT
 70
     2
  0
VPORT
  2
*ACTIVE
 70
     0
 10
0.0
 20
0.0
 11
1.0
 21
1.0
 12
223.3847793267324
 22
-9.0291017099661275
 13
0.0
 23
0.0
 14
0.125
 24
0.125
 15
1.0
 25
1.0
 16
0.0
 26
0.0
 36
1.0
 17
-92.141799371246123
 27
6.4369073274956321
 37
0.0
 40
131.8525628146806
 41
2.006224066390041
 42
50.0
 43
0.0
 44
0.0
 50
0.0
 51
0.0
 71
     0
 72
   100
 73
     1
 74
     3
 75
     0
 76
     0
 77
     0
 78
     0
  0
ENDTAB
  0
TABLE
  2
LTYPE
 70
    18
  0
LTYPE
  2
CONTINUOUS
 70
     0
  3
Solid line
 72
    65
 73
     0
 40
0.0
  0
LTYPE
  2
HIDDEN
 70
     0
  3
Hidden __ __ __ __ __ __ __ __ __ __ __ __ __ _
 72
    65
 73
     2
 40
0.375
 49
0.25
 49
-0.125
  0
LTYPE
  2
PHANTOM2
 70
     0
  3
Phantom (.5x) ___ _ _ ___ _ _ ___ _ _ ___ _ _
 72
    65
 73
     6
 40
1.25
 49
0.625
 49
-0.125
 49
0.125
 49
-0.125
 49
0.125
 49
-0.125
  0
LTYPE
  2
CENTER
 70
     0
  3
Center ____ _ ____ _ ____ _ ____ _ ____ _ ____
 72
    65
 73
     4
 40
2.0
 49
1.25
 49
-0.25
 49
0.25
 49
-0.25
  0
LTYPE
  2
ASULTYPE
 70
     0
  3
Solid line
 72
    65
 73
     2
 40
3.0
 49
2.5
 49
0.5
  0
LTYPE
  2
ASVLTYPE
 70
     0
  3
__ __ __ __ __ __ __ __ __ __ __ __ __ __ __ __ __ __ __ __ __
 72
    65
 73
     2
 40
0.75
 49
0.5
 49
-0.25
  0
LTYPE
  2
AM_ISO02W050
 70
     0
  3
__ __ __ __ __ __ __ __ __ __ __ __ __ __ __
 72
    65
 73
     2
 40
7.5
 49
6.0
 49
-1.5
  0
LTYPE
  2
AM_ISO08W050
 70
     0
  3
____ . ____ . ____ . ____ . ____ . ____ . ____
 72
    65
 73
     4
 40
18.0
 49
12.0
 49
-1.5
 49
3.0
 49
-1.5
  0
LTYPE
  2
AM_ISO09W050
 70
     0
  3
_____ . . _____ . . _____ . . ____ .. ____
 72
    65
 73
     6
 40
22.5
 49
12.0
 49
-1.5
 49
3.0
 49
-1.5
 49
3.0
 49
-1.5
  0
LTYPE
  2
AMCONSTR
 70
     0
  3
_______________________
 72
    65
 73
     2
 40
9999.0
 49
9999.0
 49
0.0
  0
LTYPE
  2
AM_ISO08W050X2
 70
     0
  3
__ . __ . __ . __ . __ . __
 72
    65
 73
     4
 40
9.0
 49
6.0
 49
-0.75
 49
1.5
 49
-0.75
  0
LTYPE
  2
AM_ISO02W050X2
 70
     0
  3
 _ _ _ _ _ _ _ _ _ _ _ _
 72
    65
 73
     2
 40
3.75
 49
3.0
 49
-0.75
  0
LTYPE
  2
AMZIGZAG
 70
     0
  3
/\/-/\/-/\/-/\/-/\/-/\/
 72
    65
 73
     2
 40
11.0001
 49
0.0001
 49
-11.0
  0
LTYPE
  2
CENTER2
 70
     0
  3
Center (.5x) ___ _ ___ _ ___ _ ___ _ ___ _ ___
 72
    65
 73
     4
 40
1.125
 49
0.75
 49
-0.125
 49
0.125
 49
-0.125
  0
LTYPE
  2
HIDDEN2
 70
     0
  3
Hidden (.5x) _ _ _ _ _ _ _ _ _ _ _ _ _ _ _ _ _
 72
    65
 73
     2
 40
0.1875
 49
0.125
 49
-0.0625
  0
LTYPE
  2
AMZIGZAG2
 70
     0
  3
/\/-/\/-/\/-/\/-/\/-/\/
 72
    65
 73
     2
 40
0.4401
 49
0.0001
 49
-0.4400000000000002
  0
LTYPE
  2
ACANSTGB
 70
     0
  3
__ . . __ . .
 72
    65
 73
     6
 40
0.35433070866
 49
0.15748031496
 49
-0.03937007874
 49
0.03937007874
 49
-0.03937007874
 49
0.03937007874
 49
-0.03937007874
  0
LTYPE
  2
ACANSTGL
 70
     0
  3
_ _ _ _ _
 72
    65
 73
     2
 40
0.11811023622
 49
0.07874015748
 49
-0.03937007874
  0
ENDTAB
  0
TABLE
  2
LAYER
 70
     4
  0
LAYER
  2
0
 70
     0
 62
     7
  6
CONTINUOUS
  0
LAYER
  2
AM_VIS
 70
     0
 62
     7
  6
CONTINUOUS
  0
LAYER
  2
AM_HID
 70
     0
 62
     7
  6
HIDDEN
  0
LAYER
  2
DEFPOINTS
 70
     0
 62
     7
  6
CONTINUOUS
  0
ENDTAB
  0
TABLE
  2
STYLE
 70
     5
  0
STYLE
  2
STANDARD
 70
     0
 40
0.0
 41
1.0
 50
0.0
 71
     0
 42
0.2
  3
ROMANS.SHX
  4

  0
STYLE
  2
ADESK1
 70
     0
 40
0.0
 41
1.0
 50
0.0
 71
     0
 42
0.12
  3
romans.shx
  4

  0
STYLE
  2

 70
     1
 40
0.0
 41
1.0
 50
0.0
 71
     0
 42
0.2
  3
ltypeshp.shx
  4

  0
STYLE
  2
ACANSTS
 70
     0
 40
1.0
 41
1.0
 50
0.0
 71
     0
 42
0.2
  3
romans.shx
  4

  0
STYLE
  2
ACANSGDT
 70
     0
 40
0.0
 41
1.0
 50
0.0
 71
     0
 42
0.2
  3
amgdtans.shx
  4

  0
ENDTAB
  0
TABLE
  2
VIEW
 70
     0
  0
ENDTAB
  0
TABLE
  2
UCS
 70
     0
  0
ENDTAB
  0
TABLE
  2
APPID
 70
    14
  0
APPID
  2
ACAD
 70
     0
  0
APPID
  2
GENIUS_GENDIM_13
 70
     0
  0
APPID
  2
GENIUS_GENDTOL_13
 70
     0
  0
APPID
  2
GENIUS_GE3DTOL_13
 70
     0
  0
APPID
  2
MCAD_NO_VIS
 70
     0
  0
APPID
  2
ACAD_TEMP_GRAPHIC
 70
     0
  0
APPID
  2
AD_DRAW
 70
     0
  0
APPID
  2
ACATTRIBSERVICES
 70
     0
  0
APPID
  2
ASURF_PCURVE_APPNAME
 70
     0
  0
APPID
  2
AMG_3D2D_5_0
 70
     0
  0
APPID
  2
DESIGNERASSEMBLIES
 70
     0
  0
APPID
  2
ACADM_DIM_EDIT
 70
     0
  0
APPID
  2
AMDT_DM_ADJ
 70
     0
  0
APPID
  2
ACAD_PSEXT
 70
     0
  0
ENDTAB
  0
TABLE
  2
DIMSTYLE
 70
    10
  0
DIMSTYLE
  2
AM_ANSI
 70
     0
  3

  4
mm
  5

  6

  7

 40
1.0
 41
0.1
 42
0.05
 43
0.5
 44
0.1
 45
0.0
 46
0.0
 47
0.1
 48
0.1
140
0.12
141
0.0
142
0.0
143
25.399999999999999
144
1.0
145
0.0
146
0.71
147
0.06
 71
     0
 72
     0
 73
     1
 74
     1
 75
     0
 76
     0
 77
     0
 78
     7
170
     0
171
     2
172
     0
173
     0
174
     0
175
     0
176
   256
177
   256
178
     2
  0
DIMSTYLE
  2
AM_BSI
 70
     0
  3

  4
mm
  5

  6

  7

 40
1.0
 41
0.1574803149606299
 42
0.05
 43
0.5
 44
0.1
 45
0.0
 46
0.0
 47
0.1
 48
0.1
140
0.12
141
0.0
142
0.0
143
25.399999999999999
144
1.0
145
0.0
146
0.71
147
0.06
 71
     0
 72
     0
 73
     0
 74
     0
 75
     0
 76
     0
 77
     1
 78
     7
170
     0
171
     2
172
     1
173
     0
174
     0
175
     0
176
   256
177
   256
178
     2
  0
DIMSTYLE
  2
AM_DIN
 70
     0
  3

  4
mm
  5

  6

  7

 40
1.0
 41
0.1
 42
0.05
 43
0.5
 44
0.1
 45
0.0
 46
0.0
 47
0.1
 48
0.1
140
0.12
141
0.0
142
0.0
143
25.399999999999999
144
1.0
145
0.0
146
0.71
147
0.06
 71
     0
 72
     0
 73
     0
 74
     0
 75
     0
 76
     0
 77
     1
 78
     7
170
     0
171
     2
172
     1
173
     0
174
     0
175
     0
176
   256
177
   256
178
     2
  0
DIMSTYLE
  2
AM_ISO
 70
     0
  3

  4
mm
  5

  6

  7

 40
1.0
 41
0.1
 42
0.05
 43
0.5
 44
0.1
 45
0.0
 46
0.0
 47
0.1
 48
0.1
140
0.12
141
0.0
142
0.0
143
25.399999999999999
144
1.0
145
0.0
146
0.71
147
0.06
 71
     0
 72
     0
 73
     0
 74
     0
 75
     0
 76
     0
 77
     1
 78
     7
170
     0
171
     2
172
     1
173
     0
174
     0
175
     0
176
   256
177
   256
178
     2
  0
DIMSTYLE
  2
AM_JIS
 70
     0
  3

  4
mm
  5

  6

  7

 40
1.0
 41
0.1
 42
0.05
 43
0.5
 44
0.1
 45
0.0
 46
0.0
 47
0.1
 48
0.1
140
0.12
141
0.0
142
0.0
143
25.399999999999999
144
1.0
145
0.0
146
0.71
147
0.06
 71
     0
 72
     0
 73
     0
 74
     0
 75
     0
 76
     0
 77
     3
 78
     7
170
     0
171
     2
172
     1
173
     0
174
     0
175
     0
176
   256
177
   256
178
     2
  0
DIMSTYLE
  2
AM_ANSI$3
 70
     0
  3

  4
mm
  5

  6

  7

 40
1.0
 41
0.1
 42
0.05
 43
0.5
 44
0.1
 45
0.0
 46
0.0
 47
0.1
 48
0.1
140
0.12
141
0.0
142
0.0
143
25.399999999999999
144
1.0
145
0.0
146
0.71
147
0.06
 71
     0
 72
     0
 73
     1
 74
     1
 75
     0
 76
     0
 77
     0
 78
     7
170
     0
171
     2
172
     0
173
     0
174
     0
175
     0
176
   256
177
   256
178
     2
  0
DIMSTYLE
  2
AM_ANSI$4
 70
     0
  3

  4
mm
  5

  6

  7

 40
1.0
 41
0.1
 42
0.05
 43
0.5
 44
0.1
 45
0.0
 46
0.0
 47
0.1
 48
0.1
140
0.12
141
0.0
142
0.0
143
25.399999999999999
144
1.0
145
0.0
146
0.71
147
0.06
 71
     0
 72
     0
 73
     1
 74
     1
 75
     0
 76
     0
 77
     0
 78
     7
170
     0
171
     2
172
     0
173
     0
174
     0
175
     0
176
   256
177
   256
178
     2
  0
DIMSTYLE
  2
AM_ANSI$7
 70
     0
  3

  4
mm
  5

  6

  7

 40
1.0
 41
0.1
 42
0.05
 43
0.5
 44
0.1
 45
0.0
 46
0.0
 47
0.1
 48
0.1
140
0.24
141
0.0
142
0.0
143
25.399999999999999
144
1.0
145
0.0
146
0.71
147
0.06
 71
     0
 72
     0
 73
     1
 74
     1
 75
     0
 76
     0
 77
     0
 78
     7
170
     0
171
     2
172
     0
173
     0
174
     0
175
     0
176
   256
177
   256
178
     2
  0
DIMSTYLE
  2
AM_ANSI$SF
 70
     0
  3

  4
mm
  5

  6

  7

 40
1.0
 41
0.1
 42
0.05
 43
0.5
 44
0.1
 45
0.0
 46
0.0
 47
0.1
 48
0.1
140
0.12
141
0.0
142
0.0
143
25.399999999999999
144
1.0
145
0.0
146
0.71
147
0.06
 71
     0
 72
     0
 73
     1
 74
     1
 75
     1
 76
     1
 77
     0
 78
     7
170
     0
171
     2
172
     0
173
     0
174
     0
175
     0
176
   256
177
   256
178
     2
  0
DIMSTYLE
  2
AM_ANSI$SH
 70
     0
  3

  4
mm
  5

  6

  7

 40
1.0
 41
0.1
 42
0.05
 43
0.5
 44
0.1
 45
0.0
 46
0.0
 47
0.1
 48
0.1
140
0.12
141
0.0
142
0.0
143
25.399999999999999
144
1.0
145
0.0
146
0.71
147
0.06
 71
     0
 72
     0
 73
     1
 74
     1
 75
     1
 76
     1
 77
     0
 78
     7
170
     0
171
     2
172
     0
173
     1
174
     0
175
     0
176
   256
177
   256
178
     2
  0
ENDTAB
  0
ENDSEC
  0
SECTION
  2
BLOCKS
  0
BLOCK
  8
0
  2
$MODEL_SPACE
 70
     0
 10
0.0
 20
0.0
 30
0.0
  3
$MODEL_SPACE
  1

  0
ENDBLK
  5
A33
  8
0
  0
BLOCK
 67
     1
  8
0
  2
$PAPER_SPACE
 70
     0
 10
0.0
 20
0.0
 30
0.0
  3
$PAPER_SPACE
  1

  0
ENDBLK
  5
A2F
 67
     1
  8
0
  0
BLOCK
  8
0
  2
*U2
 70
     1
 10
0.0
 20
0.0
 30
0.0
  3
*U2
  1

  0
ENDBLK
  5
318
  8
0
  0
BLOCK
  8
0
  2
GENAXEH
 70
     0
 10
0.0
 20
0.0
 30
0.0
  3
GENAXEH
  1

  0
LINE
  5
354
  8
0
 10
-1.0
 20
0.0
 30
0.0
 11
1.0
 21
0.0
 31
0.0
  0
ENDBLK
  5
356
  8
0
  0
BLOCK
  8
0
  2
*U4
 70
     1
 10
0.0
 20
0.0
 30
0.0
  3
*U4
  1

  0
TEXT
  5
9AE
  8
0
 10
193.87941772234851
 20
-5.6137469204236332
 30
0.0
 40
4.5
  1
DIMENSION
  0
ENDBLK
  5
9B0
  8
0
  0
ENDSEC
  0
SECTION
  2
ENTITIES
  0
LINE
  5
29
  8
AM_VIS
 10
216.28977515950569
 20
-59.737358368780043
 30
0.0
 11
214.45071587050569
 21
-59.737358368780043
 31
0.0
  0
LINE
  5
2A
  8
AM_VIS
 10
216.28977515950569
 20
-60.092956207780027
 30
0.0
 11
214.45071587050569
 21
-60.092956207780027
 31
0.0
  0
LINE
  5
2B
  8
AM_VIS
 10
215.13455786750581
 20
-57.69950921778004
 30
0.0
 11
215.13455786750581
 21
-58.411595373780038
 31
0.0
  0
LINE
  5
2C
  8
AM_VIS
 10
215.49015570550571
 20
-57.69950921778004
 30
0.0
 11
215.13455786750581
 21
-57.69950921778004
 31
0.0
  0
LINE
  5
2D
  8
AM_VIS
 10
217.37024551550579
 20
-58.71159537378005
 30
0.0
 11
213.37024551550579
 21
-58.71159537378005
 31
0.0
  0
LINE
  5
2E
  8
AM_VIS
 10
216.28977515950569
 20
-60.092956207780027
 30
0.0
 11
216.28977515950569
 21
-59.737358368780043
 31
0.0
  0
LINE
  5
2F
  8
AM_VIS
 10
215.49015570550571
 20
-57.69950921778004
 30
0.0
 11
215.49015570550571
 21
-58.411595373780038
 31
0.0
  0
LINE
  5
30
  8
AM_VIS
 10
217.37024551550579
 20
-58.411595373780038
 30
0.0
 11
215.49015570550571
 21
-58.411595373780038
 31
0.0
  0
LINE
  5
31
  8
AM_VIS
 10
217.37024551550579
 20
-58.71159537378005
 30
0.0
 11
217.37024551550579
 21
-58.411595373780038
 31
0.0
  0
LINE
  5
32
  8
AM_VIS
 10
217.0146476765058
 20
-59.026162692780026
 30
0.0
 11
217.0146476765058
 21
-59.409114210780039
 31
0.0
  0
LINE
  5
33
  8
AM_VIS
 10
214.45071587050569
 20
-60.092956207780027
 30
0.0
 11
214.45071587050569
 21
-59.737358368780043
 31
0.0
  0
LINE
  5
34
  8
AM_VIS
 10
213.37024551550579
 20
-58.71159537378005
 30
0.0
 11
213.37024551550579
 21
-58.411595373780038
 31
0.0
  0
LINE
  5
35
  8
AM_VIS
 10
215.13455786750581
 20
-58.411595373780038
 30
0.0
 11
213.37024551550579
 21
-58.411595373780038
 31
0.0
  0
LINE
  5
36
  8
AM_VIS
 10
213.725843355519
 20
-59.026162693434721
 30
0.0
 11
217.0146476765058
 21
-59.026162693434721
 31
0.0
  0
LINE
  5
37
  8
AM_VIS
 10
217.0146476765058
 20
-59.409114212191113
 30
0.0
 11
213.725843355519
 21
-59.409114212191113
 31
0.0
  0
LINE
  5
38
  8
AM_VIS
 10
213.725843355519
 20
-59.409114212191099
 30
0.0
 11
213.725843355519
 21
-59.026162693434721
 31
0.0
  0
LINE
  5
41
  8
AM_VIS
 10
201.06570729750581
 20
-60.302099871780037
 30
0.0
 11
198.7534076175057
 21
-57.547392339780032
 31
0.0
  0
LINE
  5
42
  8
AM_VIS
 10
199.0016047335057
 20
-58.298994903780049
 30
0.0
 11
201.3082954385057
 21
-61.047392339780032
 31
0.0
  0
LINE
  5
43
  8
AM_VIS
 10
201.06570729750581
 20
-57.547392339780032
 30
0.0
 11
201.06570729750581
 21
-60.302099871780037
 31
0.0
  0
LINE
  5
44
  8
AM_VIS
 10
201.37980986150569
 20
-57.547392339780032
 30
0.0
 11
201.06570729750581
 21
-57.547392339780032
 31
0.0
  0
LINE
  5
45
  8
AM_VIS
 10
201.37980986150569
 20
-61.047392339780032
 30
0.0
 11
201.37980986150569
 21
-57.547392339780032
 31
0.0
  0
LINE
  5
46
  8
AM_VIS
 10
201.3082954385057
 20
-61.047392339780032
 30
0.0
 11
201.37980986150569
 21
-61.047392339780032
 31
0.0
  0
LINE
  5
47
  8
AM_VIS
 10
207.66186114350569
 20
-61.047392339780032
 30
0.0
 11
209.32211755350571
 21
-61.047392339780032
 31
0.0
  0
LINE
  5
48
  8
AM_VIS
 10
207.66186114350569
 20
-57.547392339780032
 30
0.0
 11
207.66186114350569
 21
-61.047392339780032
 31
0.0
  0
LINE
  5
49
  8
AM_VIS
 10
207.97596370750571
 20
-57.547392339780032
 30
0.0
 11
207.66186114350569
 21
-57.547392339780032
 31
0.0
  0
LINE
  5
4A
  8
AM_VIS
 10
207.97596370750571
 20
-60.688417980780038
 30
0.0
 11
207.97596370750571
 21
-57.547392339780032
 31
0.0
  0
LINE
  5
4B
  8
AM_VIS
 10
209.32211755350571
 20
-60.688417980780038
 30
0.0
 11
207.97596370750571
 21
-60.688417980780038
 31
0.0
  0
LINE
  5
4C
  8
AM_VIS
 10
209.32211755350571
 20
-61.047392339780032
 30
0.0
 11
209.32211755350571
 21
-60.688417980780038
 31
0.0
  0
LINE
  5
4D
  8
AM_VIS
 10
199.0016047335057
 20
-61.047392339780032
 30
0.0
 11
199.0016047335057
 21
-58.298994903780049
 31
0.0
  0
LINE
  5
4E
  8
AM_VIS
 10
198.68750216950559
 20
-61.047392339780032
 30
0.0
 11
199.0016047335057
 21
-61.047392339780032
 31
0.0
  0
LINE
  5
4F
  8
AM_VIS
 10
198.68750216950559
 20
-57.547392339780032
 30
0.0
 11
198.68750216950559
 21
-61.047392339780032
 31
0.0
  0
LINE
  5
50
  8
AM_VIS
 10
198.7534076175057
 20
-57.547392339780032
 30
0.0
 11
198.68750216950559
 21
-57.547392339780032
 31
0.0
  0
LINE
  5
53
  8
AM_VIS
 10
194.47541173850561
 20
-64.092194988780051
 30
0.0
 11
221.4754117305059
 21
-64.092194988780051
 31
0.0
  0
LINE
  5
79
  8
AM_VIS
 10
194.9754117415057
 20
-63.592194988780051
 30
0.0
 11
220.9754117415057
 21
-63.592194988780051
 31
0.0
  0
LINE
  5
7A
  8
AM_VIS
 10
220.9754117415057
 20
-63.592194988780051
 30
0.0
 11
220.9754117415057
 21
-53.020587472780029
 31
0.0
  0
LINE
  5
7B
  8
AM_VIS
 10
220.9754117415057
 20
-53.020587472780029
 30
0.0
 11
194.9754117415057
 21
-53.020587472780029
 31
0.0
  0
LINE
  5
7C
  8
AM_VIS
 10
194.9754117415057
 20
-53.020587472780029
 30
0.0
 11
194.9754117415057
 21
-63.592194988780051
 31
0.0
  0
LINE
  5
B0
  8
AM_VIS
 10
221.47541174150581
 20
-52.520587472780029
 30
0.0
 11
194.4754117415057
 21
-52.520587472780029
 31
0.0
  0
LINE
  5
B1
  8
AM_VIS
 10
221.47541174150581
 20
-63.72058747463042
 30
0.0
 11
221.47541174150581
 21
-64.092194988780051
 31
0.0
  0
LINE
  5
D2
  8
AM_VIS
 10
194.4754117415057
 20
-63.72058747463042
 30
0.0
 11
194.4754117415057
 21
-64.092194988780051
 31
0.0
  0
LINE
  5
FB
  8
AM_VIS
 10
223.8652600809871
 20
59.907805011219942
 30
0.0
 11
195.36526009948699
 21
59.907805011219942
 31
0.0
  0
LINE
  5
FC
  8
AM_VIS
 10
195.36526009948699
 20
48.336197520237747
 30
0.0
 11
220.3652600624871
 21
48.336197520237747
 31
0.0
  0
LINE
  5
FD
  8
AM_VIS
 10
207.29569623661169
 20
52.87864756421996
 30
0.0
 11
208.32774751861169
 21
52.87864756421996
 31
0.0
  0
LINE
  5
FE
  8
AM_VIS
 10
208.32774751861169
 20
52.87864756421996
 30
0.0
 11
208.32774751861169
 21
53.192750128219942
 31
0.0
  0
LINE
  5
FF
  8
AM_VIS
 10
208.32774751861169
 20
53.192750128219942
 30
0.0
 11
207.29569623661169
 21
53.192750128219942
 31
0.0
  0
LINE
  5
100
  8
AM_VIS
 10
195.86526008248711
 20
48.836197495219963
 30
0.0
 11
219.86526008248711
 21
48.836197495219963
 31
0.0
  0
LINE
  5
101
  8
AM_VIS
 10
219.86526008248711
 20
59.407805011219942
 30
0.0
 11
195.86526008248711
 21
59.407805011219942
 31
0.0
  0
LINE
  5
102
  8
AM_VIS
 10
219.86526008248711
 20
48.836197495219963
 30
0.0
 11
219.86526008248711
 21
59.407805011219942
 31
0.0
  0
LINE
  5
103
  8
AM_VIS
 10
214.71794285677851
 20
52.83377576921994
 30
0.0
 11
216.0640967027785
 21
52.83377576921994
 31
0.0
  0
LINE
  5
104
  8
AM_VIS
 10
216.0640967027785
 20
52.83377576921994
 30
0.0
 11
216.0640967027785
 21
53.192750128219942
 31
0.0
  0
LINE
  5
105
  8
AM_VIS
 10
216.0640967027785
 20
53.192750128219942
 30
0.0
 11
214.71794285677851
 21
53.192750128219942
 31
0.0
  0
LINE
  5
106
  8
AM_VIS
 10
214.71794285677851
 20
53.192750128219942
 30
0.0
 11
214.71794285677851
 21
52.83377576921994
 31
0.0
  0
LINE
  5
107
  8
AM_VIS
 10
195.86526008248711
 20
59.407805011219942
 30
0.0
 11
195.86526008248711
 21
48.836197495219963
 31
0.0
  0
LINE
  5
108
  8
AM_VIS
 10
205.9495423906117
 20
53.192750128219942
 30
0.0
 11
205.9495423906117
 21
52.87864756421996
 31
0.0
  0
LINE
  5
109
  8
AM_VIS
 10
205.9495423906117
 20
52.87864756421996
 30
0.0
 11
206.98159367261169
 21
52.87864756421996
 31
0.0
  0
LINE
  5
10A
  8
AM_VIS
 10
206.98159367261169
 20
52.87864756421996
 30
0.0
 11
206.98159367261169
 21
51.846596282219963
 31
0.0
  0
LINE
  5
10B
  8
AM_VIS
 10
206.98159367261169
 20
51.846596282219963
 30
0.0
 11
207.29569623661169
 21
51.846596282219963
 31
0.0
  0
LINE
  5
10C
  8
AM_VIS
 10
207.29569623661169
 20
51.846596282219963
 30
0.0
 11
207.29569623661169
 21
52.87864756421996
 31
0.0
  0
LINE
  5
10D
  8
AM_VIS
 10
207.29569623661169
 20
53.192750128219942
 30
0.0
 11
207.29569623661169
 21
54.224801411219957
 31
0.0
  0
LINE
  5
10E
  8
AM_VIS
 10
205.9495423906117
 20
53.19275012330511
 30
0.0
 11
206.98159368761171
 21
53.19275012330511
 31
0.0
  0
LINE
  5
10F
  8
AM_VIS
 10
206.98159368761171
 20
53.19275012330511
 30
0.0
 11
206.98159368761171
 21
54.224801414736838
 31
0.0
  0
LINE
  5
110
  8
AM_VIS
 10
206.98159368761171
 20
54.224801414736838
 30
0.0
 11
207.29569623661169
 21
54.224801414736838
 31
0.0
  0
ARC
  5
111
  8
AM_VIS
 10
215.33971046650569
 20
-58.77984999800848
 30
0.0
 40
2.1999740185349861
 50
180.0033746381234
 51
359.99662536187623
  0
ARC
  5
112
  8
AM_VIS
 10
215.33971046650569
 20
-58.78010914855161
 30
0.0
 40
2.1999740185349861
 50
0.0033746381235738
 51
179.99662536187611
  0
ARC
  5
113
  8
AM_VIS
 10
215.33971046650581
 20
-58.779979573780061
 30
0.0
 40
2.418365429999989
 50
0.0
 51
180.00000002350339
  0
ARC
  5
114
  8
AM_VIS
 10
215.33971046650569
 20
-58.779979573780061
 30
0.0
 40
2.418365429999997
 50
180.00000002350311
 51
0.0000000000003197
  0
LINE
  5
118
  8
AM_VIS
 10
221.47541174150581
 20
-63.720587474630392
 30
0.0
 11
221.47541174150581
 21
-52.520587472780022
 31
0.0
  0
LINE
  5
123
  8
AM_VIS
 10
194.4754117415057
 20
-52.520587471809542
 30
0.0
 11
194.4754117415057
 21
-63.720587474630548
 31
0.0
  0
LINE
  5
13A
  8
AM_VIS
 10
195.36526008248711
 20
59.536197495770651
 30
0.0
 11
195.36526008248711
 21
59.907805011219942
 31
0.0
  0
LINE
  5
13B
  8
AM_VIS
 10
220.3652600624871
 20
59.907805011219942
 30
0.0
 11
220.3652600624871
 21
48.33619752023781
 31
0.0
  0
LINE
  5
13C
  8
AM_VIS
 10
195.36526009948699
 20
48.336197520237718
 30
0.0
 11
195.36526009948699
 21
59.536197495775603
 31
0.0
  0
LINE
  5
23E
  8
AM_VIS
 10
201.90484842513371
 20
54.224801414736838
 30
0.0
 11
202.2189509741338
 21
54.224801414736838
 31
0.0
  0
LINE
  5
23F
  8
AM_VIS
 10
201.90484842513371
 20
53.19275012330511
 30
0.0
 11
201.90484842513371
 21
54.224801414736838
 31
0.0
  0
LINE
  5
240
  8
AM_VIS
 10
200.8727971281337
 20
53.19275012330511
 30
0.0
 11
201.90484842513371
 21
53.19275012330511
 31
0.0
  0
LINE
  5
241
  8
AM_VIS
 10
202.2189509741338
 20
53.192750128219942
 30
0.0
 11
202.2189509741338
 21
54.224801411219957
 31
0.0
  0
LINE
  5
242
  8
AM_VIS
 10
202.2189509741338
 20
51.846596282219963
 30
0.0
 11
202.2189509741338
 21
52.87864756421996
 31
0.0
  0
LINE
  5
243
  8
AM_VIS
 10
201.9048484101337
 20
51.846596282219963
 30
0.0
 11
202.2189509741338
 21
51.846596282219963
 31
0.0
  0
LINE
  5
244
  8
AM_VIS
 10
201.9048484101337
 20
52.87864756421996
 30
0.0
 11
201.9048484101337
 21
51.846596282219963
 31
0.0
  0
LINE
  5
245
  8
AM_VIS
 10
200.8727971281337
 20
52.87864756421996
 30
0.0
 11
201.9048484101337
 21
52.87864756421996
 31
0.0
  0
LINE
  5
246
  8
AM_VIS
 10
200.8727971281337
 20
53.192750128219942
 30
0.0
 11
200.8727971281337
 21
52.87864756421996
 31
0.0
  0
LINE
  5
247
  8
AM_VIS
 10
210.91158977036031
 20
53.192750128219942
 30
0.0
 11
210.91158977036031
 21
52.83377576921994
 31
0.0
  0
LINE
  5
248
  8
AM_VIS
 10
212.25774361636019
 20
53.192750128219942
 30
0.0
 11
210.91158977036031
 21
53.192750128219942
 31
0.0
  0
LINE
  5
249
  8
AM_VIS
 10
212.25774361636019
 20
52.83377576921994
 30
0.0
 11
212.25774361636019
 21
53.192750128219942
 31
0.0
  0
LINE
  5
24A
  8
AM_VIS
 10
210.91158977036031
 20
52.83377576921994
 30
0.0
 11
212.25774361636019
 21
52.83377576921994
 31
0.0
  0
LINE
  5
24B
  8
AM_VIS
 10
203.25100225613369
 20
53.192750128219942
 30
0.0
 11
202.2189509741338
 21
53.192750128219942
 31
0.0
  0
LINE
  5
24C
  8
AM_VIS
 10
203.25100225613369
 20
52.87864756421996
 30
0.0
 11
203.25100225613369
 21
53.192750128219942
 31
0.0
  0
LINE
  5
24D
  8
AM_VIS
 10
202.2189509741338
 20
52.87864756421996
 30
0.0
 11
203.25100225613369
 21
52.87864756421996
 31
0.0
  0
INSERT
  5
25D
  8
0
  2
*U4
 10
48.967859454320262
 20
-0.8527885963176834
 30
0.0
 41
0.75
 42
0.75
 43
0.75
  0
LINE
  5
3AA
  8
0
 10
191.8652600809871
 20
59.907805011219942
 30
0.0
 11
220.3652600624871
 21
59.907805011219942
 31
0.0
  0
LINE
  5
3CF
  8
0
 10
191.8652600809871
 20
59.907805011219942
 30
0.0
 11
191.8652600809871
 21
-39.461602036204951
 31
0.0
  0
LINE
  5
3D0
  8
0
 10
223.8652600809871
 20
59.907805011219942
 30
0.0
 11
223.8652600809871
 21
-64.092194988780051
 31
0.0
  0
LINE
  5
3D1
  8
0
 10
223.8652600809871
 20
-64.092194988780051
 30
0.0
 11
191.8652600809871
 21
-64.092194988780051
 31
0.0
  0
LINE
  5
3D2
  8
0
 10
191.8652600809871
 20
-64.092194988780051
 30
0.0
 11
191.8652600809871
 21
-39.461602036204951
 31
0.0
  0
POLYLINE
  5
3FE
  8
0
 66
     1
 10
0.0
 20
0.0
 30
0.0
  0
VERTEX
  5
A78
  8
0
 10
193.64624534362321
 20
2.286836045244538
 30
0.0
  0
VERTEX
  5
A79
  8
0
 10
193.64624534362321
 20
4.7793672595783008
 30
0.0
 42
-0.3671857350777472
  0
VERTEX
  5
A7A
  8
0
 10
195.23778828843291
 20
6.6543891576805292
 30
0.0
  0
VERTEX
  5
A7B
  8
0
 10
197.9939452200868
 20
6.6543891576805292
 30
0.0
 42
0.9999999999999998
  0
VERTEX
  5
A7C
  8
0
 10
197.9939452200868
 20
8.6314739144696322
 30
0.0
  0
VERTEX
  5
A7D
  8
0
 10
193.64624534362321
 20
8.6314739144696322
 30
0.0
  0
VERTEX
  5
A7E
  8
0
 10
193.64624534362321
 20
10.13342644614411
 30
0.0
  0
VERTEX
  5
A7F
  8
0
 10
198.8163570731252
 20
10.13342644614411
 30
0.0
 42
-0.7547318854084018
  0
VERTEX
  5
A80
  8
0
 10
198.8163570731252
 20
4.8994436069460878
 30
0.0
  0
VERTEX
  5
A81
  8
0
 10
195.77124462553761
 20
4.8994436069460878
 30
0.0
 42
0.4366345097304608
  0
VERTEX
  5
A82
  8
0
 10
195.5682621675173
 20
4.6804305405307183
 30
0.0
  0
VERTEX
  5
A83
  8
0
 10
195.5682621675173
 20
2.286836045244538
 30
0.0
  0
VERTEX
  5
A84
  8
0
 10
193.64624534362321
 20
2.286836045244538
 30
0.0
  0
SEQEND
  5
A85
  8
0
  0
POLYLINE
  5
3FF
  8
0
 66
     1
 10
0.0
 20
0.0
 30
0.0
  0
VERTEX
  5
A86
  8
0
 10
201.2072138671285
 20
10.13342644614411
 30
0.0
  0
VERTEX
  5
A87
  8
0
 10
201.2072138671285
 20
4.2836348292135948
 30
0.0
 42
0.5708960333708594
  0
VERTEX
  5
A88
  8
0
 10
208.2025288360519
 20
4.2836348292135948
 30
0.0
  0
VERTEX
  5
A89
  8
0
 10
208.2025288360519
 20
10.13342644614411
 30
0.0
  0
VERTEX
  5
A8A
  8
0
 10
206.27684159764959
 20
10.13342644614411
 30
0.0
  0
VERTEX
  5
A8B
  8
0
 10
206.27684159764959
 20
4.9709782355293353
 30
0.0
 42
-0.7119256374983589
  0
VERTEX
  5
A8C
  8
0
 10
203.40797733312399
 20
4.9709782355293353
 30
0.0
  0
VERTEX
  5
A8D
  8
0
 10
203.40797733312399
 20
10.13342644614411
 30
0.0
  0
VERTEX
  5
A8E
  8
0
 10
201.2072138671285
 20
10.13342644614411
 30
0.0
  0
SEQEND
  5
A8F
  8
0
  0
POLYLINE
  5
400
  8
0
 66
     1
 10
0.0
 20
0.0
 30
0.0
  0
VERTEX
  5
A90
  8
0
 10
209.32449772784989
 20
10.13342644614411
 30
0.0
  0
VERTEX
  5
A91
  8
0
 10
209.32449772784989
 20
4.2764253605956331
 30
0.0
 42
0.4375533547323144
  0
VERTEX
  5
A92
  8
0
 10
211.47787016747961
 20
2.286836045244538
 30
0.0
  0
VERTEX
  5
A93
  8
0
 10
214.522299747256
 20
2.286836045244538
 30
0.0
  0
VERTEX
  5
A94
  8
0
 10
214.522299747256
 20
3.781680668163899
 30
0.0
  0
VERTEX
  5
A95
  8
0
 10
212.09665083807511
 20
3.781680668163899
 30
0.0
 42
-0.4821646142478535
  0
VERTEX
  5
A96
  8
0
 10
211.2303476562264
 20
4.8701271378078124
 30
0.0
  0
VERTEX
  5
A97
  8
0
 10
211.2303476562264
 20
10.13342644614411
 30
0.0
  0
VERTEX
  5
A98
  8
0
 10
209.32449772784989
 20
10.13342644614411
 30
0.0
  0
SEQEND
  5
A99
  8
0
  0
POLYLINE
  5
401
  8
0
 66
     1
 10
0.0
 20
0.0
 30
0.0
  0
VERTEX
  5
A9A
  8
0
 10
221.5516898201474
 20
10.13342644614411
 30
0.0
  0
VERTEX
  5
A9B
  8
0
 10
216.67567218688251
 20
10.13342644614411
 30
0.0
 42
0.7971480703780247
  0
VERTEX
  5
A9C
  8
0
 10
216.67567218688251
 20
5.5380314543056803
 30
0.0
  0
VERTEX
  5
A9D
  8
0
 10
220.14086784258799
 20
5.5380314543056803
 30
0.0
 42
-0.5073246617238253
  0
VERTEX
  5
A9E
  8
0
 10
220.14086784258799
 20
3.781680668163899
 30
0.0
  0
VERTEX
  5
A9F
  8
0
 10
215.3885858574088
 20
3.781680668163899
 30
0.0
  0
VERTEX
  5
AA0
  8
0
 10
215.3885858574088
 20
2.286836045244538
 30
0.0
  0
VERTEX
  5
AA1
  8
0
 10
220.31412847895641
 20
2.286836045244538
 30
0.0
 42
0.7228132629255227
  0
VERTEX
  5
AA2
  8
0
 10
220.31412847895641
 20
7.0717542568591583
 30
0.0
  0
VERTEX
  5
AA3
  8
0
 10
217.1707001376993
 20
7.0717542568591583
 30
0.0
 42
-1.0
  0
VERTEX
  5
AA4
  8
0
 10
217.1707001376993
 20
8.5312643372629271
 30
0.0
  0
VERTEX
  5
AA5
  8
0
 10
221.5516898201474
 20
8.5312643372629271
 30
0.0
  0
VERTEX
  5
AA6
  8
0
 10
221.5516898201474
 20
10.13342644614411
 30
0.0
  0
SEQEND
  5
AA7
  8
0
  0
POLYLINE
  5
422
  8
0
 66
     1
 10
0.0
 20
0.0
 30
0.0
  0
VERTEX
  5
AA8
  8
0
 10
152.4313031565803
 20
59.907805011219921
 30
0.0
  0
VERTEX
  5
AA9
  8
0
 10
49.96203227307479
 20
59.907805011219921
 30
0.0
  0
VERTEX
  5
AAA
  8
0
 10
49.962032273074769
 20
-64.092194988780051
 30
0.0
  0
VERTEX
  5
AAB
  8
0
 10
152.4313031751864
 20
-64.092194988780051
 30
0.0
  0
SEQEND
  5
AAC
  8
0
  0
ARC
  5
424
  8
0
 10
-79.039422497353854
 20
-2.09219498878024
 30
0.0
 40
240.00145478574859
 50
345.12071357069908
 51
14.87799166673363
  0
ARC
  5
425
  8
0
 10
152.43660355363849
 20
-63.599087538534
 30
0.0
 40
0.4931359361270374
 50
269.38415527945301
 51
345.73646840509872
  0
ARC
  5
426
  8
0
 10
152.4313031565803
 20
59.40776604974986
 30
0.0
 40
0.5000389614700609
 50
14.262236725384881
 51
90.0
  0
POLYLINE
  5
428
  8
0
 66
     1
 10
0.0
 20
0.0
 30
0.0
  0
VERTEX
  5
AAD
  8
0
 10
48.649064199329281
 20
62.507805011219972
 30
0.0
  0
VERTEX
  5
AAE
  8
0
 10
45.199064199329321
 20
62.507805011219972
 30
0.0
  0
VERTEX
  5
AAF
  8
0
 10
45.199064199329293
 20
18.907817338793851
 30
0.0
  0
VERTEX
  5
AB0
  8
0
 10
39.162032273074722
 20
18.907817338793851
 30
0.0
  0
VERTEX
  5
AB1
  8
0
 10
39.162032273074722
 20
12.68781733879386
 30
0.0
  0
VERTEX
  5
AB2
  8
0
 10
40.494812903583252
 20
12.68781733879386
 30
0.0
  0
VERTEX
  5
AB3
  8
0
 10
42.837529783965678
 20
15.27561771641937
 30
0.0
  0
VERTEX
  5
AB4
  8
0
 10
42.837529783965678
 20
15.905161535144581
 30
0.0
  0
VERTEX
  5
AB5
  8
0
 10
44.882048712117687
 20
15.905161535144581
 30
0.0
  0
VERTEX
  5
AB6
  8
0
 10
44.882048712117687
 20
14.42507434243343
 30
0.0
  0
VERTEX
  5
AB7
  8
0
 10
46.059544862030641
 20
14.42507434243343
 30
0.0
  0
VERTEX
  5
AB8
  8
0
 10
46.059544862030641
 20
15.90781733879386
 30
0.0
  0
VERTEX
  5
AB9
  8
0
 10
47.112032273074703
 20
15.90781733879386
 30
0.0
  0
VERTEX
  5
ABA
  8
0
 10
47.112032273074703
 20
-2.085042658223855
 30
0.0
  0
VERTEX
  5
ABB
  8
0
 10
44.628256978323527
 20
-4.4505526592324571
 30
0.0
  0
VERTEX
  5
ABC
  8
0
 10
44.628256978323527
 20
-3.717547813233451
 30
0.0
  0
VERTEX
  5
ABD
  8
0
 10
43.962032273074719
 20
-3.717547813233451
 30
0.0
  0
VERTEX
  5
ABE
  8
0
 10
43.962032273074719
 20
-20.092194988780069
 30
0.0
  0
VERTEX
  5
ABF
  8
0
 10
38.612032273074767
 20
-20.092194988780069
 30
0.0
  0
VERTEX
  5
AC0
  8
0
 10
38.612032273074767
 20
-22.89219498878008
 30
0.0
  0
VERTEX
  5
AC1
  8
0
 10
46.662032273074722
 20
-22.89219498878008
 30
0.0
  0
VERTEX
  5
AC2
  8
0
 10
46.662032273074722
 20
-30.092194988780069
 30
0.0
  0
VERTEX
  5
AC3
  8
0
 10
49.462032273074719
 20
-30.092194988780069
 30
0.0
  0
VERTEX
  5
AC4
  8
0
 10
49.462032273074719
 20
-29.04976965026917
 30
0.0
  0
VERTEX
  5
AC5
  8
0
 10
49.124963013231337
 20
-29.04976965026917
 30
0.0
  0
VERTEX
  5
AC6
  8
0
 10
49.124963013231337
 20
-25.734911520146891
 30
0.0
  0
VERTEX
  5
AC7
  8
0
 10
49.294035387391688
 20
-25.734911520146891
 30
0.0
  0
VERTEX
  5
AC8
  8
0
 10
49.294035387391688
 20
-22.89219498878008
 30
0.0
  0
VERTEX
  5
AC9
  8
0
 10
49.462032273074719
 20
-22.89219498878008
 30
0.0
  0
VERTEX
  5
ACA
  8
0
 10
49.462032273074719
 20
-20.092194988780069
 30
0.0
  0
VERTEX
  5
ACB
  8
0
 10
46.312032273074763
 20
-20.092194988780069
 30
0.0
  0
VERTEX
  5
ACC
  8
0
 10
46.312032273074763
 20
-6.092194988780065
 30
0.0
  0
VERTEX
  5
ACD
  8
0
 10
49.462032273074719
 20
-3.0921826612061381
 30
0.0
  0
VERTEX
  5
ACE
  8
0
 10
49.462032273074719
 20
21.92648355323233
 30
0.0
  0
VERTEX
  5
ACF
  8
0
 10
49.124963013231337
 20
21.92648355323233
 30
0.0
  0
VERTEX
  5
AD0
  8
0
 10
49.124963013231337
 20
25.241341683354609
 30
0.0
  0
VERTEX
  5
AD1
  8
0
 10
49.462032273074719
 20
25.241341683354609
 30
0.0
  0
VERTEX
  5
AD2
  8
0
 10
49.462032273074719
 20
25.907817338793851
 30
0.0
  0
VERTEX
  5
AD3
  8
0
 10
47.112032273074703
 20
25.907817338793851
 30
0.0
  0
VERTEX
  5
AD4
  8
0
 10
47.112032273074703
 20
18.907817338793851
 30
0.0
  0
VERTEX
  5
AD5
  8
0
 10
39.162032273074722
 20
18.907817338793851
 30
0.0
  0
SEQEND
  5
AD6
  8
0
  0
LINE
  5
429
  8
0
 10
45.199064199329293
 20
14.42507434243343
 30
0.0
 11
45.199064199329293
 21
-3.9069245006021149
 31
0.0
  0
LINE
  5
42A
  8
0
 10
48.662032273074757
 20
-3.8540905539233048
 30
0.0
 11
48.662032273074757
 21
-20.092194988780069
 31
0.0
  0
LINE
  5
42B
  8
0
 10
48.662032273074757
 20
-19.692194988780031
 30
0.0
 11
46.312032273074742
 21
-19.692194988780031
 31
0.0
  0
LINE
  5
42C
  8
0
 10
43.962032273074719
 20
-19.692194988780031
 30
0.0
 11
39.662032273074743
 21
-19.692194988780031
 31
0.0
  0
LINE
  5
42D
  8
0
 10
39.662032273074743
 20
-19.692194988780031
 30
0.0
 11
39.662032273074743
 21
-20.092194988780069
 31
0.0
  0
LINE
  5
42E
  8
0
 10
39.662032273074743
 20
-22.89219498878008
 30
0.0
 11
39.662032273074743
 21
-67.692194988780045
 31
0.0
  0
LINE
  5
42F
  8
0
 10
39.662032273074743
 20
-67.692194988780045
 30
0.0
 11
48.662032273074757
 21
-67.692194988780045
 31
0.0
  0
LINE
  5
430
  8
0
 10
48.662032273074757
 20
-67.692194988780045
 30
0.0
 11
48.662032273074757
 21
-30.092194988780069
 31
0.0
  0
LINE
  5
431
  8
0
 10
48.649064199329281
 20
62.507805011219972
 30
0.0
 11
48.649064199329281
 21
25.907817338793851
 31
0.0
  0
LINE
  5
434
  8
0
 10
191.8652600809871
 20
59.907805011219942
 30
0.0
 11
201.8652600809871
 21
59.907805011219942
 31
0.0
  0
LINE
  5
436
  8
0
 10
201.8652600809871
 20
59.907805011219942
 30
0.0
 11
201.8652600809871
 21
62.507805011219972
 31
0.0
  0
LINE
  5
437
  8
0
 10
201.8652600809871
 20
62.507805011219972
 30
0.0
 11
213.8652600809871
 21
62.507805011219972
 31
0.0
  0
LINE
  5
438
  8
0
 10
213.8652600809871
 20
62.507805011219972
 30
0.0
 11
213.8652600809871
 21
59.907805011219942
 31
0.0
  0
LINE
  5
439
  8
0
 10
213.8652600809871
 20
59.907805011219942
 30
0.0
 11
201.8652600809871
 21
59.907805011219942
 31
0.0
  0
LINE
  5
43A
  8
0
 10
201.8652600809871
 20
-67.692194988780059
 30
0.0
 11
201.8652600809871
 21
-64.092194988780051
 31
0.0
  0
LINE
  5
43B
  8
0
 10
201.8652600809871
 20
-67.692194988780059
 30
0.0
 11
213.8652600809871
 21
-67.692194988780059
 31
0.0
  0
LINE
  5
43C
  8
0
 10
213.8652600809871
 20
-64.092194988780051
 30
0.0
 11
213.8652600809871
 21
-67.692194988780059
 31
0.0
  0
ENDSEC
  0
EOF
