  0
SECTION
  2
HEADER
  9
$ACADVER
  1
AC1018
  9
$ACADMAINTVER
 70
   104
  9
$DWGCODEPAGE
  3
ANSI_1252
  9
$AUTHOR
  1
hoerl
  9
$CUSTOMPROPERTYTAG
  1
Manager
  9
$CUSTOMPROPERTY
  1

  9
$CUSTOMPROPERTYTAG
  1
Company
  9
$CUSTOMPROPERTY
  1

  9
$CUSTOMPROPERTYTAG
  1
Category
  9
$CUSTOMPROPERTY
  1

  9
$CUSTOMPROPERTYTAG
  1
Part Number
  9
$CUSTOMPROPERTY
  1
EW-362.820.00
  9
$CUSTOMPROPERTYTAG
  1
Description
  9
$CUSTOMPROPERTY
  1

  9
$CUSTOMPROPERTYTAG
  1
Project
  9
$CUSTOMPROPERTY
  1

  9
$CUSTOMPROPERTYTAG
  1
Designer
  9
$CUSTOMPROPERTY
  1
hoerl
  9
$CUSTOMPROPERTYTAG
  1
Engineer
  9
$CUSTOMPROPERTY
  1

  9
$CUSTOMPROPERTYTAG
  1
Authority
  9
$CUSTOMPROPERTY
  1

  9
$CUSTOMPROPERTYTAG
  1
Cost Center
  9
$CUSTOMPROPERTY
  1

  9
$CUSTOMPROPERTYTAG
  1
Vendor
  9
$CUSTOMPROPERTY
  1

  9
$CUSTOMPROPERTYTAG
  1
User Status
  9
$CUSTOMPROPERTY
  1

  9
$CUSTOMPROPERTYTAG
  1
Design Status
  9
$CUSTOMPROPERTY
  1
WorkInProgress
  9
$CUSTOMPROPERTYTAG
  1
Checked by
  9
$CUSTOMPROPERTY
  1

  9
$CUSTOMPROPERTYTAG
  1
Engr Approved by
  9
$CUSTOMPROPERTY
  1

  9
$CUSTOMPROPERTYTAG
  1
Mfg Approved by
  9
$CUSTOMPROPERTY
  1

  9
$INSBASE
 10
0.0
 20
0.0
 30
0.0
  9
$EXTMIN
 10
0.0
 20
0.0
 30
0.0
  9
$EXTMAX
 10
594.0
 20
420.0
 30
0.0
  9
$LIMMIN
 10
0.0
 20
0.0
  9
$LIMMAX
 10
594.0
 20
420.0
  9
$ORTHOMODE
 70
     0
  9
$REGENMODE
 70
     1
  9
$FILLMODE
 70
     1
  9
$QTEXTMODE
 70
     0
  9
$MIRRTEXT
 70
     0
  9
$LTSCALE
 40
1.0
  9
$ATTMODE
 70
     1
  9
$TEXTSIZE
 40
0.2
  9
$TRACEWID
 40
0.05
  9
$TEXTSTYLE
  7
Standard
  9
$CLAYER
  8
0
  9
$CELTYPE
  6
ByLayer
  9
$CECOLOR
 62
   256
  9
$CELTSCALE
 40
1.0
  9
$DISPSILH
 70
     0
  9
$DIMSCALE
 40
1.0
  9
$DIMASZ
 40
1.799999999999999
  9
$DIMEXO
 40
0.0625
  9
$DIMDLI
 40
0.38
  9
$DIMRND
 40
0.0
  9
$DIMDLE
 40
0.0
  9
$DIMEXE
 40
0.18
  9
$DIMTP
 40
0.0
  9
$DIMTM
 40
0.0
  9
$DIMTXT
 40
0.3499999940395355
  9
$DIMCEN
 40
0.09
  9
$DIMTSZ
 40
0.0
  9
$DIMTOL
 70
     0
  9
$DIMLIM
 70
     0
  9
$DIMTIH
 70
     1
  9
$DIMTOH
 70
     1
  9
$DIMSE1
 70
     0
  9
$DIMSE2
 70
     0
  9
$DIMTAD
 70
     0
  9
$DIMZIN
 70
     0
  9
$DIMBLK
  1

  9
$DIMASO
 70
     1
  9
$DIMSHO
 70
     1
  9
$DIMPOST
  1

  9
$DIMAPOST
  1

  9
$DIMALT
 70
     0
  9
$DIMALTD
 70
     2
  9
$DIMALTF
 40
25.4
  9
$DIMLFAC
 40
1.0
  9
$DIMTOFL
 70
     0
  9
$DIMTVP
 40
0.0
  9
$DIMTIX
 70
     0
  9
$DIMSOXD
 70
     0
  9
$DIMSAH
 70
     0
  9
$DIMBLK1
  1

  9
$DIMBLK2
  1

  9
$DIMSTYLE
  2
Standard
  9
$DIMCLRD
 70
     0
  9
$DIMCLRE
 70
     0
  9
$DIMCLRT
 70
     0
  9
$DIMTFAC
 40
1.0
  9
$DIMGAP
 40
0.09
  9
$DIMJUST
 70
     0
  9
$DIMSD1
 70
     0
  9
$DIMSD2
 70
     0
  9
$DIMTOLJ
 70
     1
  9
$DIMTZIN
 70
     0
  9
$DIMALTZ
 70
     0
  9
$DIMALTTZ
 70
     0
  9
$DIMUPT
 70
     0
  9
$DIMDEC
 70
     4
  9
$DIMTDEC
 70
     4
  9
$DIMALTU
 70
     2
  9
$DIMALTTD
 70
     2
  9
$DIMTXSTY
  7
Standard
  9
$DIMAUNIT
 70
     0
  9
$DIMADEC
 70
     0
  9
$DIMALTRND
 40
0.0
  9
$DIMAZIN
 70
     0
  9
$DIMDSEP
 70
    46
  9
$DIMATFIT
 70
     3
  9
$DIMFRAC
 70
     0
  9
$DIMLDRBLK
  1

  9
$DIMLUNIT
 70
     2
  9
$DIMLWD
 70
    -2
  9
$DIMLWE
 70
    -2
  9
$DIMTMOVE
 70
     0
  9
$LUNITS
 70
     2
  9
$LUPREC
 70
     4
  9
$SKETCHINC
 40
0.1
  9
$FILLETRAD
 40
0.0
  9
$AUNITS
 70
     0
  9
$AUPREC
 70
     0
  9
$MENU
  1
.
  9
$ELEVATION
 40
0.0
  9
$PELEVATION
 40
0.0
  9
$THICKNESS
 40
0.0
  9
$LIMCHECK
 70
     0
  9
$CHAMFERA
 40
0.0
  9
$CHAMFERB
 40
0.0
  9
$CHAMFERC
 40
0.0
  9
$CHAMFERD
 40
0.0
  9
$SKPOLY
 70
     0
  9
$TDCREATE
 40
2455071.545538194
  9
$TDUCREATE
 40
2455071.462204861
  9
$TDUPDATE
 40
2455071.545538194
  9
$TDUUPDATE
 40
2455071.462204861
  9
$TDINDWG
 40
0.0000229630
  9
$TDUSRTIMER
 40
0.0000229630
  9
$USRTIMER
 70
     1
  9
$ANGBASE
 50
0.0
  9
$ANGDIR
 70
     0
  9
$PDMODE
 70
     0
  9
$PDSIZE
 40
0.0
  9
$PLINEWID
 40
0.0
  9
$SPLFRAME
 70
     0
  9
$SPLINETYPE
 70
     6
  9
$SPLINESEGS
 70
     8
  9
$HANDSEED
  5
556
  9
$SURFTAB1
 70
     6
  9
$SURFTAB2
 70
     6
  9
$SURFTYPE
 70
     6
  9
$SURFU
 70
     6
  9
$SURFV
 70
     6
  9
$UCSBASE
  2

  9
$UCSNAME
  2

  9
$UCSORG
 10
0.0
 20
0.0
 30
0.0
  9
$UCSXDIR
 10
1.0
 20
0.0
 30
0.0
  9
$UCSYDIR
 10
0.0
 20
1.0
 30
0.0
  9
$UCSORTHOREF
  2

  9
$UCSORTHOVIEW
 70
     0
  9
$UCSORGTOP
 10
0.0
 20
0.0
 30
0.0
  9
$UCSORGBOTTOM
 10
0.0
 20
0.0
 30
0.0
  9
$UCSORGLEFT
 10
0.0
 20
0.0
 30
0.0
  9
$UCSORGRIGHT
 10
0.0
 20
0.0
 30
0.0
  9
$UCSORGFRONT
 10
0.0
 20
0.0
 30
0.0
  9
$UCSORGBACK
 10
0.0
 20
0.0
 30
0.0
  9
$PUCSBASE
  2

  9
$PUCSNAME
  2

  9
$PUCSORG
 10
0.0
 20
0.0
 30
0.0
  9
$PUCSXDIR
 10
1.0
 20
0.0
 30
0.0
  9
$PUCSYDIR
 10
0.0
 20
1.0
 30
0.0
  9
$PUCSORTHOREF
  2

  9
$PUCSORTHOVIEW
 70
     0
  9
$PUCSORGTOP
 10
0.0
 20
0.0
 30
0.0
  9
$PUCSORGBOTTOM
 10
0.0
 20
0.0
 30
0.0
  9
$PUCSORGLEFT
 10
0.0
 20
0.0
 30
0.0
  9
$PUCSORGRIGHT
 10
0.0
 20
0.0
 30
0.0
  9
$PUCSORGFRONT
 10
0.0
 20
0.0
 30
0.0
  9
$PUCSORGBACK
 10
0.0
 20
0.0
 30
0.0
  9
$USERI1
 70
     0
  9
$USERI2
 70
     0
  9
$USERI3
 70
     0
  9
$USERI4
 70
     0
  9
$USERI5
 70
     0
  9
$USERR1
 40
0.0
  9
$USERR2
 40
0.0
  9
$USERR3
 40
0.0
  9
$USERR4
 40
0.0
  9
$USERR5
 40
0.0
  9
$WORLDVIEW
 70
     1
  9
$SHADEDGE
 70
     3
  9
$SHADEDIF
 70
    70
  9
$TILEMODE
 70
     1
  9
$MAXACTVP
 70
    64
  9
$PINSBASE
 10
0.0
 20
0.0
 30
0.0
  9
$PLIMCHECK
 70
     0
  9
$PEXTMIN
 10
0.0
 20
0.0
 30
0.0
  9
$PEXTMAX
 10
594.0
 20
420.0
 30
0.0
  9
$PLIMMIN
 10
0.0
 20
0.0
  9
$PLIMMAX
 10
594.0
 20
420.0
  9
$UNITMODE
 70
     0
  9
$VISRETAIN
 70
     1
  9
$PLINEGEN
 70
     0
  9
$PSLTSCALE
 70
     1
  9
$TREEDEPTH
 70
  3020
  9
$CMLSTYLE
  2
Standard
  9
$CMLJUST
 70
     0
  9
$CMLSCALE
 40
1.0
  9
$PROXYGRAPHICS
 70
     1
  9
$MEASUREMENT
 70
     1
  9
$CELWEIGHT
370
    -1
  9
$ENDCAPS
280
     0
  9
$JOINSTYLE
280
     0
  9
$LWDISPLAY
290
     0
  9
$INSUNITS
 70
     4
  9
$HYPERLINKBASE
  1

  9
$STYLESHEET
  1

  9
$XEDIT
290
     1
  9
$CEPSNTYPE
380
     0
  9
$PSTYLEMODE
290
     1
  9
$FINGERPRINTGUID
  2
{DDE23F44-00C7-473E-8001-1EE86AD10CAA}
  9
$VERSIONGUID
  2
{64F96662-9D74-4CDC-85C9-10FC4BBBE995}
  9
$EXTNAMES
290
     1
  9
$PSVPSCALE
 40
0.0
  9
$OLESTARTUP
290
     0
  9
$SORTENTS
280
   127
  9
$INDEXCTL
280
     0
  9
$HIDETEXT
280
     1
  9
$XCLIPFRAME
290
     0
  9
$HALOGAP
280
     0
  9
$OBSCOLOR
 70
   257
  9
$OBSLTYPE
280
     0
  9
$INTERSECTIONDISPLAY
280
     0
  9
$INTERSECTIONCOLOR
 70
   257
  9
$DIMASSOC
280
     1
  9
$PROJECTNAME
  1

  0
ENDSEC
  0
SECTION
  2
CLASSES
  0
CLASS
  1
ACDBDICTIONARYWDFLT
  2
AcDbDictionaryWithDefault
  3
ObjectDBX Classes
 90
        0
 91
        1
280
     0
281
     0
  0
CLASS
  1
MATERIAL
  2
AcDbMaterial
  3
ObjectDBX Classes
 90
     1153
 91
        3
280
     0
281
     0
  0
CLASS
  1
VISUALSTYLE
  2
AcDbVisualStyle
  3
ObjectDBX Classes
 90
     4095
 91
       16
280
     0
281
     0
  0
CLASS
  1
SCALE
  2
AcDbScale
  3
ObjectDBX Classes
 90
     1153
 91
       33
280
     0
281
     0
  0
CLASS
  1
TABLESTYLE
  2
AcDbTableStyle
  3
ObjectDBX Classes
 90
     4095
 91
        1
280
     0
281
     0
  0
CLASS
  1
MLEADERSTYLE
  2
AcDbMLeaderStyle
  3
ACDB_MLEADERSTYLE_CLASS
 90
     4095
 91
        1
280
     0
281
     0
  0
CLASS
  1
DICTIONARYVAR
  2
AcDbDictionaryVar
  3
ObjectDBX Classes
 90
        0
 91
        7
280
     0
281
     0
  0
CLASS
  1
CELLSTYLEMAP
  2
AcDbCellStyleMap
  3
ObjectDBX Classes
 90
     1152
 91
        1
280
     0
281
     0
  0
ENDSEC
  0
SECTION
  2
TABLES
  0
TABLE
  2
VPORT
  5
8
330
0
100
AcDbSymbolTable
 70
     1
  0
VPORT
  5
5F
330
8
100
AcDbSymbolTableRecord
100
AcDbViewportTableRecord
  2
*Active
 70
     0
 10
0.0
 20
0.0
 11
1.0
 21
1.0
 12
297.0
 22
210.0
 13
0.0
 23
0.0
 14
1.0
 24
1.0
 15
0.0
 25
0.0
 16
0.0
 26
0.0
 36
1.0
 17
0.0
 27
0.0
 37
0.0
 40
420.0
 41
1.414285714285714
 42
50.0
 43
0.0
 44
0.0
 50
0.0
 51
0.0
 71
     0
 72
   100
 73
     1
 74
     1
 75
     0
 76
     0
 77
     0
 78
     0
281
     0
 65
     1
110
0.0
120
0.0
130
0.0
111
1.0
121
0.0
131
0.0
112
0.0
122
1.0
132
0.0
 79
     0
146
0.0
  0
ENDTAB
  0
TABLE
  2
LTYPE
  5
5
330
0
100
AcDbSymbolTable
 70
    59
  0
LTYPE
  5
63
330
5
100
AcDbSymbolTableRecord
100
AcDbLinetypeTableRecord
  2
ByBlock
 70
     0
  3

 72
    65
 73
     0
 40
0.0
  0
LTYPE
  5
64
330
5
100
AcDbSymbolTableRecord
100
AcDbLinetypeTableRecord
  2
ByLayer
 70
     0
  3

 72
    65
 73
     0
 40
0.0
  0
LTYPE
  5
65
330
5
100
AcDbSymbolTableRecord
100
AcDbLinetypeTableRecord
  2
Continuous
 70
     0
  3
Solid line
 72
    65
 73
     0
 40
0.0
  0
LTYPE
  5
7D
330
5
100
AcDbSymbolTableRecord
100
AcDbLinetypeTableRecord
  2
Section_View_Lines
 70
     0
  3
Section View Lines
 72
    65
 73
     4
 40
0.8406
 49
0.6614
 74
     0
 49
-0.0827
 74
     0
 49
0.0138
 74
     0
 49
-0.0827
 74
     0
  0
LTYPE
  5
7E
330
5
100
AcDbSymbolTableRecord
100
AcDbLinetypeTableRecord
  2
CHAIN
 70
     0
  3
Chain ____ _ ____ _ ____ _ ____ _ ____ _ ____
 72
    65
 73
     4
 40
0.3543
 49
0.2362
 74
     0
 49
-0.0295
 74
     0
 49
0.0591
 74
     0
 49
-0.0295
 74
     0
  0
LTYPE
  5
7F
330
5
100
AcDbSymbolTableRecord
100
AcDbLinetypeTableRecord
  2
DASH_DOT
 70
     0
  3
Dash dot _._._._._._._._._._._._._._._.
 72
    65
 73
     4
 40
0.182
 49
0.1181
 74
     0
 49
-0.0295
 74
     0
 49
0.0049
 74
     0
 49
-0.0295
 74
     0
  0
LTYPE
  5
80
330
5
100
AcDbSymbolTableRecord
100
AcDbLinetypeTableRecord
  2
DASH_DOUBLE_DOT
 70
     0
  3
Dash Double Dot __ __ . __ __ . __ __ . __ _
 72
    65
 73
     6
 40
0.2164
 49
0.1181
 74
     0
 49
-0.0295
 74
     0
 49
0.0049
 74
     0
 49
-0.0295
 74
     0
 49
0.0049
 74
     0
 49
-0.0295
 74
     0
  0
LTYPE
  5
81
330
5
100
AcDbSymbolTableRecord
100
AcDbLinetypeTableRecord
  2
DASH_TRIPLE_DOT
 70
     0
  3
Dash Triple-Dot _ . . . _ . . . _ . . . _
 72
    65
 73
     8
 40
0.2508
 49
0.1181
 74
     0
 49
-0.0295
 74
     0
 49
0.0049
 74
     0
 49
-0.0295
 74
     0
 49
0.0049
 74
     0
 49
-0.0295
 74
     0
 49
0.0049
 74
     0
 49
-0.0295
 74
     0
  0
LTYPE
  5
82
330
5
100
AcDbSymbolTableRecord
100
AcDbLinetypeTableRecord
  2
DASHED
 70
     0
  3
Dashed __ __ __ __ __ __ __ __ __ __ __ __ __ _
 72
    65
 73
     2
 40
0.2068
 49
0.1655
 74
     0
 49
-0.0413
 74
     0
  0
LTYPE
  5
83
330
5
100
AcDbSymbolTableRecord
100
AcDbLinetypeTableRecord
  2
DASHED_SPACE
 70
     0
  3
Dashed Space __ __ __ __ __ __ __ __ __ __ __ _
 72
    65
 73
     2
 40
0.2067
 49
0.1654
 74
     0
 49
-0.0413
 74
     0
  0
LTYPE
  5
84
330
5
100
AcDbSymbolTableRecord
100
AcDbLinetypeTableRecord
  2
DOTTED
 70
     0
  3
Dotted . . . . . . . . . . . . . . . . . . . . 
 72
    65
 73
     2
 40
0.0481
 49
0.0068
 74
     0
 49
-0.0413
 74
     0
  0
LTYPE
  5
85
330
5
100
AcDbSymbolTableRecord
100
AcDbLinetypeTableRecord
  2
DOUBLE_DASH_CHAIN
 70
     0
  3
Double Dash Chain ___ _ _ ___ _ _ ___ _ _ ___ _
 72
    65
 73
     6
 40
1.240299999999999
 49
0.6614
 74
     0
 49
-0.0827
 74
     0
 49
0.1654
 74
     0
 49
-0.0827
 74
     0
 49
0.1654
 74
     0
 49
-0.0827
 74
     0
  0
LTYPE
  5
86
330
5
100
AcDbSymbolTableRecord
100
AcDbLinetypeTableRecord
  2
DOUBLE_DASH_DOT
 70
     0
  3
Double Dash Dot __ __ . __ __ . __ __ . __ _
 72
    65
 73
     6
 40
0.3296
 49
0.1181
 74
     0
 49
-0.0295
 74
     0
 49
0.1181
 74
     0
 49
-0.0295
 74
     0
 49
0.0049
 74
     0
 49
-0.0295
 74
     0
  0
LTYPE
  5
87
330
5
100
AcDbSymbolTableRecord
100
AcDbLinetypeTableRecord
  2
DOUBLE_DASH_DOUBLE_DOT
 70
     0
  3
Double Dash Double Dot _ _ . . _ _ . . _ _
 72
    65
 73
     8
 40
0.364
 49
0.1181
 74
     0
 49
-0.0295
 74
     0
 49
0.1181
 74
     0
 49
-0.0295
 74
     0
 49
0.0049
 74
     0
 49
-0.0295
 74
     0
 49
0.0049
 74
     0
 49
-0.0295
 74
     0
  0
LTYPE
  5
88
330
5
100
AcDbSymbolTableRecord
100
AcDbLinetypeTableRecord
  2
DOUBLE_DASH_TRIPLE_DOT
 70
     0
  3
Double Dash Triple Dot __ __ . . . __ __ . . .
 72
    65
 73
    10
 40
0.3984
 49
0.1181
 74
     0
 49
-0.0295
 74
     0
 49
0.1181
 74
     0
 49
-0.0295
 74
     0
 49
0.0049
 74
     0
 49
-0.0295
 74
     0
 49
0.0049
 74
     0
 49
-0.0295
 74
     0
 49
0.0049
 74
     0
 49
-0.0295
 74
     0
  0
LTYPE
  5
89
330
5
100
AcDbSymbolTableRecord
100
AcDbLinetypeTableRecord
  2
LONG_DASH_DOTTED
 70
     0
  3
Long Dash Dotted ____ . ____ . ____ . ____ . _
 72
    65
 73
     4
 40
0.3001
 49
0.2362
 74
     0
 49
-0.0295
 74
     0
 49
0.0049
 74
     0
 49
-0.0295
 74
     0
  0
LTYPE
  5
8A
330
5
100
AcDbSymbolTableRecord
100
AcDbLinetypeTableRecord
  2
LONG_DASH_DOUBLE_DOT
 70
     0
  3
Long Dash Double Dot ____ . . ____ . . ____ . .
 72
    65
 73
     6
 40
0.3345
 49
0.2362
 74
     0
 49
-0.0295
 74
     0
 49
0.0049
 74
     0
 49
-0.0295
 74
     0
 49
0.0049
 74
     0
 49
-0.0295
 74
     0
  0
LTYPE
  5
8B
330
5
100
AcDbSymbolTableRecord
100
AcDbLinetypeTableRecord
  2
LONG_DASH_TRIPLE_DOT
 70
     0
  3
Long Dash Triple Dot ____ ... ____ ... ____
 72
    65
 73
     8
 40
0.3689
 49
0.2362
 74
     0
 49
-0.0295
 74
     0
 49
0.0049
 74
     0
 49
-0.0295
 74
     0
 49
0.0049
 74
     0
 49
-0.0295
 74
     0
 49
0.0049
 74
     0
 49
-0.0295
 74
     0
  0
LTYPE
  5
8C
330
5
100
AcDbSymbolTableRecord
100
AcDbLinetypeTableRecord
  2
BORDER
 70
     0
  3
Border __ __ . __ __ . __ __ . __ __ . __ __ .
 72
    65
 73
     6
 40
44.45
 49
12.7
 74
     0
 49
-6.349999999999999
 74
     0
 49
12.7
 74
     0
 49
-6.349999999999999
 74
     0
 49
0.0
 74
     0
 49
-6.349999999999999
 74
     0
  0
LTYPE
  5
8D
330
5
100
AcDbSymbolTableRecord
100
AcDbLinetypeTableRecord
  2
BORDER2
 70
     0
  3
Border (.5x) __.__.__.__.__.__.__.__.__.__.__.
 72
    65
 73
     6
 40
22.225
 49
6.349999999999999
 74
     0
 49
-3.174999999999999
 74
     0
 49
6.349999999999999
 74
     0
 49
-3.174999999999999
 74
     0
 49
0.0
 74
     0
 49
-3.174999999999999
 74
     0
  0
LTYPE
  5
8E
330
5
100
AcDbSymbolTableRecord
100
AcDbLinetypeTableRecord
  2
BORDERX2
 70
     0
  3
Border (2x) ____  ____  .  ____  ____  .  ___
 72
    65
 73
     6
 40
88.9
 49
25.4
 74
     0
 49
-12.7
 74
     0
 49
25.4
 74
     0
 49
-12.7
 74
     0
 49
0.0
 74
     0
 49
-12.7
 74
     0
  0
LTYPE
  5
8F
330
5
100
AcDbSymbolTableRecord
100
AcDbLinetypeTableRecord
  2
CENTER
 70
     0
  3
Center ____ _ ____ _ ____ _ ____ _ ____ _ ____
 72
    65
 73
     4
 40
50.8
 49
31.75
 74
     0
 49
-6.349999999999999
 74
     0
 49
6.349999999999999
 74
     0
 49
-6.349999999999999
 74
     0
  0
LTYPE
  5
90
330
5
100
AcDbSymbolTableRecord
100
AcDbLinetypeTableRecord
  2
CENTER2
 70
     0
  3
Center (.5x) ___ _ ___ _ ___ _ ___ _ ___ _ ___
 72
    65
 73
     4
 40
28.575
 49
19.05
 74
     0
 49
-3.174999999999999
 74
     0
 49
3.174999999999999
 74
     0
 49
-3.174999999999999
 74
     0
  0
LTYPE
  5
91
330
5
100
AcDbSymbolTableRecord
100
AcDbLinetypeTableRecord
  2
CENTERX2
 70
     0
  3
Center (2x) ________  __  ________  __  _____
 72
    65
 73
     4
 40
101.6
 49
63.5
 74
     0
 49
-12.7
 74
     0
 49
12.7
 74
     0
 49
-12.7
 74
     0
  0
LTYPE
  5
92
330
5
100
AcDbSymbolTableRecord
100
AcDbLinetypeTableRecord
  2
DASHDOT2
 70
     0
  3
Dash dot (.5x) _._._._._._._._._._._._._._._.
 72
    65
 73
     4
 40
12.7
 49
6.349999999999999
 74
     0
 49
-3.174999999999999
 74
     0
 49
0.0
 74
     0
 49
-3.174999999999999
 74
     0
  0
LTYPE
  5
93
330
5
100
AcDbSymbolTableRecord
100
AcDbLinetypeTableRecord
  2
DASHDOTX2
 70
     0
  3
Dash dot (2x) ____  .  ____  .  ____  .  ___
 72
    65
 73
     4
 40
50.8
 49
25.4
 74
     0
 49
-12.7
 74
     0
 49
0.0
 74
     0
 49
-12.7
 74
     0
  0
LTYPE
  5
94
330
5
100
AcDbSymbolTableRecord
100
AcDbLinetypeTableRecord
  2
DASHED2
 70
     0
  3
Dashed (.5x) _ _ _ _ _ _ _ _ _ _ _ _ _ _ _ _ _
 72
    65
 73
     2
 40
9.524999999999998
 49
6.349999999999999
 74
     0
 49
-3.174999999999999
 74
     0
  0
LTYPE
  5
95
330
5
100
AcDbSymbolTableRecord
100
AcDbLinetypeTableRecord
  2
DASHEDX2
 70
     0
  3
Dashed (2x) ____  ____  ____  ____  ____  ___
 72
    65
 73
     2
 40
38.1
 49
25.4
 74
     0
 49
-12.7
 74
     0
  0
LTYPE
  5
96
330
5
100
AcDbSymbolTableRecord
100
AcDbLinetypeTableRecord
  2
DIVIDE
 70
     0
  3
Divide ____ . . ____ . . ____ . . ____ . . ____
 72
    65
 73
     6
 40
31.75
 49
12.7
 74
     0
 49
-6.349999999999999
 74
     0
 49
0.0
 74
     0
 49
-6.349999999999999
 74
     0
 49
0.0
 74
     0
 49
-6.349999999999999
 74
     0
  0
LTYPE
  5
97
330
5
100
AcDbSymbolTableRecord
100
AcDbLinetypeTableRecord
  2
DIVIDE2
 70
     0
  3
Divide (.5x) __..__..__..__..__..__..__..__.._
 72
    65
 73
     6
 40
15.875
 49
6.349999999999999
 74
     0
 49
-3.174999999999999
 74
     0
 49
0.0
 74
     0
 49
-3.174999999999999
 74
     0
 49
0.0
 74
     0
 49
-3.174999999999999
 74
     0
  0
LTYPE
  5
98
330
5
100
AcDbSymbolTableRecord
100
AcDbLinetypeTableRecord
  2
DIVIDEX2
 70
     0
  3
Divide (2x) ________  .  .  ________  .  .  _
 72
    65
 73
     6
 40
63.49999999999999
 49
25.4
 74
     0
 49
-12.7
 74
     0
 49
0.0
 74
     0
 49
-12.7
 74
     0
 49
0.0
 74
     0
 49
-12.7
 74
     0
  0
LTYPE
  5
99
330
5
100
AcDbSymbolTableRecord
100
AcDbLinetypeTableRecord
  2
DOT
 70
     0
  3
Dot . . . . . . . . . . . . . . . . . . . . . .
 72
    65
 73
     2
 40
6.349999999999999
 49
0.0
 74
     0
 49
-6.349999999999999
 74
     0
  0
LTYPE
  5
9A
330
5
100
AcDbSymbolTableRecord
100
AcDbLinetypeTableRecord
  2
DOT2
 70
     0
  3
Dot (.5x) .....................................
 72
    65
 73
     2
 40
3.174999999999999
 49
0.0
 74
     0
 49
-3.174999999999999
 74
     0
  0
LTYPE
  5
9B
330
5
100
AcDbSymbolTableRecord
100
AcDbLinetypeTableRecord
  2
DOTX2
 70
     0
  3
Dot (2x) .  .  .  .  .  .  .  .  .  .  .  .  . 
 72
    65
 73
     2
 40
12.7
 49
0.0
 74
     0
 49
-12.7
 74
     0
  0
LTYPE
  5
9C
330
5
100
AcDbSymbolTableRecord
100
AcDbLinetypeTableRecord
  2
HIDDEN
 70
     0
  3
Hidden __ __ __ __ __ __ __ __ __ __ __ __ __ _
 72
    65
 73
     2
 40
9.524999999999998
 49
6.349999999999999
 74
     0
 49
-3.174999999999999
 74
     0
  0
LTYPE
  5
9D
330
5
100
AcDbSymbolTableRecord
100
AcDbLinetypeTableRecord
  2
HIDDEN2
 70
     0
  3
Hidden (.5x) _ _ _ _ _ _ _ _ _ _ _ _ _ _ _ _ _
 72
    65
 73
     2
 40
4.762499999999999
 49
3.174999999999999
 74
     0
 49
-1.587499999999999
 74
     0
  0
LTYPE
  5
9E
330
5
100
AcDbSymbolTableRecord
100
AcDbLinetypeTableRecord
  2
HIDDENX2
 70
     0
  3
Hidden (2x) ____ ____ ____ ____ ____ ____ ____
 72
    65
 73
     2
 40
19.05
 49
12.7
 74
     0
 49
-6.349999999999999
 74
     0
  0
LTYPE
  5
9F
330
5
100
AcDbSymbolTableRecord
100
AcDbLinetypeTableRecord
  2
PHANTOM
 70
     0
  3
Phantom ______  __  __  ______  __  __  ______
 72
    65
 73
     6
 40
63.5
 49
31.75
 74
     0
 49
-6.349999999999999
 74
     0
 49
6.349999999999999
 74
     0
 49
-6.349999999999999
 74
     0
 49
6.349999999999999
 74
     0
 49
-6.349999999999999
 74
     0
  0
LTYPE
  5
A0
330
5
100
AcDbSymbolTableRecord
100
AcDbLinetypeTableRecord
  2
PHANTOM2
 70
     0
  3
Phantom (.5x) ___ _ _ ___ _ _ ___ _ _ ___ _ _
 72
    65
 73
     6
 40
31.75
 49
15.875
 74
     0
 49
-3.174999999999999
 74
     0
 49
3.174999999999999
 74
     0
 49
-3.174999999999999
 74
     0
 49
3.174999999999999
 74
     0
 49
-3.174999999999999
 74
     0
  0
LTYPE
  5
A1
330
5
100
AcDbSymbolTableRecord
100
AcDbLinetypeTableRecord
  2
PHANTOMX2
 70
     0
  3
Phantom (2x) ____________    ____    ____   _
 72
    65
 73
     6
 40
127.0
 49
63.5
 74
     0
 49
-12.7
 74
     0
 49
12.7
 74
     0
 49
-12.7
 74
     0
 49
12.7
 74
     0
 49
-12.7
 74
     0
  0
LTYPE
  5
A2
330
5
100
AcDbSymbolTableRecord
100
AcDbLinetypeTableRecord
  2
ACAD_ISO02W100
 70
     0
  3
ISO dash __ __ __ __ __ __ __ __ __ __ __ __ __
 72
    65
 73
     2
 40
15.0
 49
12.0
 74
     0
 49
-3.0
 74
     0
  0
LTYPE
  5
A3
330
5
100
AcDbSymbolTableRecord
100
AcDbLinetypeTableRecord
  2
ACAD_ISO03W100
 70
     0
  3
ISO dash space __    __    __    __    __    __
 72
    65
 73
     2
 40
30.0
 49
12.0
 74
     0
 49
-18.0
 74
     0
  0
LTYPE
  5
A4
330
5
100
AcDbSymbolTableRecord
100
AcDbLinetypeTableRecord
  2
ACAD_ISO04W100
 70
     0
  3
ISO long-dash dot ____ . ____ . ____ . ____ . _
 72
    65
 73
     4
 40
30.0
 49
24.0
 74
     0
 49
-3.0
 74
     0
 49
0.0
 74
     0
 49
-3.0
 74
     0
  0
LTYPE
  5
A5
330
5
100
AcDbSymbolTableRecord
100
AcDbLinetypeTableRecord
  2
ACAD_ISO05W100
 70
     0
  3
ISO long-dash double-dot ____ .. ____ .. ____ .
 72
    65
 73
     6
 40
33.0
 49
24.0
 74
     0
 49
-3.0
 74
     0
 49
0.0
 74
     0
 49
-3.0
 74
     0
 49
0.0
 74
     0
 49
-3.0
 74
     0
  0
LTYPE
  5
A6
330
5
100
AcDbSymbolTableRecord
100
AcDbLinetypeTableRecord
  2
ACAD_ISO06W100
 70
     0
  3
ISO long-dash triple-dot ____ ... ____ ... ____
 72
    65
 73
     8
 40
36.0
 49
24.0
 74
     0
 49
-3.0
 74
     0
 49
0.0
 74
     0
 49
-3.0
 74
     0
 49
0.0
 74
     0
 49
-3.0
 74
     0
 49
0.0
 74
     0
 49
-3.0
 74
     0
  0
LTYPE
  5
A7
330
5
100
AcDbSymbolTableRecord
100
AcDbLinetypeTableRecord
  2
ACAD_ISO07W100
 70
     0
  3
ISO dot . . . . . . . . . . . . . . . . . . . .
 72
    65
 73
     2
 40
3.0
 49
0.0
 74
     0
 49
-3.0
 74
     0
  0
LTYPE
  5
A8
330
5
100
AcDbSymbolTableRecord
100
AcDbLinetypeTableRecord
  2
ACAD_ISO08W100
 70
     0
  3
ISO long-dash short-dash ____ __ ____ __ ____ _
 72
    65
 73
     4
 40
36.0
 49
24.0
 74
     0
 49
-3.0
 74
     0
 49
6.0
 74
     0
 49
-3.0
 74
     0
  0
LTYPE
  5
A9
330
5
100
AcDbSymbolTableRecord
100
AcDbLinetypeTableRecord
  2
ACAD_ISO09W100
 70
     0
  3
ISO long-dash double-short-dash ____ __ __ ____
 72
    65
 73
     6
 40
45.0
 49
24.0
 74
     0
 49
-3.0
 74
     0
 49
6.0
 74
     0
 49
-3.0
 74
     0
 49
6.0
 74
     0
 49
-3.0
 74
     0
  0
LTYPE
  5
AA
330
5
100
AcDbSymbolTableRecord
100
AcDbLinetypeTableRecord
  2
ACAD_ISO10W100
 70
     0
  3
ISO dash dot __ . __ . __ . __ . __ . __ . __ .
 72
    65
 73
     4
 40
18.0
 49
12.0
 74
     0
 49
-3.0
 74
     0
 49
0.0
 74
     0
 49
-3.0
 74
     0
  0
LTYPE
  5
AB
330
5
100
AcDbSymbolTableRecord
100
AcDbLinetypeTableRecord
  2
ACAD_ISO11W100
 70
     0
  3
ISO double-dash dot __ __ . __ __ . __ __ . __ 
 72
    65
 73
     6
 40
33.0
 49
12.0
 74
     0
 49
-3.0
 74
     0
 49
12.0
 74
     0
 49
-3.0
 74
     0
 49
0.0
 74
     0
 49
-3.0
 74
     0
  0
LTYPE
  5
AC
330
5
100
AcDbSymbolTableRecord
100
AcDbLinetypeTableRecord
  2
ACAD_ISO12W100
 70
     0
  3
ISO dash double-dot __ . . __ . . __ . . __ . .
 72
    65
 73
     6
 40
21.0
 49
12.0
 74
     0
 49
-3.0
 74
     0
 49
0.0
 74
     0
 49
-3.0
 74
     0
 49
0.0
 74
     0
 49
-3.0
 74
     0
  0
LTYPE
  5
AD
330
5
100
AcDbSymbolTableRecord
100
AcDbLinetypeTableRecord
  2
ACAD_ISO13W100
 70
     0
  3
ISO double-dash double-dot __ __ . . __ __ . . 
 72
    65
 73
     8
 40
36.0
 49
12.0
 74
     0
 49
-3.0
 74
     0
 49
12.0
 74
     0
 49
-3.0
 74
     0
 49
0.0
 74
     0
 49
-3.0
 74
     0
 49
0.0
 74
     0
 49
-3.0
 74
     0
  0
LTYPE
  5
AE
330
5
100
AcDbSymbolTableRecord
100
AcDbLinetypeTableRecord
  2
ACAD_ISO14W100
 70
     0
  3
ISO dash triple-dot __ . . . __ . . . __ . . . 
 72
    65
 73
     8
 40
24.0
 49
12.0
 74
     0
 49
-3.0
 74
     0
 49
0.0
 74
     0
 49
-3.0
 74
     0
 49
0.0
 74
     0
 49
-3.0
 74
     0
 49
0.0
 74
     0
 49
-3.0
 74
     0
  0
LTYPE
  5
AF
330
5
100
AcDbSymbolTableRecord
100
AcDbLinetypeTableRecord
  2
ACAD_ISO15W100
 70
     0
  3
ISO double-dash triple-dot __ __ . . . __ __ . 
 72
    65
 73
    10
 40
39.0
 49
12.0
 74
     0
 49
-3.0
 74
     0
 49
12.0
 74
     0
 49
-3.0
 74
     0
 49
0.0
 74
     0
 49
-3.0
 74
     0
 49
0.0
 74
     0
 49
-3.0
 74
     0
 49
0.0
 74
     0
 49
-3.0
 74
     0
  0
LTYPE
  5
B2
330
5
100
AcDbSymbolTableRecord
100
AcDbLinetypeTableRecord
  2
FENCELINE1
 70
     0
  3
Fenceline circle ----0-----0----0-----0----0---
 72
    65
 73
     4
 40
36.83
 49
6.349999999999999
 74
     0
 49
-2.54
 74
     4
 75
   133
340
B1
 46
2.54
 50
0.0
 44
-2.54
 45
0.0
 49
-2.54
 74
     0
 49
25.4
 74
     0
  0
LTYPE
  5
B3
330
5
100
AcDbSymbolTableRecord
100
AcDbLinetypeTableRecord
  2
FENCELINE2
 70
     0
  3
Fenceline square ----[]-----[]----[]-----[]----
 72
    65
 73
     4
 40
36.83
 49
6.349999999999999
 74
     0
 49
-2.54
 74
     4
 75
   132
340
B1
 46
2.54
 50
0.0
 44
-2.54
 45
0.0
 49
-2.54
 74
     0
 49
25.4
 74
     0
  0
LTYPE
  5
B4
330
5
100
AcDbSymbolTableRecord
100
AcDbLinetypeTableRecord
  2
TRACKS
 70
     0
  3
Tracks -|-|-|-|-|-|-|-|-|-|-|-|-|-|-|-|-|-|-|-|
 72
    65
 73
     2
 40
7.62
 49
3.81
 74
     4
 75
   130
340
B1
 46
6.349999999999999
 50
0.0
 44
0.0
 45
0.0
 49
3.81
 74
     0
  0
LTYPE
  5
B5
330
5
100
AcDbSymbolTableRecord
100
AcDbLinetypeTableRecord
  2
BATTING
 70
     0
  3
Batting SSSSSSSSSSSSSSSSSSSSSSSSSSSSSSSSSSSSSSS
 72
    65
 73
     4
 40
10.16254
 49
0.00254
 74
     0
 49
-2.54
 74
     4
 75
   134
340
B1
 46
2.54
 50
0.0
 44
-2.54
 45
0.0
 49
-5.08
 74
     4
 75
   134
340
B1
 46
2.54
 50
180.0
 44
2.54
 45
0.0
 49
-2.54
 74
     0
  0
LTYPE
  5
B6
330
5
100
AcDbSymbolTableRecord
100
AcDbLinetypeTableRecord
  2
HOT_WATER_SUPPLY
 70
     0
  3
Hot water supply ---- HW ---- HW ---- HW ----
 72
    65
 73
     3
 40
22.86
 49
12.7
 74
     0
 49
-5.08
 74
     2
 75
     0
340
5D
 46
2.54
 50
0.0
 44
-2.54
 45
-1.27
  9
HW
 49
-5.08
 74
     0
  0
LTYPE
  5
B7
330
5
100
AcDbSymbolTableRecord
100
AcDbLinetypeTableRecord
  2
GAS_LINE
 70
     0
  3
Gas line ----GAS----GAS----GAS----GAS----GAS---
 72
    65
 73
     3
 40
24.13
 49
12.7
 74
     0
 49
-5.08
 74
     2
 75
     0
340
5D
 46
2.54
 50
0.0
 44
-2.54
 45
-1.27
  9
GAS
 49
-6.349999999999999
 74
     0
  0
LTYPE
  5
B8
330
5
100
AcDbSymbolTableRecord
100
AcDbLinetypeTableRecord
  2
ZIGZAG
 70
     0
  3
Zig zag /\/\/\/\/\/\/\/\/\/\/\/\/\/\/\/\/\/\/\/
 72
    65
 73
     4
 40
20.32254
 49
0.00254
 74
     0
 49
-5.08
 74
     4
 75
   131
340
B1
 46
5.08
 50
0.0
 44
-5.08
 45
0.0
 49
-10.16
 74
     4
 75
   131
340
B1
 46
5.08
 50
180.0
 44
5.08
 45
0.0
 49
-5.08
 74
     0
  0
ENDTAB
  0
TABLE
  2
LAYER
  5
2
330
0
100
AcDbSymbolTable
 70
    25
  0
LAYER
  5
5C
330
2
100
AcDbSymbolTableRecord
100
AcDbLayerTableRecord
  2
0
 70
     0
 62
     7
  6
Continuous
370
    -3
390
F
  0
LAYER
  5
C3
330
2
100
AcDbSymbolTableRecord
100
AcDbLayerTableRecord
  2
Hidden (ISO)
 70
     0
 62
     7
  6
Continuous
370
    35
390
F
  0
LAYER
  5
CC
330
2
100
AcDbSymbolTableRecord
100
AcDbLayerTableRecord
  2
Visible (ISO)
 70
     0
 62
     7
  6
Continuous
370
    50
390
F
  0
LAYER
  5
CD
330
2
100
AcDbSymbolTableRecord
100
AcDbLayerTableRecord
  2
Visible Narrow (ISO)
 70
     0
 62
     7
  6
Continuous
370
    35
390
F
  0
ENDTAB
  0
TABLE
  2
STYLE
  5
3
330
0
100
AcDbSymbolTable
 70
    15
  0
STYLE
  5
5D
330
3
100
AcDbSymbolTableRecord
100
AcDbTextStyleTableRecord
  2
Standard
 70
     0
 40
0.0
 41
1.0
 50
0.0
 71
     0
 42
0.2
  3
TAHOMA.TTF
  4

1001
ACAD
1000
Tahoma
1071
      256
  0
STYLE
  5
62
330
3
100
AcDbSymbolTableRecord
100
AcDbTextStyleTableRecord
  2
Annotative
 70
     0
 40
0.0
 41
1.0
 50
0.0
 71
     0
 42
0.2
  3
txt
  4

1001
AcadAnnotative
1000
AnnotativeData
1002
{
1070
     1
1070
     1
1002
}
  0
STYLE
  5
B1
330
3
100
AcDbSymbolTableRecord
100
AcDbTextStyleTableRecord
  2

 70
     1
 40
0.0
 41
1.0
 50
0.0
 71
     0
 42
0.2
  3
ltypeshp.shx
  4

  0
STYLE
  5
D1
330
3
100
AcDbSymbolTableRecord
100
AcDbTextStyleTableRecord
  2
Alternative Text (GOST)
 70
     0
 40
0.0
 41
0.8000000119209289
 50
0.0
 71
     0
 42
0.2
  3
ARIAL.TTF
  4

1001
ACAD
1000
Arial
1071
      256
  0
STYLE
  5
D2
330
3
100
AcDbSymbolTableRecord
100
AcDbTextStyleTableRecord
  2
Condensed Text (GOST)
 70
     0
 40
0.0
 41
0.8000000119209289
 50
0.0
 71
     0
 42
0.2
  3
GOST Common.ttf
  4

1001
ACAD
1000
GOST Common
1071
      256
  0
STYLE
  5
D3
330
3
100
AcDbSymbolTableRecord
100
AcDbTextStyleTableRecord
  2
Enlarged Text (GOST)
 70
     0
 40
0.0
 41
1.0
 50
0.0
 71
     0
 42
0.2
  3
GOST Common.ttf
  4

1001
ACAD
1000
GOST Common
1071
      256
  0
STYLE
  5
D4
330
3
100
AcDbSymbolTableRecord
100
AcDbTextStyleTableRecord
  2
Label Text (ANSI)
 70
     0
 40
0.0
 41
1.0
 50
0.0
 71
     0
 42
0.2
  3
TAHOMA.TTF
  4

1001
ACAD
1000
Tahoma
1071
      256
  0
STYLE
  5
D5
330
3
100
AcDbSymbolTableRecord
100
AcDbTextStyleTableRecord
  2
Label Text (DIN)
 70
     0
 40
0.0
 41
1.0
 50
0.0
 71
     0
 42
0.2
  3
isocpeur.ttf
  4

1001
ACAD
1000
ISOCPEUR
1071
      256
  0
STYLE
  5
D6
330
3
100
AcDbSymbolTableRecord
100
AcDbTextStyleTableRecord
  2
Label Text (ISO)
 70
     0
 40
0.0
 41
1.0
 50
0.0
 71
     0
 42
0.2
  3
TAHOMA.TTF
  4

1001
ACAD
1000
Tahoma
1071
      256
  0
STYLE
  5
D7
330
3
100
AcDbSymbolTableRecord
100
AcDbTextStyleTableRecord
  2
Label Text (JIS)
 70
     0
 40
0.0
 41
1.0
 50
0.0
 71
     0
 42
0.2
  3
TAHOMA.TTF
  4

1001
ACAD
1000
Tahoma
1071
      256
  0
STYLE
  5
D8
330
3
100
AcDbSymbolTableRecord
100
AcDbTextStyleTableRecord
  2
Note Text (ANSI)
 70
     0
 40
0.0
 41
1.0
 50
0.0
 71
     0
 42
0.2
  3
TAHOMA.TTF
  4

1001
ACAD
1000
Tahoma
1071
      256
  0
STYLE
  5
D9
330
3
100
AcDbSymbolTableRecord
100
AcDbTextStyleTableRecord
  2
Note Text (DIN)
 70
     0
 40
0.0
 41
1.0
 50
0.0
 71
     0
 42
0.2
  3
isocpeur.ttf
  4

1001
ACAD
1000
ISOCPEUR
1071
      256
  0
STYLE
  5
DA
330
3
100
AcDbSymbolTableRecord
100
AcDbTextStyleTableRecord
  2
Note Text (ISO)
 70
     0
 40
0.0
 41
1.0
 50
0.0
 71
     0
 42
0.2
  3
TAHOMA.TTF
  4

1001
ACAD
1000
Tahoma
1071
      256
  0
STYLE
  5
DB
330
3
100
AcDbSymbolTableRecord
100
AcDbTextStyleTableRecord
  2
Note Text (JIS)
 70
     0
 40
0.0
 41
1.0
 50
0.0
 71
     0
 42
0.2
  3
TAHOMA.TTF
  4

1001
ACAD
1000
Tahoma
1071
      256
  0
STYLE
  5
DC
330
3
100
AcDbSymbolTableRecord
100
AcDbTextStyleTableRecord
  2
Regular Text (GOST)
 70
     0
 40
0.0
 41
1.0
 50
0.0
 71
     0
 42
0.2
  3
GOST Common.ttf
  4

1001
ACAD
1000
GOST Common
1071
      256
  0
ENDTAB
  0
TABLE
  2
VIEW
  5
6
330
0
100
AcDbSymbolTable
 70
     0
  0
ENDTAB
  0
TABLE
  2
UCS
  5
7
330
0
100
AcDbSymbolTable
 70
     0
  0
ENDTAB
  0
TABLE
  2
APPID
  5
9
330
0
100
AcDbSymbolTable
 70
     3
  0
APPID
  5
5E
330
9
100
AcDbSymbolTableRecord
100
AcDbRegAppTableRecord
  2
ACAD
 70
     0
  0
APPID
  5
66
330
9
100
AcDbSymbolTableRecord
100
AcDbRegAppTableRecord
  2
AcadAnnotative
 70
     0
  0
APPID
  5
70
330
9
100
AcDbSymbolTableRecord
100
AcDbRegAppTableRecord
  2
ACAD_MLEADERVER
 70
     0
  0
ENDTAB
  0
TABLE
  2
DIMSTYLE
  5
A
330
0
100
AcDbSymbolTable
 70
    15
100
AcDbDimStyleTable
 71
     0
  0
DIMSTYLE
105
60
330
A
100
AcDbSymbolTableRecord
100
AcDbDimStyleTableRecord
  2
Standard
 70
     0
340
5D
  0
DIMSTYLE
105
61
330
A
100
AcDbSymbolTableRecord
100
AcDbDimStyleTableRecord
  2
Annotative
 70
     0
340
5D
1001
AcadAnnotative
1000
AnnotativeData
1002
{
1070
     1
1070
     1
1002
}
  0
DIMSTYLE
105
DD
330
A
100
AcDbSymbolTableRecord
100
AcDbDimStyleTableRecord
  2
Default - Method 1b (ISO)
 70
     0
 41
2.5
 42
0.0
 43
5.999999999999999
 44
3.174999999999999
 45
0.00000001
 46
10.0
 73
     0
 77
     1
 78
     8
 79
     2
140
3.5
143
0.03937
147
0.762
171
     3
172
     1
176
   256
177
   256
178
   256
179
     2
271
     2
272
     2
274
     3
278
    44
284
     8
286
     8
340
DA
371
    -1
372
    -1
  0
DIMSTYLE
105
DE
330
A
100
AcDbSymbolTableRecord
100
AcDbDimStyleTableRecord
  2
Default - Method 1b (ISO)$7
 70
     0
 41
2.5
 42
0.0
 43
5.999999999999999
 44
3.174999999999999
 45
0.00000001
 46
10.0
 73
     0
 77
     1
 78
     8
 79
     2
140
3.5
143
0.03937
147
0.762
171
     3
172
     1
176
   256
177
   256
178
   256
179
     2
271
     2
272
     2
274
     3
278
    44
284
     8
286
     8
340
DA
371
    -1
372
    -1
  0
DIMSTYLE
105
DF
330
A
100
AcDbSymbolTableRecord
100
AcDbDimStyleTableRecord
  2
Default - Method 2a (ISO)
 70
     0
 41
2.5
 42
0.0
 43
5.999999999999999
 44
3.174999999999999
 45
0.00000001
 46
10.0
 77
     1
 78
     8
 79
     2
140
3.5
143
0.03937
147
0.762
171
     3
172
     1
176
   256
177
   256
178
   256
179
     2
271
     2
272
     2
274
     3
278
    44
284
     8
286
     8
340
DA
371
    -1
372
    -1
  0
DIMSTYLE
105
E0
330
A
100
AcDbSymbolTableRecord
100
AcDbDimStyleTableRecord
  2
Default - Method 2a (ISO)$7
 70
     0
 41
2.5
 42
0.0
 43
5.999999999999999
 44
3.174999999999999
 45
0.00000001
 46
10.0
 77
     1
 78
     8
 79
     2
140
3.5
143
0.03937
147
0.762
171
     3
172
     1
176
   256
177
   256
178
   256
179
     2
271
     2
272
     2
274
     3
278
    44
284
     8
286
     8
340
DA
371
    -1
372
    -1
  0
DIMSTYLE
105
E1
330
A
100
AcDbSymbolTableRecord
100
AcDbDimStyleTableRecord
  2
Default - Method 2b (ISO)
 70
     0
 41
2.5
 42
0.0
 43
5.999999999999999
 44
3.174999999999999
 45
0.00000001
 46
10.0
 77
     1
 78
     8
 79
     2
140
3.5
143
0.03937
147
0.762
171
     3
172
     1
176
   256
177
   256
178
   256
179
     2
271
     2
272
     2
274
     3
278
    44
284
     8
286
     8
340
DA
371
    -1
372
    -1
  0
DIMSTYLE
105
E2
330
A
100
AcDbSymbolTableRecord
100
AcDbDimStyleTableRecord
  2
Default - Method 2b (ISO)$7
 70
     0
 41
2.5
 42
0.0
 43
5.999999999999999
 44
3.174999999999999
 45
0.00000001
 46
10.0
 77
     1
 78
     8
 79
     2
140
3.5
143
0.03937
147
0.762
171
     3
172
     1
176
   256
177
   256
178
   256
179
     2
271
     2
272
     2
274
     3
278
    44
284
     8
286
     8
340
DA
371
    -1
372
    -1
  0
DIMSTYLE
105
E3
330
A
100
AcDbSymbolTableRecord
100
AcDbDimStyleTableRecord
  2
Default - mm [in] (ISO)
 70
     0
  4
 in
 41
2.5
 42
0.0
 43
5.999999999999999
 44
3.174999999999999
 45
0.00000001
 46
10.0
 73
     0
 74
     0
 77
     1
 78
     8
 79
     2
140
3.5
143
0.03937
147
0.762
170
     1
171
     3
172
     1
176
   256
177
   256
178
   256
179
     3
271
     3
272
     2
274
     3
275
     1
278
    44
284
     8
285
     8
286
     8
340
DA
371
    -1
372
    -1
  0
DIMSTYLE
105
E4
330
A
100
AcDbSymbolTableRecord
100
AcDbDimStyleTableRecord
  2
Default - mm [in] (ISO)$7
 70
     0
  4
 in
 41
2.5
 42
0.0
 43
5.999999999999999
 44
3.174999999999999
 45
0.00000001
 46
10.0
 73
     0
 74
     0
 77
     1
 78
     8
 79
     2
140
3.5
143
0.03937
147
0.762
170
     1
171
     3
172
     1
176
   256
177
   256
178
   256
179
     3
271
     3
272
     2
274
     3
275
     1
278
    44
284
     8
285
     8
286
     8
340
DA
371
    -1
372
    -1
  0
DIMSTYLE
105
E5
330
A
100
AcDbSymbolTableRecord
100
AcDbDimStyleTableRecord
  2
Default (ISO)
 70
     0
 41
2.5
 42
0.0
 43
5.999999999999999
 44
3.174999999999999
 45
0.00000001
 46
10.0
 73
     0
 74
     0
 77
     1
140
3.5
143
0.03937
146
1.001485756465366
147
0.762
171
     3
172
     1
176
   256
177
   256
178
   256
179
     2
271
     2
272
     2
274
     3
278
    44
340
DA
371
    -1
372
    -1
  0
DIMSTYLE
105
E6
330
A
100
AcDbSymbolTableRecord
100
AcDbDimStyleTableRecord
  2
Default (ISO)$7
 70
     0
 41
2.5
 42
0.0
 43
5.999999999999999
 44
3.174999999999999
 45
0.00000001
 46
10.0
 73
     0
 74
     0
 77
     1
140
3.5
143
0.03937
146
1.001485756465366
147
0.762
171
     3
172
     1
176
   256
177
   256
178
   256
179
     2
271
     2
272
     2
274
     3
278
    44
340
DA
371
    -1
372
    -1
  0
DIMSTYLE
105
E7
330
A
100
AcDbSymbolTableRecord
100
AcDbDimStyleTableRecord
  2
Alternate (ISO)
 70
     0
 41
2.5
340
5D
342
E8
  0
DIMSTYLE
105
F9
330
A
100
AcDbSymbolTableRecord
100
AcDbDimStyleTableRecord
  2
Datum (ISO)
 70
     0
 41
2.5
340
5D
342
E8
  0
DIMSTYLE
105
108
330
A
100
AcDbSymbolTableRecord
100
AcDbDimStyleTableRecord
  2
Large (ISO)
 70
     0
 41
5.0
340
5D
342
E8
  0
ENDTAB
  0
TABLE
  2
BLOCK_RECORD
  5
1
330
0
100
AcDbSymbolTable
 70
     4
  0
BLOCK_RECORD
  5
75
330
1
100
AcDbSymbolTableRecord
100
AcDbBlockTableRecord
  2
*Model_Space
340
78
  0
BLOCK_RECORD
  5
71
330
1
100
AcDbSymbolTableRecord
100
AcDbBlockTableRecord
  2
*Paper_Space
340
74
  0
BLOCK_RECORD
  5
79
330
1
100
AcDbSymbolTableRecord
100
AcDbBlockTableRecord
  2
*Paper_Space0
340
7C
  0
BLOCK_RECORD
  5
E8
330
1
100
AcDbSymbolTableRecord
100
AcDbBlockTableRecord
  2
_Closed
340
0
  0
BLOCK_RECORD
  5
EF
330
1
100
AcDbSymbolTableRecord
100
AcDbBlockTableRecord
  2
DatumFilled45
340
0
  0
BLOCK_RECORD
  5
FA
330
1
100
AcDbSymbolTableRecord
100
AcDbBlockTableRecord
  2
Filled-1
340
0
  0
ENDTAB
  0
ENDSEC
  0
SECTION
  2
BLOCKS
  0
BLOCK
  5
76
330
75
100
AcDbEntity
  8
0
100
AcDbBlockBegin
  2
*Model_Space
 70
     0
 10
0.0
 20
0.0
 30
0.0
  3
*Model_Space
  1

  0
ENDBLK
  5
77
330
75
100
AcDbEntity
  8
0
100
AcDbBlockEnd
  0
BLOCK
  5
72
330
71
100
AcDbEntity
 67
     1
  8
0
100
AcDbBlockBegin
  2
*Paper_Space
 70
     0
 10
0.0
 20
0.0
 30
0.0
  3
*Paper_Space
  1

  0
ENDBLK
  5
73
330
71
100
AcDbEntity
 67
     1
  8
0
100
AcDbBlockEnd
  0
BLOCK
  5
7A
330
79
100
AcDbEntity
 67
     1
  8
0
100
AcDbBlockBegin
  2
*Paper_Space0
 70
     0
 10
0.0
 20
0.0
 30
0.0
  3
*Paper_Space0
  1

  0
ENDBLK
  5
7B
330
79
100
AcDbEntity
 67
     1
  8
0
100
AcDbBlockEnd
  0
BLOCK
  5
ED
330
E8
100
AcDbEntity
  8
0
100
AcDbBlockBegin
  2
_Closed
 70
     0
 10
0.0
 20
0.0
 30
0.0
  3
_Closed
  1

  0
LINE
  5
E9
330
E8
100
AcDbEntity
  8
0
  6
ByBlock
 62
     0
370
    -2
100
AcDbLine
 10
-1.0
 20
0.1666666666666666
 30
0.0
 11
0.0
 21
0.0
 31
0.0
  0
LINE
  5
EA
330
E8
100
AcDbEntity
  8
0
  6
ByBlock
 62
     0
370
    -2
100
AcDbLine
 10
0.0
 20
0.0
 30
0.0
 11
-1.0
 21
-0.1666666666666666
 31
0.0
  0
LINE
  5
EB
330
E8
100
AcDbEntity
  8
0
  6
ByBlock
 62
     0
370
    -2
100
AcDbLine
 10
-1.0
 20
0.1666666666666666
 30
0.0
 11
-1.0
 21
-0.1666666666666666
 31
0.0
  0
LINE
  5
EC
330
E8
100
AcDbEntity
  8
0
  6
ByBlock
 62
     0
370
    -2
100
AcDbLine
 10
0.0
 20
0.0
 30
0.0
 11
-1.0
 21
0.0
 31
0.0
  0
ENDBLK
  5
EE
330
E8
100
AcDbEntity
  8
0
100
AcDbBlockEnd
  0
BLOCK
  5
F0
330
EF
100
AcDbEntity
  8
0
100
AcDbBlockBegin
  2
DatumFilled45
 70
     0
 10
0.0
 20
0.0
 30
0.0
  3
DatumFilled45
  1

  0
POLYLINE
  5
F2
330
EF
100
AcDbEntity
  8
0
 62
     0
100
AcDb2dPolyline
 66
     1
 10
0.0
 20
0.0
 30
0.0
 70
   128
  0
VERTEX
  5
F3
330
F2
100
AcDbEntity
  8
0
 62
     0
100
AcDbVertex
100
AcDb2dVertex
 10
0.0
 20
1.0
 30
0.0
  0
VERTEX
  5
F4
330
F2
100
AcDbEntity
  8
0
 62
     0
100
AcDbVertex
100
AcDb2dVertex
 10
0.0
 20
-1.0
 30
0.0
  0
VERTEX
  5
F6
330
F2
100
AcDbEntity
  8
0
 62
     0
100
AcDbVertex
100
AcDb2dVertex
 10
-1.0
 20
0.0
 30
0.0
  0
VERTEX
  5
F7
330
F2
100
AcDbEntity
  8
0
 62
     0
100
AcDbVertex
100
AcDb2dVertex
 10
0.0
 20
1.0
 30
0.0
  0
SEQEND
  5
F5
330
F2
100
AcDbEntity
  8
0
 62
     0
  0
SOLID
  5
F8
330
EF
100
AcDbEntity
  8
0
 62
     0
100
AcDbTrace
 10
0.0
 20
1.0
 30
0.0
 11
0.0
 21
-1.0
 31
0.0
 12
-1.0
 22
0.0
 32
0.0
 13
0.0
 23
1.0
 33
0.0
  0
ENDBLK
  5
F1
330
EF
100
AcDbEntity
  8
0
100
AcDbBlockEnd
  0
BLOCK
  5
FB
330
FA
100
AcDbEntity
  8
0
100
AcDbBlockBegin
  2
Filled-1
 70
     0
 10
0.0
 20
0.0
 30
0.0
  3
Filled-1
  1

  0
LINE
  5
FD
330
FA
100
AcDbEntity
  8
0
 62
     0
100
AcDbLine
 10
-1.0
 20
0.0
 30
0.0
 11
0.0
 21
0.0
 31
0.0
  0
POLYLINE
  5
FE
330
FA
100
AcDbEntity
  8
0
 62
     0
100
AcDb2dPolyline
 66
     1
 10
0.0
 20
0.0
 30
0.0
 70
   128
  0
VERTEX
  5
FF
330
FE
100
AcDbEntity
  8
0
 62
     0
100
AcDbVertex
100
AcDb2dVertex
 10
-1.0
 20
-0.1
 30
0.0
  0
VERTEX
  5
100
330
FE
100
AcDbEntity
  8
0
 62
     0
100
AcDbVertex
100
AcDb2dVertex
 10
0.0
 20
0.0
 30
0.0
  0
VERTEX
  5
102
330
FE
100
AcDbEntity
  8
0
 62
     0
100
AcDbVertex
100
AcDb2dVertex
 10
-1.0
 20
0.1
 30
0.0
  0
VERTEX
  5
103
330
FE
100
AcDbEntity
  8
0
 62
     0
100
AcDbVertex
100
AcDb2dVertex
 10
-1.0
 20
-0.1
 30
0.0
  0
SEQEND
  5
101
330
FE
100
AcDbEntity
  8
0
 62
     0
  0
SOLID
  5
104
330
FA
100
AcDbEntity
  8
0
 62
     0
100
AcDbTrace
 10
-1.0
 20
-0.1
 30
0.0
 11
0.0
 21
0.0
 31
0.0
 12
-1.0
 22
0.1
 32
0.0
 13
-1.0
 23
-0.1
 33
0.0
  0
LINE
  5
105
330
FA
100
AcDbEntity
  8
0
 62
     0
100
AcDbLine
 10
-1.0
 20
-0.1
 30
0.0
 11
0.0
 21
0.0
 31
0.0
  0
LINE
  5
106
330
FA
100
AcDbEntity
  8
0
 62
     0
100
AcDbLine
 10
0.0
 20
0.0
 30
0.0
 11
-1.0
 21
0.1
 31
0.0
  0
LINE
  5
107
330
FA
100
AcDbEntity
  8
0
 62
     0
100
AcDbLine
 10
-1.0
 20
0.1
 30
0.0
 11
-1.0
 21
-0.1
 31
0.0
  0
ENDBLK
  5
FC
330
FA
100
AcDbEntity
  8
0
100
AcDbBlockEnd
  0
ENDSEC
  0
SECTION
  2
ENTITIES
  0
LINE
  5
109
330
75
100
AcDbEntity
  8
Hidden (ISO)
100
AcDbLine
 10
286.8290499990396
 20
235.4830972473275
 30
0.0
 11
286.8290499990396
 21
232.1830972473275
 31
0.0
  0
LINE
  5
10A
330
75
100
AcDbEntity
  8
Hidden (ISO)
100
AcDbLine
 10
286.8290499990396
 20
186.8830972473274
 30
0.0
 11
286.8290499990396
 21
183.5830972473274
 31
0.0
  0
LINE
  5
10B
330
75
100
AcDbEntity
  8
Hidden (ISO)
100
AcDbLine
 10
286.8290499990396
 20
232.1830972473275
 30
0.0
 11
285.0905335183262
 21
232.1830972473275
 31
0.0
  0
LINE
  5
10C
330
75
100
AcDbEntity
  8
Hidden (ISO)
100
AcDbLine
 10
286.8290499990396
 20
235.4830972473275
 30
0.0
 11
285.0905335183262
 21
235.4830972473275
 31
0.0
  0
LINE
  5
10D
330
75
100
AcDbEntity
  8
Hidden (ISO)
100
AcDbLine
 10
286.8290499990396
 20
183.5830972473274
 30
0.0
 11
285.0905335183262
 21
183.5830972473274
 31
0.0
  0
LINE
  5
10E
330
75
100
AcDbEntity
  8
Hidden (ISO)
100
AcDbLine
 10
286.8290499990396
 20
186.8830972473275
 30
0.0
 11
285.0905335183262
 21
186.8830972473275
 31
0.0
  0
LINE
  5
10F
330
75
100
AcDbEntity
  8
Visible (ISO)
100
AcDbLine
 10
330.7905335183261
 20
147.4330972473275
 30
0.0
 11
330.7905335183261
 21
138.9330972473275
 31
0.0
  0
LINE
  5
110
330
75
100
AcDbEntity
  8
Visible (ISO)
100
AcDbLine
 10
330.7905335183261
 20
138.9330972473275
 30
0.0
 11
332.7905335183261
 21
136.9330972473275
 31
0.0
  0
LINE
  5
111
330
75
100
AcDbEntity
  8
Visible (ISO)
100
AcDbLine
 10
332.7905335183261
 20
136.9330972473275
 30
0.0
 11
344.790533518326
 21
136.9330972473275
 31
0.0
  0
LINE
  5
112
330
75
100
AcDbEntity
  8
Visible (ISO)
100
AcDbLine
 10
344.790533518326
 20
136.9330972473275
 30
0.0
 11
346.7905335183261
 21
138.9330972473275
 31
0.0
  0
LINE
  5
113
330
75
100
AcDbEntity
  8
Visible (ISO)
100
AcDbLine
 10
346.7905335183261
 20
138.9330972473275
 30
0.0
 11
346.7905335183261
 21
279.9330972473275
 31
0.0
  0
LINE
  5
114
330
75
100
AcDbEntity
  8
Visible (ISO)
100
AcDbLine
 10
346.7905335183261
 20
279.9330972473275
 30
0.0
 11
344.7905335183261
 21
281.9330972473275
 31
0.0
  0
LINE
  5
115
330
75
100
AcDbEntity
  8
Visible (ISO)
100
AcDbLine
 10
344.7905335183261
 20
281.9330972473275
 30
0.0
 11
332.7905335183261
 21
281.9330972473275
 31
0.0
  0
LINE
  5
116
330
75
100
AcDbEntity
  8
Visible (ISO)
100
AcDbLine
 10
332.7905335183261
 20
281.9330972473275
 30
0.0
 11
330.7905335183261
 21
279.9330972473275
 31
0.0
  0
LINE
  5
117
330
75
100
AcDbEntity
  8
Visible (ISO)
100
AcDbLine
 10
330.7905335183261
 20
279.9330972473275
 30
0.0
 11
330.7905335183261
 21
271.4330972473275
 31
0.0
  0
LINE
  5
118
330
75
100
AcDbEntity
  8
Visible (ISO)
100
AcDbLine
 10
330.7905335183261
 20
271.4330972473275
 30
0.0
 11
303.7905335183261
 21
271.4330972473275
 31
0.0
  0
LINE
  5
119
330
75
100
AcDbEntity
  8
Visible (ISO)
100
AcDbLine
 10
303.7905335183261
 20
271.4330972473275
 30
0.0
 11
303.7905335183261
 21
279.9330972473275
 31
0.0
  0
LINE
  5
11A
330
75
100
AcDbEntity
  8
Visible (ISO)
100
AcDbLine
 10
303.7905335183261
 20
279.9330972473275
 30
0.0
 11
301.7905335183261
 21
281.9330972473275
 31
0.0
  0
LINE
  5
11B
330
75
100
AcDbEntity
  8
Visible (ISO)
100
AcDbLine
 10
301.7905335183261
 20
281.9330972473275
 30
0.0
 11
289.7905335183261
 21
281.9330972473275
 31
0.0
  0
LINE
  5
11C
330
75
100
AcDbEntity
  8
Visible (ISO)
100
AcDbLine
 10
289.7905335183261
 20
281.9330972473275
 30
0.0
 11
287.7905335183261
 21
279.9330972473275
 31
0.0
  0
LINE
  5
11D
330
75
100
AcDbEntity
  8
Visible (ISO)
100
AcDbLine
 10
287.7905335183261
 20
279.9330972473275
 30
0.0
 11
287.7905335183261
 21
266.9330972473275
 31
0.0
  0
LINE
  5
11E
330
75
100
AcDbEntity
  8
Visible (ISO)
100
AcDbLine
 10
287.7905335183261
 20
266.9330972473275
 30
0.0
 11
284.2905335183261
 21
266.9330972473275
 31
0.0
  0
LINE
  5
11F
330
75
100
AcDbEntity
  8
Visible (ISO)
100
AcDbLine
 10
284.2905335183261
 20
151.9330972473274
 30
0.0
 11
287.7905335183261
 21
151.9330972473274
 31
0.0
  0
LINE
  5
120
330
75
100
AcDbEntity
  8
Visible (ISO)
100
AcDbLine
 10
287.7905335183261
 20
151.9330972473274
 30
0.0
 11
287.7905335183261
 21
138.9330972473274
 31
0.0
  0
LINE
  5
121
330
75
100
AcDbEntity
  8
Visible (ISO)
100
AcDbLine
 10
287.7905335183261
 20
138.9330972473274
 30
0.0
 11
289.790533518326
 21
136.9330972473275
 31
0.0
  0
LINE
  5
122
330
75
100
AcDbEntity
  8
Visible (ISO)
100
AcDbLine
 10
289.790533518326
 20
136.9330972473275
 30
0.0
 11
301.7905335183261
 21
136.9330972473275
 31
0.0
  0
LINE
  5
123
330
75
100
AcDbEntity
  8
Visible (ISO)
100
AcDbLine
 10
301.7905335183261
 20
136.9330972473275
 30
0.0
 11
303.7905335183261
 21
138.9330972473275
 31
0.0
  0
LINE
  5
124
330
75
100
AcDbEntity
  8
Visible (ISO)
100
AcDbLine
 10
303.7905335183261
 20
138.9330972473275
 30
0.0
 11
303.7905335183261
 21
147.4330972473275
 31
0.0
  0
LINE
  5
125
330
75
100
AcDbEntity
  8
Visible (ISO)
100
AcDbLine
 10
303.7905335183261
 20
147.4330972473275
 30
0.0
 11
330.7905335183261
 21
147.4330972473275
 31
0.0
  0
CIRCLE
  5
126
330
75
100
AcDbEntity
  8
Visible (ISO)
100
AcDbCircle
 10
295.7905335183261
 20
141.9330972473275
 30
0.0
 40
2.600000000000004
  0
CIRCLE
  5
127
330
75
100
AcDbEntity
  8
Visible (ISO)
100
AcDbCircle
 10
295.7905335183261
 20
276.9330972473275
 30
0.0
 40
2.600000000000004
  0
CIRCLE
  5
128
330
75
100
AcDbEntity
  8
Visible (ISO)
100
AcDbCircle
 10
338.7905335183261
 20
276.9330972473275
 30
0.0
 40
2.600000000000004
  0
CIRCLE
  5
129
330
75
100
AcDbEntity
  8
Visible (ISO)
100
AcDbCircle
 10
338.7905335183261
 20
141.9330972473275
 30
0.0
 40
2.600000000000004
  0
LINE
  5
12A
330
75
100
AcDbEntity
  8
Visible (ISO)
100
AcDbLine
 10
294.7905335183261
 20
190.0630972473275
 30
0.0
 11
294.7905335183261
 21
191.8630972473275
 31
0.0
  0
LINE
  5
12B
330
75
100
AcDbEntity
  8
Visible (ISO)
100
AcDbLine
 10
294.7905335183261
 20
191.8630972473275
 30
0.0
 11
302.7905335183261
 21
191.8630972473275
 31
0.0
  0
LINE
  5
12C
330
75
100
AcDbEntity
  8
Visible (ISO)
100
AcDbLine
 10
302.7905335183261
 20
191.8630972473275
 30
0.0
 11
302.7905335183261
 21
190.0630972473275
 31
0.0
  0
LINE
  5
12D
330
75
100
AcDbEntity
  8
Visible (ISO)
100
AcDbLine
 10
302.7905335183261
 20
190.0630972473275
 30
0.0
 11
294.7905335183261
 21
190.0630972473275
 31
0.0
  0
LINE
  5
12E
330
75
100
AcDbEntity
  8
Visible (ISO)
100
AcDbLine
 10
334.7905335183262
 20
190.0630972473275
 30
0.0
 11
334.7905335183262
 21
191.8630972473275
 31
0.0
  0
LINE
  5
12F
330
75
100
AcDbEntity
  8
Visible (ISO)
100
AcDbLine
 10
334.7905335183262
 20
191.8630972473275
 30
0.0
 11
342.7905335183262
 21
191.8630972473275
 31
0.0
  0
LINE
  5
130
330
75
100
AcDbEntity
  8
Visible (ISO)
100
AcDbLine
 10
342.7905335183262
 20
191.8630972473275
 30
0.0
 11
342.7905335183262
 21
190.0630972473275
 31
0.0
  0
LINE
  5
131
330
75
100
AcDbEntity
  8
Visible (ISO)
100
AcDbLine
 10
342.7905335183262
 20
190.0630972473275
 30
0.0
 11
334.7905335183262
 21
190.0630972473275
 31
0.0
  0
CIRCLE
  5
132
330
75
100
AcDbEntity
  8
Visible (ISO)
100
AcDbCircle
 10
298.7905335183261
 20
233.8330972473275
 30
0.0
 40
1.349999999999997
  0
CIRCLE
  5
133
330
75
100
AcDbEntity
  8
Visible (ISO)
100
AcDbCircle
 10
298.7905335183261
 20
185.2330972473274
 30
0.0
 40
1.35
  0
CIRCLE
  5
134
330
75
100
AcDbEntity
  8
Visible (ISO)
100
AcDbCircle
 10
338.7905335183262
 20
233.8330972473275
 30
0.0
 40
1.349999999999997
  0
CIRCLE
  5
135
330
75
100
AcDbEntity
  8
Visible (ISO)
100
AcDbCircle
 10
338.7905335183262
 20
185.2330972473274
 30
0.0
 40
1.35
  0
CIRCLE
  5
136
330
75
100
AcDbEntity
  8
Visible (ISO)
100
AcDbCircle
 10
316.7905335183261
 20
204.8330972473275
 30
0.0
 40
2.25
  0
LINE
  5
137
330
75
100
AcDbEntity
  8
Visible (ISO)
100
AcDbLine
 10
314.5905335183261
 20
174.6330972473275
 30
0.0
 11
318.9905335183261
 21
174.6330972473275
 31
0.0
  0
LINE
  5
138
330
75
100
AcDbEntity
  8
Visible (ISO)
100
AcDbLine
 10
314.5905335183261
 20
179.0330972473275
 30
0.0
 11
314.5905335183261
 21
174.6330972473275
 31
0.0
  0
LINE
  5
139
330
75
100
AcDbEntity
  8
Visible (ISO)
100
AcDbLine
 10
318.9905335183261
 20
179.0330972473275
 30
0.0
 11
314.5905335183261
 21
179.0330972473275
 31
0.0
  0
LINE
  5
13A
330
75
100
AcDbEntity
  8
Visible (ISO)
100
AcDbLine
 10
318.9905335183261
 20
174.6330972473275
 30
0.0
 11
318.9905335183261
 21
179.0330972473275
 31
0.0
  0
LINE
  5
13B
330
75
100
AcDbEntity
  8
Visible (ISO)
100
AcDbLine
 10
312.5905335183261
 20
195.2330972473275
 30
0.0
 11
312.5905335183261
 21
189.8330972473275
 31
0.0
  0
LINE
  5
13C
330
75
100
AcDbEntity
  8
Visible (ISO)
100
AcDbLine
 10
320.9905335183262
 20
195.2330972473274
 30
0.0
 11
312.5905335183261
 21
195.2330972473275
 31
0.0
  0
LINE
  5
13D
330
75
100
AcDbEntity
  8
Visible (ISO)
100
AcDbLine
 10
320.9905335183262
 20
189.8330972473275
 30
0.0
 11
320.9905335183262
 21
195.2330972473274
 31
0.0
  0
LINE
  5
13E
330
75
100
AcDbEntity
  8
Visible (ISO)
100
AcDbLine
 10
318.9905335183261
 20
187.8330972473275
 30
0.0
 11
320.9905335183262
 21
189.8330972473275
 31
0.0
  0
LINE
  5
13F
330
75
100
AcDbEntity
  8
Visible (ISO)
100
AcDbLine
 10
318.9905335183261
 20
181.0330972473275
 30
0.0
 11
318.9905335183261
 21
187.8330972473275
 31
0.0
  0
LINE
  5
140
330
75
100
AcDbEntity
  8
Visible (ISO)
100
AcDbLine
 10
314.5905335183261
 20
181.0330972473275
 30
0.0
 11
318.9905335183261
 21
181.0330972473275
 31
0.0
  0
LINE
  5
141
330
75
100
AcDbEntity
  8
Visible (ISO)
100
AcDbLine
 10
314.5905335183261
 20
187.8330972473275
 30
0.0
 11
314.5905335183261
 21
181.0330972473275
 31
0.0
  0
LINE
  5
142
330
75
100
AcDbEntity
  8
Visible (ISO)
100
AcDbLine
 10
312.5905335183261
 20
189.8330972473275
 30
0.0
 11
314.5905335183261
 21
187.8330972473275
 31
0.0
  0
LINE
  5
143
330
75
100
AcDbEntity
  8
Visible (ISO)
100
AcDbLine
 10
312.5905335183261
 20
262.2330972473275
 30
0.0
 11
312.5905335183261
 21
256.8330972473275
 31
0.0
  0
LINE
  5
144
330
75
100
AcDbEntity
  8
Visible (ISO)
100
AcDbLine
 10
320.9905335183262
 20
262.2330972473275
 30
0.0
 11
312.5905335183261
 21
262.2330972473275
 31
0.0
  0
LINE
  5
145
330
75
100
AcDbEntity
  8
Visible (ISO)
100
AcDbLine
 10
320.9905335183262
 20
256.8330972473275
 30
0.0
 11
320.9905335183262
 21
262.2330972473275
 31
0.0
  0
LINE
  5
146
330
75
100
AcDbEntity
  8
Visible (ISO)
100
AcDbLine
 10
318.9905335183261
 20
254.8330972473275
 30
0.0
 11
320.9905335183262
 21
256.8330972473275
 31
0.0
  0
LINE
  5
147
330
75
100
AcDbEntity
  8
Visible (ISO)
100
AcDbLine
 10
318.9905335183261
 20
248.0330972473275
 30
0.0
 11
318.9905335183261
 21
254.8330972473275
 31
0.0
  0
LINE
  5
148
330
75
100
AcDbEntity
  8
Visible (ISO)
100
AcDbLine
 10
314.5905335183261
 20
248.0330972473275
 30
0.0
 11
318.9905335183261
 21
248.0330972473275
 31
0.0
  0
LINE
  5
149
330
75
100
AcDbEntity
  8
Visible (ISO)
100
AcDbLine
 10
314.5905335183261
 20
254.8330972473275
 30
0.0
 11
314.5905335183261
 21
248.0330972473275
 31
0.0
  0
LINE
  5
14A
330
75
100
AcDbEntity
  8
Visible (ISO)
100
AcDbLine
 10
312.5905335183261
 20
256.8330972473275
 30
0.0
 11
314.5905335183261
 21
254.8330972473275
 31
0.0
  0
LINE
  5
14B
330
75
100
AcDbEntity
  8
Visible (ISO)
100
AcDbLine
 10
281.7905335183259
 20
151.9330972473274
 30
0.0
 11
283.2905335183259
 21
151.9330972473275
 31
0.0
  0
ARC
  5
14C
330
75
100
AcDbEntity
  8
Visible (ISO)
100
AcDbCircle
 10
284.2905335183261
 20
173.2725633413946
 30
0.0
 40
1.000000000000023
100
AcDbArc
 50
134.9999999999971
 51
180.0
  0
LINE
  5
14D
330
75
100
AcDbEntity
  8
Visible (ISO)
100
AcDbLine
 10
287.0583004712925
 20
177.4545438567341
 30
0.0
 11
283.5834267371396
 21
173.9796701225813
 31
0.0
  0
ARC
  5
14E
330
75
100
AcDbEntity
  8
Visible (ISO)
100
AcDbCircle
 10
285.2905335183261
 20
179.2223108097005
 30
0.0
 40
2.499999999999986
100
AcDbArc
 50
315.0000000000006
 51
0.0
  0
LINE
  5
14F
330
75
100
AcDbEntity
  8
Visible (ISO)
100
AcDbLine
 10
287.7905335183261
 20
190.8080972473274
 30
0.0
 11
287.7905335183261
 21
179.2223108097005
 31
0.0
  0
LINE
  5
150
330
75
100
AcDbEntity
  8
Visible (ISO)
100
AcDbLine
 10
286.2905335183261
 20
179.2223108097005
 30
0.0
 11
286.2905335183261
 21
190.8080972473274
 31
0.0
  0
ARC
  5
151
330
75
100
AcDbEntity
  8
Visible (ISO)
100
AcDbCircle
 10
285.2905335183261
 20
179.2223108097005
 30
0.0
 40
0.9999999999999978
100
AcDbArc
 50
315.0000000000029
 51
0.0
  0
LINE
  5
152
330
75
100
AcDbEntity
  8
Visible (ISO)
100
AcDbLine
 10
282.5227665653597
 20
175.0403302943611
 30
0.0
 11
285.9976402995127
 21
178.515204028514
 31
0.0
  0
ARC
  5
153
330
75
100
AcDbEntity
  8
Visible (ISO)
100
AcDbCircle
 10
284.2905335183261
 20
173.2725633413946
 30
0.0
 40
2.500000000000044
100
AcDbArc
 50
134.9999999999994
 51
180.0
  0
LINE
  5
154
330
75
100
AcDbEntity
  8
Visible (ISO)
100
AcDbLine
 10
283.290533518326
 20
243.2580972473277
 30
0.0
 11
283.290533518326
 21
175.8080972473273
 31
0.0
  0
LINE
  5
155
330
75
100
AcDbEntity
  8
Visible (ISO)
100
AcDbLine
 10
283.2905335183259
 20
151.9330972473275
 30
0.0
 11
283.2905335183261
 21
173.2725633413947
 31
0.0
  0
LINE
  5
156
330
75
100
AcDbEntity
  8
Visible (ISO)
100
AcDbLine
 10
283.2905335183261
 20
245.7936311532602
 30
0.0
 11
283.2905335183259
 21
266.9330972473275
 31
0.0
  0
ARC
  5
157
330
75
100
AcDbEntity
  8
Visible (ISO)
100
AcDbCircle
 10
284.2905335183261
 20
245.7936311532603
 30
0.0
 40
1.000000000000004
100
AcDbArc
 50
180.0
 51
225.0000000000028
  0
LINE
  5
158
330
75
100
AcDbEntity
  8
Visible (ISO)
100
AcDbLine
 10
287.0583004712925
 20
241.6116506379208
 30
0.0
 11
283.5834267371396
 21
245.0865243720737
 31
0.0
  0
ARC
  5
159
330
75
100
AcDbEntity
  8
Visible (ISO)
100
AcDbCircle
 10
285.2905335183261
 20
239.8438836849545
 30
0.0
 40
2.499999999999964
100
AcDbArc
 50
0.0
 51
45.0
  0
LINE
  5
15A
330
75
100
AcDbEntity
  8
Visible (ISO)
100
AcDbLine
 10
287.7905335183261
 20
228.2580972473275
 30
0.0
 11
287.7905335183261
 21
239.8438836849544
 31
0.0
  0
LINE
  5
15B
330
75
100
AcDbEntity
  8
Visible (ISO)
100
AcDbLine
 10
286.2905335183261
 20
239.8438836849544
 30
0.0
 11
286.2905335183261
 21
228.2580972473275
 31
0.0
  0
ARC
  5
15C
330
75
100
AcDbEntity
  8
Visible (ISO)
100
AcDbCircle
 10
285.2905335183261
 20
239.8438836849544
 30
0.0
 40
0.9999999999999822
100
AcDbArc
 50
0.0
 51
44.99999999999857
  0
LINE
  5
15D
330
75
100
AcDbEntity
  8
Visible (ISO)
100
AcDbLine
 10
282.5227665653597
 20
244.0258642002939
 30
0.0
 11
285.9976402995127
 21
240.550990466141
 31
0.0
  0
ARC
  5
15E
330
75
100
AcDbEntity
  8
Visible (ISO)
100
AcDbCircle
 10
284.2905335183261
 20
245.7936311532603
 30
0.0
 40
2.500000000000031
100
AcDbArc
 50
180.0
 51
225.0000000000006
  0
LINE
  5
15F
330
75
100
AcDbEntity
  8
Visible (ISO)
100
AcDbLine
 10
281.7905335183259
 20
245.7936311532602
 30
0.0
 11
281.7905335183259
 21
173.2725633413947
 31
0.0
  0
LINE
  5
160
330
75
100
AcDbEntity
  8
Visible (ISO)
100
AcDbLine
 10
281.7905335183261
 20
245.7936311532602
 30
0.0
 11
281.7905335183259
 21
266.9330972473275
 31
0.0
  0
LINE
  5
161
330
75
100
AcDbEntity
  8
Visible (ISO)
100
AcDbLine
 10
281.7905335183259
 20
151.9330972473274
 30
0.0
 11
281.7905335183261
 21
173.2725633413947
 31
0.0
  0
LINE
  5
162
330
75
100
AcDbEntity
  8
Visible (ISO)
100
AcDbLine
 10
284.2905335183261
 20
266.9330972473275
 30
0.0
 11
283.2905335183261
 21
266.9330972473275
 31
0.0
  0
LINE
  5
163
330
75
100
AcDbEntity
  8
Visible (ISO)
100
AcDbLine
 10
284.2905335183261
 20
151.9330972473274
 30
0.0
 11
283.2905335183261
 21
151.9330972473274
 31
0.0
  0
LINE
  5
164
330
75
100
AcDbEntity
  8
Visible (ISO)
100
AcDbLine
 10
283.2905335183259
 20
266.9330972473275
 30
0.0
 11
281.7905335183259
 21
266.9330972473275
 31
0.0
  0
LINE
  5
165
330
75
100
AcDbEntity
  8
Visible (ISO)
100
AcDbLine
 10
286.2905335183261
 20
190.8080972473274
 30
0.0
 11
287.7905335183261
 21
190.8080972473274
 31
0.0
  0
LINE
  5
166
330
75
100
AcDbEntity
  8
Visible (ISO)
100
AcDbLine
 10
286.2905335183261
 20
228.2580972473275
 30
0.0
 11
287.7905335183261
 21
228.2580972473275
 31
0.0
  0
LINE
  5
167
330
75
100
AcDbEntity
  8
Visible (ISO)
100
AcDbLine
 10
285.0905335183262
 20
231.5830972473275
 30
0.0
 11
285.0905335183262
 21
236.0830972473275
 31
0.0
  0
LINE
  5
168
330
75
100
AcDbEntity
  8
Visible (ISO)
100
AcDbLine
 10
285.0905335183262
 20
187.4830972473274
 30
0.0
 11
285.0905335183262
 21
182.9830972473274
 31
0.0
  0
LINE
  5
169
330
75
100
AcDbEntity
  8
Visible (ISO)
100
AcDbLine
 10
286.2905335183262
 20
231.5830972473275
 30
0.0
 11
285.0905335183262
 21
231.5830972473275
 31
0.0
  0
LINE
  5
16A
330
75
100
AcDbEntity
  8
Visible (ISO)
100
AcDbLine
 10
286.2905335183262
 20
236.0830972473275
 30
0.0
 11
285.0905335183262
 21
236.0830972473275
 31
0.0
  0
LINE
  5
16B
330
75
100
AcDbEntity
  8
Visible (ISO)
100
AcDbLine
 10
286.2905335183262
 20
182.9830972473274
 30
0.0
 11
285.0905335183262
 21
182.9830972473274
 31
0.0
  0
LINE
  5
16C
330
75
100
AcDbEntity
  8
Visible (ISO)
100
AcDbLine
 10
286.2905335183262
 20
187.4830972473274
 30
0.0
 11
285.0905335183262
 21
187.4830972473274
 31
0.0
  0
LINE
  5
16D
330
75
100
AcDbEntity
  8
Hidden (ISO)
100
AcDbLine
 10
283.290533518326
 20
245.7936311532602
 30
0.0
 11
283.290533518326
 21
243.2580972473277
 31
0.0
  0
LINE
  5
16E
330
75
100
AcDbEntity
  8
Hidden (ISO)
100
AcDbLine
 10
283.290533518326
 20
175.8080972473273
 30
0.0
 11
283.290533518326
 21
173.2725633413947
 31
0.0
  0
LINE
  5
16F
330
75
100
AcDbEntity
  8
Hidden (ISO)
100
AcDbLine
 10
283.2905335183261
 20
195.8080972473275
 30
0.0
 11
281.7905335183261
 21
195.8080972473275
 31
0.0
  0
LINE
  5
170
330
75
100
AcDbEntity
  8
Hidden (ISO)
100
AcDbLine
 10
283.2905335183261
 20
223.2580972473275
 30
0.0
 11
281.7905335183261
 21
223.2580972473275
 31
0.0
  0
LINE
  5
171
330
75
100
AcDbEntity
  8
Hidden (ISO)
100
AcDbLine
 10
283.290533518326
 20
170.3080972473275
 30
0.0
 11
281.7905335183259
 21
170.3080972473275
 31
0.0
  0
LINE
  5
172
330
75
100
AcDbEntity
  8
Hidden (ISO)
100
AcDbLine
 10
283.290533518326
 20
248.7580972473275
 30
0.0
 11
281.7905335183259
 21
248.7580972473275
 31
0.0
  0
ARC
  5
173
330
75
100
AcDbEntity
  8
Hidden (ISO)
100
AcDbCircle
 10
286.2905335183261
 20
230.7830972473275
 30
0.0
 40
1.5
100
AcDbArc
 50
0.0
 51
68.9605302186832
  0
ARC
  5
174
330
75
100
AcDbEntity
  8
Hidden (ISO)
100
AcDbCircle
 10
286.2905335183261
 20
236.8830972473275
 30
0.0
 40
1.5
100
AcDbArc
 50
291.0394697813168
 51
0.0
  0
ARC
  5
175
330
75
100
AcDbEntity
  8
Hidden (ISO)
100
AcDbCircle
 10
286.2905335183261
 20
188.2830972473275
 30
0.0
 40
1.5
100
AcDbArc
 50
291.039469781318
 51
0.0
  0
ARC
  5
176
330
75
100
AcDbEntity
  8
Hidden (ISO)
100
AcDbCircle
 10
286.2905335183261
 20
182.1830972473274
 30
0.0
 40
1.5
100
AcDbArc
 50
0.0
 51
68.9605302186832
  0
CIRCLE
  5
177
330
75
100
AcDbEntity
  8
Visible (ISO)
100
AcDbCircle
 10
394.8404565347195
 20
185.2330972473274
 30
0.0
 40
1.65
  0
CIRCLE
  5
178
330
75
100
AcDbEntity
  8
Visible (ISO)
100
AcDbCircle
 10
461.0474565347195
 20
233.8330972473275
 30
0.0
 40
1.65
  0
CIRCLE
  5
179
330
75
100
AcDbEntity
  8
Visible (ISO)
100
AcDbCircle
 10
394.8404565347195
 20
233.8330972473276
 30
0.0
 40
1.65
  0
CIRCLE
  5
17A
330
75
100
AcDbEntity
  8
Visible (ISO)
100
AcDbCircle
 10
461.0474565347195
 20
185.2330972473274
 30
0.0
 40
1.65
  0
LINE
  5
17B
330
75
100
AcDbEntity
  8
Visible (ISO)
100
AcDbLine
 10
380.3404565347209
 20
136.9330972473275
 30
0.0
 11
380.3404565347203
 21
138.9330972473274
 31
0.0
  0
LINE
  5
17C
330
75
100
AcDbEntity
  8
Visible (ISO)
100
AcDbLine
 10
380.3404565347203
 20
151.9330972473274
 30
0.0
 11
380.3404565347203
 21
138.9330972473274
 31
0.0
  0
LINE
  5
17D
330
75
100
AcDbEntity
  8
Visible (ISO)
100
AcDbLine
 10
380.3404565347193
 20
151.9330972473274
 30
0.0
 11
380.3404565347193
 21
266.9330972473275
 31
0.0
  0
LINE
  5
17E
330
75
100
AcDbEntity
  8
Visible (ISO)
100
AcDbLine
 10
380.3404565347203
 20
279.9330972473275
 30
0.0
 11
380.3404565347203
 21
266.9330972473275
 31
0.0
  0
LINE
  5
17F
330
75
100
AcDbEntity
  8
Visible (ISO)
100
AcDbLine
 10
380.3404565347203
 20
279.9330972473275
 30
0.0
 11
380.3404565347209
 21
281.9330972473275
 31
0.0
  0
LINE
  5
180
330
75
100
AcDbEntity
  8
Visible (ISO)
100
AcDbLine
 10
381.8404565347209
 20
281.9330972473275
 30
0.0
 11
381.8404565347203
 21
279.9330972473275
 31
0.0
  0
LINE
  5
181
330
75
100
AcDbEntity
  8
Visible (ISO)
100
AcDbLine
 10
381.8404565347203
 20
279.9330972473275
 30
0.0
 11
381.8404565347203
 21
266.9330972473275
 31
0.0
  0
LINE
  5
182
330
75
100
AcDbEntity
  8
Visible (ISO)
100
AcDbLine
 10
381.8404565347203
 20
151.9330972473274
 30
0.0
 11
381.8404565347203
 21
138.9330972473274
 31
0.0
  0
LINE
  5
183
330
75
100
AcDbEntity
  8
Visible (ISO)
100
AcDbLine
 10
381.8404565347203
 20
138.9330972473274
 30
0.0
 11
381.8404565347209
 21
136.9330972473275
 31
0.0
  0
LINE
  5
184
330
75
100
AcDbEntity
  8
Visible (ISO)
100
AcDbLine
 10
464.7974565347185
 20
151.9330972473274
 30
0.0
 11
386.5904565347185
 21
151.9330972473274
 31
0.0
  0
LINE
  5
185
330
75
100
AcDbEntity
  8
Visible (ISO)
100
AcDbLine
 10
464.7974565347198
 20
179.2223108097005
 30
0.0
 11
464.7974565347198
 21
190.8080972473274
 31
0.0
  0
LINE
  5
186
330
75
100
AcDbEntity
  8
Visible (ISO)
100
AcDbLine
 10
457.2974565347198
 20
190.8080972473274
 30
0.0
 11
464.7974565347198
 21
190.8080972473274
 31
0.0
  0
LINE
  5
187
330
75
100
AcDbEntity
  8
Visible (ISO)
100
AcDbLine
 10
457.2974565347198
 20
179.2223108097005
 30
0.0
 11
457.2974565347198
 21
190.8080972473274
 31
0.0
  0
LINE
  5
188
330
75
100
AcDbEntity
  8
Visible (ISO)
100
AcDbLine
 10
464.7974565347197
 20
178.515204028514
 30
0.0
 11
464.7974565347198
 21
179.2223108097005
 31
0.0
  0
LINE
  5
189
330
75
100
AcDbEntity
  8
Visible (ISO)
100
AcDbLine
 10
457.2974565347197
 20
178.515204028514
 30
0.0
 11
457.2974565347197
 21
179.2223108097005
 31
0.0
  0
LINE
  5
18A
330
75
100
AcDbEntity
  8
Visible (ISO)
100
AcDbLine
 10
464.7974565347187
 20
175.0403302943611
 30
0.0
 11
464.7974565347197
 21
178.515204028514
 31
0.0
  0
LINE
  5
18B
330
75
100
AcDbEntity
  8
Visible (ISO)
100
AcDbLine
 10
457.2974565347187
 20
175.0403302943611
 30
0.0
 11
457.2974565347197
 21
178.515204028514
 31
0.0
  0
LINE
  5
18C
330
75
100
AcDbEntity
  8
Visible (ISO)
100
AcDbLine
 10
464.7974565347187
 20
175.0403302943611
 30
0.0
 11
464.7974565347185
 21
173.2725633413947
 31
0.0
  0
LINE
  5
18D
330
75
100
AcDbEntity
  8
Visible (ISO)
100
AcDbLine
 10
457.2974565347187
 20
175.0403302943611
 30
0.0
 11
457.2974565347185
 21
173.2725633413947
 31
0.0
  0
LINE
  5
18E
330
75
100
AcDbEntity
  8
Visible (ISO)
100
AcDbLine
 10
457.2974565347198
 20
228.2580972473275
 30
0.0
 11
464.7974565347198
 21
228.2580972473275
 31
0.0
  0
LINE
  5
18F
330
75
100
AcDbEntity
  8
Visible (ISO)
100
AcDbLine
 10
464.7974565347198
 20
239.8438836849544
 30
0.0
 11
464.7974565347198
 21
228.2580972473275
 31
0.0
  0
LINE
  5
190
330
75
100
AcDbEntity
  8
Visible (ISO)
100
AcDbLine
 10
457.2974565347198
 20
239.8438836849544
 30
0.0
 11
457.2974565347198
 21
228.2580972473275
 31
0.0
  0
LINE
  5
191
330
75
100
AcDbEntity
  8
Visible (ISO)
100
AcDbLine
 10
464.7974565347197
 20
240.550990466141
 30
0.0
 11
464.7974565347198
 21
239.8438836849544
 31
0.0
  0
LINE
  5
192
330
75
100
AcDbEntity
  8
Visible (ISO)
100
AcDbLine
 10
457.2974565347197
 20
240.550990466141
 30
0.0
 11
457.2974565347197
 21
239.8438836849544
 31
0.0
  0
LINE
  5
193
330
75
100
AcDbEntity
  8
Visible (ISO)
100
AcDbLine
 10
464.7974565347187
 20
244.0258642002939
 30
0.0
 11
464.7974565347197
 21
240.550990466141
 31
0.0
  0
LINE
  5
194
330
75
100
AcDbEntity
  8
Visible (ISO)
100
AcDbLine
 10
457.2974565347187
 20
244.0258642002939
 30
0.0
 11
457.2974565347197
 21
240.550990466141
 31
0.0
  0
LINE
  5
195
330
75
100
AcDbEntity
  8
Visible (ISO)
100
AcDbLine
 10
464.7974565347187
 20
244.0258642002939
 30
0.0
 11
464.7974565347185
 21
245.7936311532602
 31
0.0
  0
LINE
  5
196
330
75
100
AcDbEntity
  8
Visible (ISO)
100
AcDbLine
 10
457.2974565347187
 20
244.0258642002939
 30
0.0
 11
457.2974565347185
 21
245.7936311532602
 31
0.0
  0
LINE
  5
197
330
75
100
AcDbEntity
  8
Visible (ISO)
100
AcDbLine
 10
455.2974565347184
 20
248.7580972473275
 30
0.0
 11
455.2974565347184
 21
170.3080972473275
 31
0.0
  0
LINE
  5
198
330
75
100
AcDbEntity
  8
Visible (ISO)
100
AcDbLine
 10
457.2974565347185
 20
248.7580972473275
 30
0.0
 11
455.2974565347184
 21
248.7580972473275
 31
0.0
  0
LINE
  5
199
330
75
100
AcDbEntity
  8
Visible (ISO)
100
AcDbLine
 10
457.2974565347185
 20
248.7580972473275
 30
0.0
 11
457.2974565347185
 21
245.7936311532602
 31
0.0
  0
LINE
  5
19A
330
75
100
AcDbEntity
  8
Visible (ISO)
100
AcDbLine
 10
464.7974565347185
 20
245.7936311532602
 30
0.0
 11
464.7974565347185
 21
266.9330972473275
 31
0.0
  0
LINE
  5
19B
330
75
100
AcDbEntity
  8
Visible (ISO)
100
AcDbLine
 10
464.7974565347185
 20
266.9330972473275
 30
0.0
 11
386.5904565347185
 21
266.9330972473275
 31
0.0
  0
LINE
  5
19C
330
75
100
AcDbEntity
  8
Visible (ISO)
100
AcDbLine
 10
382.8404565347185
 20
266.9330972473275
 30
0.0
 11
386.5904565347185
 21
266.9330972473275
 31
0.0
  0
LINE
  5
19D
330
75
100
AcDbEntity
  8
Visible (ISO)
100
AcDbLine
 10
382.8404565347185
 20
151.9330972473274
 30
0.0
 11
386.5904565347185
 21
151.9330972473274
 31
0.0
  0
LINE
  5
19E
330
75
100
AcDbEntity
  8
Visible (ISO)
100
AcDbLine
 10
464.7974565347185
 20
151.9330972473274
 30
0.0
 11
464.7974565347185
 21
173.2725633413947
 31
0.0
  0
LINE
  5
19F
330
75
100
AcDbEntity
  8
Visible (ISO)
100
AcDbLine
 10
457.2974565347185
 20
170.3080972473275
 30
0.0
 11
457.2974565347185
 21
173.2725633413947
 31
0.0
  0
LINE
  5
1A0
330
75
100
AcDbEntity
  8
Visible (ISO)
100
AcDbLine
 10
455.2974565347184
 20
170.3080972473275
 30
0.0
 11
457.2974565347185
 21
170.3080972473275
 31
0.0
  0
LINE
  5
1A1
330
75
100
AcDbEntity
  8
Visible (ISO)
100
AcDbLine
 10
389.0904565347185
 20
195.8080972473275
 30
0.0
 11
389.0904565347185
 21
170.3080972473275
 31
0.0
  0
LINE
  5
1A2
330
75
100
AcDbEntity
  8
Visible (ISO)
100
AcDbLine
 10
400.5904565347185
 20
195.8080972473275
 30
0.0
 11
389.0904565347185
 21
195.8080972473275
 31
0.0
  0
LINE
  5
1A3
330
75
100
AcDbEntity
  8
Visible (ISO)
100
AcDbLine
 10
400.5904565347185
 20
170.3080972473275
 30
0.0
 11
400.5904565347185
 21
195.8080972473275
 31
0.0
  0
LINE
  5
1A4
330
75
100
AcDbEntity
  8
Visible (ISO)
100
AcDbLine
 10
398.5904565347185
 20
170.3080972473275
 30
0.0
 11
400.5904565347185
 21
170.3080972473275
 31
0.0
  0
LINE
  5
1A5
330
75
100
AcDbEntity
  8
Visible (ISO)
100
AcDbLine
 10
398.5904565347185
 20
170.3080972473275
 30
0.0
 11
398.5904565347185
 21
173.2725633413947
 31
0.0
  0
LINE
  5
1A6
330
75
100
AcDbEntity
  8
Visible (ISO)
100
AcDbLine
 10
391.0904565347185
 20
170.3080972473275
 30
0.0
 11
391.0904565347185
 21
173.2725633413947
 31
0.0
  0
LINE
  5
1A7
330
75
100
AcDbEntity
  8
Visible (ISO)
100
AcDbLine
 10
389.0904565347185
 20
170.3080972473275
 30
0.0
 11
391.0904565347185
 21
170.3080972473275
 31
0.0
  0
LINE
  5
1A8
330
75
100
AcDbEntity
  8
Visible (ISO)
100
AcDbLine
 10
389.0904565347185
 20
248.7580972473275
 30
0.0
 11
389.0904565347185
 21
223.2580972473275
 31
0.0
  0
LINE
  5
1A9
330
75
100
AcDbEntity
  8
Visible (ISO)
100
AcDbLine
 10
391.0904565347185
 20
248.7580972473275
 30
0.0
 11
389.0904565347185
 21
248.7580972473275
 31
0.0
  0
LINE
  5
1AA
330
75
100
AcDbEntity
  8
Visible (ISO)
100
AcDbLine
 10
391.0904565347185
 20
248.7580972473275
 30
0.0
 11
391.0904565347185
 21
245.7936311532602
 31
0.0
  0
LINE
  5
1AB
330
75
100
AcDbEntity
  8
Visible (ISO)
100
AcDbLine
 10
398.5904565347185
 20
248.7580972473276
 30
0.0
 11
398.5904565347185
 21
245.7936311532602
 31
0.0
  0
LINE
  5
1AC
330
75
100
AcDbEntity
  8
Visible (ISO)
100
AcDbLine
 10
400.5904565347185
 20
248.7580972473275
 30
0.0
 11
398.5904565347185
 21
248.7580972473276
 31
0.0
  0
LINE
  5
1AD
330
75
100
AcDbEntity
  8
Visible (ISO)
100
AcDbLine
 10
400.5904565347185
 20
223.2580972473275
 30
0.0
 11
400.5904565347185
 21
248.7580972473275
 31
0.0
  0
LINE
  5
1AE
330
75
100
AcDbEntity
  8
Visible (ISO)
100
AcDbLine
 10
389.0904565347185
 20
223.2580972473275
 30
0.0
 11
400.5904565347185
 21
223.2580972473275
 31
0.0
  0
LINE
  5
1AF
330
75
100
AcDbEntity
  8
Visible (ISO)
100
AcDbLine
 10
382.8404565347185
 20
266.9330972473275
 30
0.0
 11
380.3404565347193
 21
266.9330972473275
 31
0.0
  0
CIRCLE
  5
1B0
330
75
100
AcDbEntity
  8
Visible (ISO)
100
AcDbCircle
 10
394.8404565347195
 20
185.2330972473274
 30
0.0
 40
2.249999999999999
  0
CIRCLE
  5
1B1
330
75
100
AcDbEntity
  8
Visible (ISO)
100
AcDbCircle
 10
394.8404565347195
 20
233.8330972473276
 30
0.0
 40
2.249999999999999
  0
LINE
  5
1B2
330
75
100
AcDbEntity
  8
Visible (ISO)
100
AcDbLine
 10
391.0904565347199
 20
239.8438836849544
 30
0.0
 11
391.0904565347199
 21
228.2580972473275
 31
0.0
  0
LINE
  5
1B3
330
75
100
AcDbEntity
  8
Visible (ISO)
100
AcDbLine
 10
391.0904565347197
 20
240.550990466141
 30
0.0
 11
391.0904565347198
 21
239.8438836849544
 31
0.0
  0
LINE
  5
1B4
330
75
100
AcDbEntity
  8
Visible (ISO)
100
AcDbLine
 10
391.0904565347187
 20
244.0258642002939
 30
0.0
 11
391.0904565347198
 21
240.550990466141
 31
0.0
  0
LINE
  5
1B5
330
75
100
AcDbEntity
  8
Visible (ISO)
100
AcDbLine
 10
391.0904565347187
 20
244.0258642002939
 30
0.0
 11
391.0904565347185
 21
245.7936311532603
 31
0.0
  0
LINE
  5
1B6
330
75
100
AcDbEntity
  8
Visible (ISO)
100
AcDbLine
 10
398.5904565347187
 20
244.0258642002939
 30
0.0
 11
398.5904565347185
 21
245.7936311532602
 31
0.0
  0
LINE
  5
1B7
330
75
100
AcDbEntity
  8
Visible (ISO)
100
AcDbLine
 10
398.5904565347187
 20
244.0258642002939
 30
0.0
 11
398.5904565347198
 21
240.550990466141
 31
0.0
  0
LINE
  5
1B8
330
75
100
AcDbEntity
  8
Visible (ISO)
100
AcDbLine
 10
398.5904565347198
 20
240.550990466141
 30
0.0
 11
398.5904565347198
 21
239.8438836849544
 31
0.0
  0
LINE
  5
1B9
330
75
100
AcDbEntity
  8
Visible (ISO)
100
AcDbLine
 10
398.5904565347198
 20
239.8438836849544
 30
0.0
 11
398.5904565347198
 21
228.2580972473275
 31
0.0
  0
LINE
  5
1BA
330
75
100
AcDbEntity
  8
Visible (ISO)
100
AcDbLine
 10
398.5904565347198
 20
179.2223108097005
 30
0.0
 11
398.5904565347198
 21
190.8080972473274
 31
0.0
  0
LINE
  5
1BB
330
75
100
AcDbEntity
  8
Visible (ISO)
100
AcDbLine
 10
398.5904565347198
 20
178.515204028514
 30
0.0
 11
398.5904565347198
 21
179.2223108097005
 31
0.0
  0
LINE
  5
1BC
330
75
100
AcDbEntity
  8
Visible (ISO)
100
AcDbLine
 10
398.5904565347187
 20
175.0403302943611
 30
0.0
 11
398.5904565347198
 21
178.515204028514
 31
0.0
  0
LINE
  5
1BD
330
75
100
AcDbEntity
  8
Visible (ISO)
100
AcDbLine
 10
398.5904565347187
 20
175.0403302943611
 30
0.0
 11
398.5904565347185
 21
173.2725633413948
 31
0.0
  0
LINE
  5
1BE
330
75
100
AcDbEntity
  8
Visible (ISO)
100
AcDbLine
 10
391.0904565347187
 20
175.0403302943611
 30
0.0
 11
391.0904565347185
 21
173.2725633413947
 31
0.0
  0
LINE
  5
1BF
330
75
100
AcDbEntity
  8
Visible (ISO)
100
AcDbLine
 10
391.0904565347187
 20
175.0403302943611
 30
0.0
 11
391.0904565347198
 21
178.515204028514
 31
0.0
  0
LINE
  5
1C0
330
75
100
AcDbEntity
  8
Visible (ISO)
100
AcDbLine
 10
391.0904565347197
 20
178.515204028514
 30
0.0
 11
391.0904565347198
 21
179.2223108097005
 31
0.0
  0
LINE
  5
1C1
330
75
100
AcDbEntity
  8
Visible (ISO)
100
AcDbLine
 10
391.0904565347199
 20
179.2223108097005
 30
0.0
 11
391.0904565347199
 21
190.8080972473274
 31
0.0
  0
LINE
  5
1C2
330
75
100
AcDbEntity
  8
Visible (ISO)
100
AcDbLine
 10
391.0904565347199
 20
228.2580972473275
 30
0.0
 11
398.5904565347198
 21
228.2580972473275
 31
0.0
  0
LINE
  5
1C3
330
75
100
AcDbEntity
  8
Visible (ISO)
100
AcDbLine
 10
391.0904565347199
 20
190.8080972473274
 30
0.0
 11
398.5904565347198
 21
190.8080972473274
 31
0.0
  0
LINE
  5
1C4
330
75
100
AcDbEntity
  8
Visible (ISO)
100
AcDbLine
 10
382.8404565347185
 20
151.9330972473274
 30
0.0
 11
380.3404565347193
 21
151.9330972473274
 31
0.0
  0
LINE
  5
1C5
330
75
100
AcDbEntity
  8
Visible (ISO)
100
AcDbLine
 10
380.3404565347209
 20
281.9330972473275
 30
0.0
 11
381.8404565347209
 21
281.9330972473275
 31
0.0
  0
LINE
  5
1C6
330
75
100
AcDbEntity
  8
Visible (ISO)
100
AcDbLine
 10
381.8404565347203
 20
279.9330972473275
 30
0.0
 11
380.3404565347203
 21
279.9330972473275
 31
0.0
  0
LINE
  5
1C7
330
75
100
AcDbEntity
  8
Visible (ISO)
100
AcDbLine
 10
380.3404565347203
 20
138.9330972473274
 30
0.0
 11
381.8404565347203
 21
138.9330972473274
 31
0.0
  0
LINE
  5
1C8
330
75
100
AcDbEntity
  8
Visible (ISO)
100
AcDbLine
 10
381.8404565347209
 20
136.9330972473275
 30
0.0
 11
380.3404565347209
 21
136.9330972473275
 31
0.0
  0
CIRCLE
  5
1C9
330
75
100
AcDbEntity
  8
Visible (ISO)
100
AcDbCircle
 10
461.0474565347195
 20
233.8330972473275
 30
0.0
 40
2.250000000000001
  0
CIRCLE
  5
1CA
330
75
100
AcDbEntity
  8
Visible (ISO)
100
AcDbCircle
 10
461.0474565347195
 20
185.2330972473274
 30
0.0
 40
2.250000000000001
  0
LINE
  5
1CB
330
75
100
AcDbEntity
  8
Hidden (ISO)
100
AcDbLine
 10
381.8404565347192
 20
151.9330972473274
 30
0.0
 11
381.8404565347192
 21
266.9330972473275
 31
0.0
  0
LINE
  5
1CC
330
75
100
AcDbEntity
  8
Hidden (ISO)
100
AcDbLine
 10
381.8404565347282
 20
248.0330972473275
 30
0.0
 11
380.3404565347282
 21
248.0330972473275
 31
0.0
  0
LINE
  5
1CD
330
75
100
AcDbEntity
  8
Hidden (ISO)
100
AcDbLine
 10
381.8404565347282
 20
254.8330972473275
 30
0.0
 11
380.3404565347282
 21
254.8330972473275
 31
0.0
  0
LINE
  5
1CE
330
75
100
AcDbEntity
  8
Hidden (ISO)
100
AcDbLine
 10
381.8404565347277
 20
256.8330972473275
 30
0.0
 11
380.3404565347276
 21
256.8330972473275
 31
0.0
  0
LINE
  5
1CF
330
75
100
AcDbEntity
  8
Hidden (ISO)
100
AcDbLine
 10
381.8404565347277
 20
262.2330972473275
 30
0.0
 11
380.3404565347276
 21
262.2330972473275
 31
0.0
  0
LINE
  5
1D0
330
75
100
AcDbEntity
  8
Hidden (ISO)
100
AcDbLine
 10
381.8404565347282
 20
181.0330972473275
 30
0.0
 11
380.3404565347282
 21
181.0330972473275
 31
0.0
  0
LINE
  5
1D1
330
75
100
AcDbEntity
  8
Hidden (ISO)
100
AcDbLine
 10
381.8404565347282
 20
187.8330972473275
 30
0.0
 11
380.3404565347282
 21
187.8330972473275
 31
0.0
  0
LINE
  5
1D2
330
75
100
AcDbEntity
  8
Hidden (ISO)
100
AcDbLine
 10
381.8404565347277
 20
189.8330972473275
 30
0.0
 11
380.3404565347276
 21
189.8330972473275
 31
0.0
  0
LINE
  5
1D3
330
75
100
AcDbEntity
  8
Hidden (ISO)
100
AcDbLine
 10
381.8404565347277
 20
195.2330972473275
 30
0.0
 11
380.3404565347276
 21
195.2330972473275
 31
0.0
  0
LINE
  5
1D4
330
75
100
AcDbEntity
  8
Hidden (ISO)
100
AcDbLine
 10
381.8404565347282
 20
179.0330972473275
 30
0.0
 11
380.3404565347282
 21
179.0330972473275
 31
0.0
  0
LINE
  5
1D5
330
75
100
AcDbEntity
  8
Hidden (ISO)
100
AcDbLine
 10
381.8404565347282
 20
174.6330972473275
 30
0.0
 11
380.3404565347282
 21
174.6330972473275
 31
0.0
  0
LINE
  5
1D6
330
75
100
AcDbEntity
  8
Hidden (ISO)
100
AcDbLine
 10
381.8404565347224
 20
190.0630972473275
 30
0.0
 11
380.3404565347224
 21
190.0630972473275
 31
0.0
  0
LINE
  5
1D7
330
75
100
AcDbEntity
  8
Hidden (ISO)
100
AcDbLine
 10
381.8404565347224
 20
191.8630972473275
 30
0.0
 11
380.3404565347224
 21
191.8630972473275
 31
0.0
  0
LINE
  5
1D8
330
75
100
AcDbEntity
  8
Hidden (ISO)
100
AcDbLine
 10
381.840456534725
 20
271.4330972473275
 30
0.0
 11
380.340456534725
 21
271.4330972473275
 31
0.0
  0
LINE
  5
1D9
330
75
100
AcDbEntity
  8
Hidden (ISO)
100
AcDbLine
 10
381.840456534725
 20
147.4330972473275
 30
0.0
 11
380.340456534725
 21
147.4330972473275
 31
0.0
  0
LINE
  5
1DA
330
75
100
AcDbEntity
  8
Hidden (ISO)
100
AcDbLine
 10
381.8404565347289
 20
202.5830972473275
 30
0.0
 11
380.3404565347289
 21
202.5830972473275
 31
0.0
  0
LINE
  5
1DB
330
75
100
AcDbEntity
  8
Hidden (ISO)
100
AcDbLine
 10
381.8404565347289
 20
207.0830972473275
 30
0.0
 11
380.3404565347289
 21
207.0830972473275
 31
0.0
  0
LINE
  5
1DC
330
75
100
AcDbEntity
  8
Hidden (ISO)
100
AcDbLine
 10
381.8404565347236
 20
183.8830972473274
 30
0.0
 11
380.3404565347236
 21
183.8830972473274
 31
0.0
  0
LINE
  5
1DD
330
75
100
AcDbEntity
  8
Hidden (ISO)
100
AcDbLine
 10
381.8404565347236
 20
186.5830972473274
 30
0.0
 11
380.3404565347236
 21
186.5830972473274
 31
0.0
  0
LINE
  5
1DE
330
75
100
AcDbEntity
  8
Hidden (ISO)
100
AcDbLine
 10
381.8404565347236
 20
232.4830972473275
 30
0.0
 11
380.3404565347236
 21
232.4830972473275
 31
0.0
  0
LINE
  5
1DF
330
75
100
AcDbEntity
  8
Hidden (ISO)
100
AcDbLine
 10
381.8404565347236
 20
235.1830972473274
 30
0.0
 11
380.3404565347236
 21
235.1830972473274
 31
0.0
  0
LINE
  5
1E0
330
75
100
AcDbEntity
  8
Hidden (ISO)
100
AcDbLine
 10
381.8404565347226
 20
274.3330972473275
 30
0.0
 11
380.3404565347227
 21
274.3330972473275
 31
0.0
  0
LINE
  5
1E1
330
75
100
AcDbEntity
  8
Hidden (ISO)
100
AcDbLine
 10
381.8404565347226
 20
279.5330972473275
 30
0.0
 11
380.3404565347227
 21
279.5330972473275
 31
0.0
  0
LINE
  5
1E2
330
75
100
AcDbEntity
  8
Hidden (ISO)
100
AcDbLine
 10
381.8404565347226
 20
139.3330972473275
 30
0.0
 11
380.3404565347227
 21
139.3330972473275
 31
0.0
  0
LINE
  5
1E3
330
75
100
AcDbEntity
  8
Hidden (ISO)
100
AcDbLine
 10
381.8404565347226
 20
144.5330972473275
 30
0.0
 11
380.3404565347227
 21
144.5330972473275
 31
0.0
  0
CIRCLE
  5
1E4
330
75
100
AcDbEntity
  8
Visible (ISO)
100
AcDbCircle
 10
235.441318716833
 20
185.2330972473274
 30
0.0
 40
1.65
  0
CIRCLE
  5
1E5
330
75
100
AcDbEntity
  8
Visible (ISO)
100
AcDbCircle
 10
169.234318716833
 20
233.8330972473275
 30
0.0
 40
1.65
  0
CIRCLE
  5
1E6
330
75
100
AcDbEntity
  8
Visible (ISO)
100
AcDbCircle
 10
235.441318716833
 20
233.8330972473275
 30
0.0
 40
1.65
  0
CIRCLE
  5
1E7
330
75
100
AcDbEntity
  8
Visible (ISO)
100
AcDbCircle
 10
169.234318716833
 20
185.2330972473274
 30
0.0
 40
1.65
  0
LINE
  5
1E8
330
75
100
AcDbEntity
  8
Visible (ISO)
100
AcDbLine
 10
249.9413187168502
 20
281.9330972473275
 30
0.0
 11
249.9413187168508
 21
279.9330972473275
 31
0.0
  0
LINE
  5
1E9
330
75
100
AcDbEntity
  8
Visible (ISO)
100
AcDbLine
 10
249.9413187168508
 20
138.9330972473275
 30
0.0
 11
249.9413187168508
 21
279.9330972473275
 31
0.0
  0
LINE
  5
1EA
330
75
100
AcDbEntity
  8
Visible (ISO)
100
AcDbLine
 10
249.9413187168508
 20
138.9330972473275
 30
0.0
 11
249.9413187168502
 21
136.9330972473275
 31
0.0
  0
LINE
  5
1EB
330
75
100
AcDbEntity
  8
Visible (ISO)
100
AcDbLine
 10
248.4413187168502
 20
136.9330972473275
 30
0.0
 11
248.4413187168508
 21
138.9330972473275
 31
0.0
  0
LINE
  5
1EC
330
75
100
AcDbEntity
  8
Visible (ISO)
100
AcDbLine
 10
248.4413187168508
 20
138.9330972473275
 30
0.0
 11
248.4413187168508
 21
279.9330972473275
 31
0.0
  0
LINE
  5
1ED
330
75
100
AcDbEntity
  8
Visible (ISO)
100
AcDbLine
 10
248.4413187168508
 20
279.9330972473275
 30
0.0
 11
248.4413187168502
 21
281.9330972473275
 31
0.0
  0
LINE
  5
1EE
330
75
100
AcDbEntity
  8
Visible (ISO)
100
AcDbLine
 10
165.4843187168319
 20
151.9330972473275
 30
0.0
 11
243.691318716832
 21
151.9330972473274
 31
0.0
  0
LINE
  5
1EF
330
75
100
AcDbEntity
  8
Visible (ISO)
100
AcDbLine
 10
165.484318716832
 20
173.9796701225812
 30
0.0
 11
165.4843187168319
 21
173.2725633413947
 31
0.0
  0
LINE
  5
1F0
330
75
100
AcDbEntity
  8
Visible (ISO)
100
AcDbLine
 10
172.984318716832
 20
173.9796701225812
 30
0.0
 11
172.9843187168319
 21
173.2725633413946
 31
0.0
  0
LINE
  5
1F1
330
75
100
AcDbEntity
  8
Visible (ISO)
100
AcDbLine
 10
165.484318716833
 20
177.4545438567341
 30
0.0
 11
165.484318716832
 21
173.9796701225812
 31
0.0
  0
LINE
  5
1F2
330
75
100
AcDbEntity
  8
Visible (ISO)
100
AcDbLine
 10
172.984318716833
 20
177.4545438567341
 30
0.0
 11
172.984318716832
 21
173.9796701225812
 31
0.0
  0
LINE
  5
1F3
330
75
100
AcDbEntity
  8
Visible (ISO)
100
AcDbLine
 10
165.4843187168331
 20
177.4545438567341
 30
0.0
 11
165.4843187168333
 21
179.2223108097005
 31
0.0
  0
LINE
  5
1F4
330
75
100
AcDbEntity
  8
Visible (ISO)
100
AcDbLine
 10
172.9843187168331
 20
177.4545438567341
 30
0.0
 11
172.9843187168333
 21
179.2223108097005
 31
0.0
  0
LINE
  5
1F5
330
75
100
AcDbEntity
  8
Visible (ISO)
100
AcDbLine
 10
172.9843187168333
 20
190.8080972473274
 30
0.0
 11
165.4843187168333
 21
190.8080972473274
 31
0.0
  0
LINE
  5
1F6
330
75
100
AcDbEntity
  8
Visible (ISO)
100
AcDbLine
 10
165.4843187168333
 20
190.8080972473274
 30
0.0
 11
165.4843187168333
 21
179.2223108097005
 31
0.0
  0
LINE
  5
1F7
330
75
100
AcDbEntity
  8
Visible (ISO)
100
AcDbLine
 10
172.9843187168333
 20
190.8080972473274
 30
0.0
 11
172.9843187168333
 21
179.2223108097005
 31
0.0
  0
LINE
  5
1F8
330
75
100
AcDbEntity
  8
Visible (ISO)
100
AcDbLine
 10
172.9843187168319
 20
248.7580972473275
 30
0.0
 11
174.9843187168319
 21
248.7580972473275
 31
0.0
  0
LINE
  5
1F9
330
75
100
AcDbEntity
  8
Visible (ISO)
100
AcDbLine
 10
174.9843187168319
 20
248.7580972473275
 30
0.0
 11
174.9843187168319
 21
170.3080972473274
 31
0.0
  0
LINE
  5
1FA
330
75
100
AcDbEntity
  8
Visible (ISO)
100
AcDbLine
 10
174.9843187168319
 20
170.3080972473274
 30
0.0
 11
172.9843187168319
 21
170.3080972473274
 31
0.0
  0
LINE
  5
1FB
330
75
100
AcDbEntity
  8
Visible (ISO)
100
AcDbLine
 10
172.9843187168319
 20
173.2725633413947
 30
0.0
 11
172.9843187168319
 21
170.3080972473274
 31
0.0
  0
LINE
  5
1FC
330
75
100
AcDbEntity
  8
Visible (ISO)
100
AcDbLine
 10
165.4843187168319
 20
151.9330972473275
 30
0.0
 11
165.4843187168319
 21
173.2725633413947
 31
0.0
  0
LINE
  5
1FD
330
75
100
AcDbEntity
  8
Visible (ISO)
100
AcDbLine
 10
247.441318716832
 20
151.9330972473274
 30
0.0
 11
243.691318716832
 21
151.9330972473274
 31
0.0
  0
LINE
  5
1FE
330
75
100
AcDbEntity
  8
Visible (ISO)
100
AcDbLine
 10
247.441318716832
 20
266.9330972473275
 30
0.0
 11
243.691318716832
 21
266.9330972473275
 31
0.0
  0
LINE
  5
1FF
330
75
100
AcDbEntity
  8
Visible (ISO)
100
AcDbLine
 10
165.4843187168319
 20
266.9330972473275
 30
0.0
 11
243.691318716832
 21
266.9330972473275
 31
0.0
  0
LINE
  5
200
330
75
100
AcDbEntity
  8
Visible (ISO)
100
AcDbLine
 10
165.4843187168319
 20
245.7936311532602
 30
0.0
 11
165.4843187168319
 21
266.9330972473275
 31
0.0
  0
LINE
  5
201
330
75
100
AcDbEntity
  8
Visible (ISO)
100
AcDbLine
 10
172.9843187168319
 20
245.7936311532602
 30
0.0
 11
172.9843187168319
 21
248.7580972473275
 31
0.0
  0
LINE
  5
202
330
75
100
AcDbEntity
  8
Visible (ISO)
100
AcDbLine
 10
229.691318716832
 20
248.7580972473275
 30
0.0
 11
231.6913187168319
 21
248.7580972473275
 31
0.0
  0
LINE
  5
203
330
75
100
AcDbEntity
  8
Visible (ISO)
100
AcDbLine
 10
231.6913187168319
 20
245.7936311532602
 30
0.0
 11
231.6913187168319
 21
248.7580972473275
 31
0.0
  0
LINE
  5
204
330
75
100
AcDbEntity
  8
Visible (ISO)
100
AcDbLine
 10
239.191318716832
 20
245.7936311532602
 30
0.0
 11
239.191318716832
 21
248.7580972473275
 31
0.0
  0
LINE
  5
205
330
75
100
AcDbEntity
  8
Visible (ISO)
100
AcDbLine
 10
239.191318716832
 20
248.7580972473275
 30
0.0
 11
241.191318716832
 21
248.7580972473275
 31
0.0
  0
LINE
  5
206
330
75
100
AcDbEntity
  8
Visible (ISO)
100
AcDbLine
 10
241.191318716832
 20
248.7580972473275
 30
0.0
 11
241.191318716832
 21
223.2580972473275
 31
0.0
  0
LINE
  5
207
330
75
100
AcDbEntity
  8
Visible (ISO)
100
AcDbLine
 10
241.191318716832
 20
223.2580972473275
 30
0.0
 11
229.6913187168318
 21
223.2580972473275
 31
0.0
  0
LINE
  5
208
330
75
100
AcDbEntity
  8
Visible (ISO)
100
AcDbLine
 10
229.6913187168318
 20
223.2580972473275
 30
0.0
 11
229.691318716832
 21
248.7580972473275
 31
0.0
  0
LINE
  5
209
330
75
100
AcDbEntity
  8
Visible (ISO)
100
AcDbLine
 10
229.691318716832
 20
195.8080972473274
 30
0.0
 11
241.191318716832
 21
195.8080972473274
 31
0.0
  0
LINE
  5
20A
330
75
100
AcDbEntity
  8
Visible (ISO)
100
AcDbLine
 10
241.191318716832
 20
195.8080972473274
 30
0.0
 11
241.191318716832
 21
170.3080972473274
 31
0.0
  0
LINE
  5
20B
330
75
100
AcDbEntity
  8
Visible (ISO)
100
AcDbLine
 10
241.191318716832
 20
170.3080972473274
 30
0.0
 11
239.191318716832
 21
170.3080972473274
 31
0.0
  0
LINE
  5
20C
330
75
100
AcDbEntity
  8
Visible (ISO)
100
AcDbLine
 10
239.191318716832
 20
173.2725633413947
 30
0.0
 11
239.191318716832
 21
170.3080972473274
 31
0.0
  0
LINE
  5
20D
330
75
100
AcDbEntity
  8
Visible (ISO)
100
AcDbLine
 10
231.6913187168319
 20
173.2725633413947
 30
0.0
 11
231.6913187168319
 21
170.3080972473274
 31
0.0
  0
LINE
  5
20E
330
75
100
AcDbEntity
  8
Visible (ISO)
100
AcDbLine
 10
231.6913187168319
 20
170.3080972473274
 30
0.0
 11
229.6913187168318
 21
170.3080972473274
 31
0.0
  0
LINE
  5
20F
330
75
100
AcDbEntity
  8
Visible (ISO)
100
AcDbLine
 10
229.6913187168318
 20
170.3080972473274
 30
0.0
 11
229.691318716832
 21
195.8080972473274
 31
0.0
  0
LINE
  5
210
330
75
100
AcDbEntity
  8
Visible (ISO)
100
AcDbLine
 10
165.484318716832
 20
245.0865243720737
 30
0.0
 11
165.4843187168319
 21
245.7936311532602
 31
0.0
  0
LINE
  5
211
330
75
100
AcDbEntity
  8
Visible (ISO)
100
AcDbLine
 10
172.984318716832
 20
245.0865243720737
 30
0.0
 11
172.9843187168319
 21
245.7936311532602
 31
0.0
  0
LINE
  5
212
330
75
100
AcDbEntity
  8
Visible (ISO)
100
AcDbLine
 10
165.484318716833
 20
241.6116506379208
 30
0.0
 11
165.484318716832
 21
245.0865243720737
 31
0.0
  0
LINE
  5
213
330
75
100
AcDbEntity
  8
Visible (ISO)
100
AcDbLine
 10
172.984318716833
 20
241.6116506379208
 30
0.0
 11
172.984318716832
 21
245.0865243720737
 31
0.0
  0
LINE
  5
214
330
75
100
AcDbEntity
  8
Visible (ISO)
100
AcDbLine
 10
165.4843187168331
 20
241.6116506379208
 30
0.0
 11
165.4843187168333
 21
239.8438836849544
 31
0.0
  0
LINE
  5
215
330
75
100
AcDbEntity
  8
Visible (ISO)
100
AcDbLine
 10
172.9843187168331
 20
241.6116506379208
 30
0.0
 11
172.9843187168333
 21
239.8438836849544
 31
0.0
  0
LINE
  5
216
330
75
100
AcDbEntity
  8
Visible (ISO)
100
AcDbLine
 10
165.4843187168333
 20
228.2580972473275
 30
0.0
 11
165.4843187168333
 21
239.8438836849544
 31
0.0
  0
LINE
  5
217
330
75
100
AcDbEntity
  8
Visible (ISO)
100
AcDbLine
 10
172.9843187168333
 20
228.2580972473275
 30
0.0
 11
165.4843187168333
 21
228.2580972473275
 31
0.0
  0
LINE
  5
218
330
75
100
AcDbEntity
  8
Visible (ISO)
100
AcDbLine
 10
172.9843187168333
 20
228.2580972473275
 30
0.0
 11
172.9843187168333
 21
239.8438836849544
 31
0.0
  0
LINE
  5
219
330
75
100
AcDbEntity
  8
Visible (ISO)
100
AcDbLine
 10
248.4413187168323
 20
266.9330972473275
 30
0.0
 11
247.441318716832
 21
266.9330972473275
 31
0.0
  0
LINE
  5
21A
330
75
100
AcDbEntity
  8
Visible (ISO)
100
AcDbLine
 10
239.191318716832
 20
245.0865243720737
 30
0.0
 11
239.191318716832
 21
245.7936311532602
 31
0.0
  0
LINE
  5
21B
330
75
100
AcDbEntity
  8
Visible (ISO)
100
AcDbLine
 10
239.1913187168331
 20
241.6116506379208
 30
0.0
 11
239.1913187168321
 21
245.0865243720737
 31
0.0
  0
LINE
  5
21C
330
75
100
AcDbEntity
  8
Visible (ISO)
100
AcDbLine
 10
239.1913187168331
 20
241.6116506379208
 30
0.0
 11
239.1913187168333
 21
239.8438836849544
 31
0.0
  0
LINE
  5
21D
330
75
100
AcDbEntity
  8
Visible (ISO)
100
AcDbLine
 10
239.1913187168333
 20
228.2580972473275
 30
0.0
 11
239.1913187168333
 21
239.8438836849544
 31
0.0
  0
LINE
  5
21E
330
75
100
AcDbEntity
  8
Visible (ISO)
100
AcDbLine
 10
231.691318716832
 20
173.9796701225812
 30
0.0
 11
231.6913187168319
 21
173.2725633413947
 31
0.0
  0
LINE
  5
21F
330
75
100
AcDbEntity
  8
Visible (ISO)
100
AcDbLine
 10
239.191318716832
 20
173.9796701225812
 30
0.0
 11
239.191318716832
 21
173.2725633413947
 31
0.0
  0
LINE
  5
220
330
75
100
AcDbEntity
  8
Visible (ISO)
100
AcDbLine
 10
231.691318716832
 20
245.0865243720737
 30
0.0
 11
231.6913187168319
 21
245.7936311532602
 31
0.0
  0
LINE
  5
221
330
75
100
AcDbEntity
  8
Visible (ISO)
100
AcDbLine
 10
231.6913187168333
 20
228.2580972473275
 30
0.0
 11
231.6913187168333
 21
239.8438836849544
 31
0.0
  0
LINE
  5
222
330
75
100
AcDbEntity
  8
Visible (ISO)
100
AcDbLine
 10
231.6913187168331
 20
241.6116506379208
 30
0.0
 11
231.6913187168333
 21
239.8438836849544
 31
0.0
  0
LINE
  5
223
330
75
100
AcDbEntity
  8
Visible (ISO)
100
AcDbLine
 10
231.6913187168331
 20
241.6116506379208
 30
0.0
 11
231.6913187168321
 21
245.0865243720737
 31
0.0
  0
LINE
  5
224
330
75
100
AcDbEntity
  8
Visible (ISO)
100
AcDbLine
 10
231.6913187168331
 20
177.4545438567341
 30
0.0
 11
231.6913187168321
 21
173.9796701225812
 31
0.0
  0
LINE
  5
225
330
75
100
AcDbEntity
  8
Visible (ISO)
100
AcDbLine
 10
231.6913187168331
 20
177.4545438567341
 30
0.0
 11
231.6913187168333
 21
179.2223108097005
 31
0.0
  0
LINE
  5
226
330
75
100
AcDbEntity
  8
Visible (ISO)
100
AcDbLine
 10
231.6913187168333
 20
190.8080972473274
 30
0.0
 11
231.6913187168333
 21
179.2223108097005
 31
0.0
  0
LINE
  5
227
330
75
100
AcDbEntity
  8
Visible (ISO)
100
AcDbLine
 10
239.1913187168333
 20
190.8080972473274
 30
0.0
 11
239.1913187168333
 21
179.2223108097005
 31
0.0
  0
LINE
  5
228
330
75
100
AcDbEntity
  8
Visible (ISO)
100
AcDbLine
 10
239.1913187168331
 20
177.4545438567341
 30
0.0
 11
239.1913187168333
 21
179.2223108097005
 31
0.0
  0
LINE
  5
229
330
75
100
AcDbEntity
  8
Visible (ISO)
100
AcDbLine
 10
239.1913187168331
 20
177.4545438567341
 30
0.0
 11
239.1913187168321
 21
173.9796701225812
 31
0.0
  0
LINE
  5
22A
330
75
100
AcDbEntity
  8
Visible (ISO)
100
AcDbLine
 10
239.1913187168333
 20
228.2580972473275
 30
0.0
 11
231.6913187168333
 21
228.2580972473275
 31
0.0
  0
LINE
  5
22B
330
75
100
AcDbEntity
  8
Visible (ISO)
100
AcDbLine
 10
239.1913187168333
 20
190.8080972473274
 30
0.0
 11
231.6913187168333
 21
190.8080972473274
 31
0.0
  0
LINE
  5
22C
330
75
100
AcDbEntity
  8
Visible (ISO)
100
AcDbLine
 10
248.4413187168323
 20
151.9330972473274
 30
0.0
 11
247.441318716832
 21
151.9330972473274
 31
0.0
  0
LINE
  5
22D
330
75
100
AcDbEntity
  8
Visible (ISO)
100
AcDbLine
 10
249.9413187168502
 20
136.9330972473275
 30
0.0
 11
248.4413187168502
 21
136.9330972473275
 31
0.0
  0
LINE
  5
22E
330
75
100
AcDbEntity
  8
Visible (ISO)
100
AcDbLine
 10
248.4413187168508
 20
138.9330972473275
 30
0.0
 11
249.9413187168508
 21
138.9330972473275
 31
0.0
  0
LINE
  5
22F
330
75
100
AcDbEntity
  8
Visible (ISO)
100
AcDbLine
 10
249.9413187168508
 20
279.9330972473275
 30
0.0
 11
248.4413187168508
 21
279.9330972473275
 31
0.0
  0
LINE
  5
230
330
75
100
AcDbEntity
  8
Visible (ISO)
100
AcDbLine
 10
248.4413187168502
 20
281.9330972473275
 30
0.0
 11
249.9413187168502
 21
281.9330972473275
 31
0.0
  0
CIRCLE
  5
231
330
75
100
AcDbEntity
  8
Hidden (ISO)
100
AcDbCircle
 10
169.2343187168328
 20
185.2330972473274
 30
0.0
 40
2.249999999999995
  0
CIRCLE
  5
232
330
75
100
AcDbEntity
  8
Hidden (ISO)
100
AcDbCircle
 10
169.2343187168328
 20
233.8330972473275
 30
0.0
 40
2.249999999999995
  0
CIRCLE
  5
233
330
75
100
AcDbEntity
  8
Hidden (ISO)
100
AcDbCircle
 10
235.4413187168328
 20
185.2330972473274
 30
0.0
 40
2.249999999999999
  0
CIRCLE
  5
234
330
75
100
AcDbEntity
  8
Hidden (ISO)
100
AcDbCircle
 10
235.4413187168328
 20
233.8330972473275
 30
0.0
 40
2.249999999999999
  0
LINE
  5
235
330
75
100
AcDbEntity
  8
Hidden (ISO)
100
AcDbLine
 10
248.4413187168431
 20
262.2330972473275
 30
0.0
 11
249.9413187168431
 21
262.2330972473275
 31
0.0
  0
LINE
  5
236
330
75
100
AcDbEntity
  8
Hidden (ISO)
100
AcDbLine
 10
248.4413187168431
 20
256.8330972473274
 30
0.0
 11
249.9413187168431
 21
256.8330972473274
 31
0.0
  0
LINE
  5
237
330
75
100
AcDbEntity
  8
Hidden (ISO)
100
AcDbLine
 10
248.4413187168426
 20
254.8330972473275
 30
0.0
 11
249.9413187168425
 21
254.8330972473275
 31
0.0
  0
LINE
  5
238
330
75
100
AcDbEntity
  8
Hidden (ISO)
100
AcDbLine
 10
248.4413187168426
 20
248.0330972473275
 30
0.0
 11
249.9413187168425
 21
248.0330972473275
 31
0.0
  0
LINE
  5
239
330
75
100
AcDbEntity
  8
Hidden (ISO)
100
AcDbLine
 10
248.4413187168431
 20
195.2330972473274
 30
0.0
 11
249.9413187168431
 21
195.2330972473274
 31
0.0
  0
LINE
  5
23A
330
75
100
AcDbEntity
  8
Hidden (ISO)
100
AcDbLine
 10
248.4413187168431
 20
189.8330972473274
 30
0.0
 11
249.9413187168431
 21
189.8330972473274
 31
0.0
  0
LINE
  5
23B
330
75
100
AcDbEntity
  8
Hidden (ISO)
100
AcDbLine
 10
248.4413187168426
 20
187.8330972473274
 30
0.0
 11
249.9413187168425
 21
187.8330972473274
 31
0.0
  0
LINE
  5
23C
330
75
100
AcDbEntity
  8
Hidden (ISO)
100
AcDbLine
 10
248.4413187168426
 20
181.0330972473274
 30
0.0
 11
249.9413187168425
 21
181.0330972473274
 31
0.0
  0
LINE
  5
23D
330
75
100
AcDbEntity
  8
Hidden (ISO)
100
AcDbLine
 10
248.4413187168426
 20
179.0330972473275
 30
0.0
 11
249.9413187168425
 21
179.0330972473275
 31
0.0
  0
LINE
  5
23E
330
75
100
AcDbEntity
  8
Hidden (ISO)
100
AcDbLine
 10
248.4413187168426
 20
174.6330972473274
 30
0.0
 11
249.9413187168425
 21
174.6330972473274
 31
0.0
  0
LINE
  5
23F
330
75
100
AcDbEntity
  8
Hidden (ISO)
100
AcDbLine
 10
248.4413187168496
 20
191.8630972473274
 30
0.0
 11
249.9413187168496
 21
191.8630972473274
 31
0.0
  0
LINE
  5
240
330
75
100
AcDbEntity
  8
Hidden (ISO)
100
AcDbLine
 10
248.4413187168496
 20
190.0630972473274
 30
0.0
 11
249.9413187168496
 21
190.0630972473274
 31
0.0
  0
LINE
  5
241
330
75
100
AcDbEntity
  8
Hidden (ISO)
100
AcDbLine
 10
248.441318716846
 20
271.4330972473275
 30
0.0
 11
249.941318716846
 21
271.4330972473275
 31
0.0
  0
LINE
  5
242
330
75
100
AcDbEntity
  8
Hidden (ISO)
100
AcDbLine
 10
249.9413187168333
 20
266.9330972473275
 30
0.0
 11
248.4413187168333
 21
266.9330972473275
 31
0.0
  0
LINE
  5
243
330
75
100
AcDbEntity
  8
Hidden (ISO)
100
AcDbLine
 10
248.4413187168333
 20
151.9330972473274
 30
0.0
 11
249.9413187168333
 21
151.9330972473274
 31
0.0
  0
LINE
  5
244
330
75
100
AcDbEntity
  8
Hidden (ISO)
100
AcDbLine
 10
248.441318716846
 20
147.4330972473274
 30
0.0
 11
249.941318716846
 21
147.4330972473274
 31
0.0
  0
LINE
  5
245
330
75
100
AcDbEntity
  8
Hidden (ISO)
100
AcDbLine
 10
248.4413187168418
 20
207.0830972473275
 30
0.0
 11
249.9413187168419
 21
207.0830972473275
 31
0.0
  0
LINE
  5
246
330
75
100
AcDbEntity
  8
Hidden (ISO)
100
AcDbLine
 10
248.4413187168418
 20
202.5830972473275
 30
0.0
 11
249.9413187168419
 21
202.5830972473275
 31
0.0
  0
LINE
  5
247
330
75
100
AcDbEntity
  8
Hidden (ISO)
100
AcDbLine
 10
248.4413187168484
 20
186.5830972473274
 30
0.0
 11
249.9413187168484
 21
186.5830972473274
 31
0.0
  0
LINE
  5
248
330
75
100
AcDbEntity
  8
Hidden (ISO)
100
AcDbLine
 10
248.4413187168484
 20
183.8830972473274
 30
0.0
 11
249.9413187168484
 21
183.8830972473274
 31
0.0
  0
LINE
  5
249
330
75
100
AcDbEntity
  8
Hidden (ISO)
100
AcDbLine
 10
248.4413187168484
 20
235.1830972473274
 30
0.0
 11
249.9413187168484
 21
235.1830972473274
 31
0.0
  0
LINE
  5
24A
330
75
100
AcDbEntity
  8
Hidden (ISO)
100
AcDbLine
 10
248.4413187168484
 20
232.4830972473274
 30
0.0
 11
249.9413187168484
 21
232.4830972473274
 31
0.0
  0
LINE
  5
24B
330
75
100
AcDbEntity
  8
Hidden (ISO)
100
AcDbLine
 10
248.4413187168484
 20
144.5330972473275
 30
0.0
 11
249.9413187168484
 21
144.5330972473275
 31
0.0
  0
LINE
  5
24C
330
75
100
AcDbEntity
  8
Hidden (ISO)
100
AcDbLine
 10
248.4413187168484
 20
139.3330972473275
 30
0.0
 11
249.9413187168484
 21
139.3330972473275
 31
0.0
  0
LINE
  5
24D
330
75
100
AcDbEntity
  8
Hidden (ISO)
100
AcDbLine
 10
248.4413187168484
 20
279.5330972473275
 30
0.0
 11
249.9413187168484
 21
279.5330972473275
 31
0.0
  0
LINE
  5
24E
330
75
100
AcDbEntity
  8
Hidden (ISO)
100
AcDbLine
 10
248.4413187168484
 20
274.3330972473274
 30
0.0
 11
249.9413187168484
 21
274.3330972473274
 31
0.0
  0
LINE
  5
24F
330
75
100
AcDbEntity
  8
Hidden (ISO)
100
AcDbLine
 10
286.8290499990395
 20
330.1824101895028
 30
0.0
 11
286.8290499990395
 21
326.8824101895028
 31
0.0
  0
LINE
  5
250
330
75
100
AcDbEntity
  8
Hidden (ISO)
100
AcDbLine
 10
286.8290499990396
 20
396.3894101895028
 30
0.0
 11
286.8290499990396
 21
393.0894101895028
 31
0.0
  0
LINE
  5
251
330
75
100
AcDbEntity
  8
Hidden (ISO)
100
AcDbLine
 10
286.8290499990395
 20
326.8824101895028
 30
0.0
 11
285.0905335183261
 21
326.8824101895028
 31
0.0
  0
LINE
  5
252
330
75
100
AcDbEntity
  8
Hidden (ISO)
100
AcDbLine
 10
286.8290499990395
 20
330.1824101895028
 30
0.0
 11
285.0905335183261
 21
330.1824101895028
 31
0.0
  0
LINE
  5
253
330
75
100
AcDbEntity
  8
Hidden (ISO)
100
AcDbLine
 10
286.8290499990396
 20
393.0894101895028
 30
0.0
 11
285.0905335183262
 21
393.0894101895028
 31
0.0
  0
LINE
  5
254
330
75
100
AcDbEntity
  8
Hidden (ISO)
100
AcDbLine
 10
286.8290499990396
 20
396.3894101895028
 30
0.0
 11
285.0905335183262
 21
396.3894101895028
 31
0.0
  0
LINE
  5
255
330
75
100
AcDbEntity
  8
Visible (ISO)
100
AcDbLine
 10
332.7905335183261
 20
314.0324101894884
 30
0.0
 11
344.7905335183261
 21
314.0324101894884
 31
0.0
  0
LINE
  5
256
330
75
100
AcDbEntity
  8
Visible (ISO)
100
AcDbLine
 10
332.7905335183261
 20
314.0324101894884
 30
0.0
 11
330.7905335183261
 21
314.032410189489
 31
0.0
  0
LINE
  5
257
330
75
100
AcDbEntity
  8
Visible (ISO)
100
AcDbLine
 10
303.7905335183261
 20
314.0324101894915
 30
0.0
 11
330.7905335183261
 21
314.0324101894915
 31
0.0
  0
LINE
  5
258
330
75
100
AcDbEntity
  8
Visible (ISO)
100
AcDbLine
 10
303.7905335183261
 20
314.032410189489
 30
0.0
 11
301.7905335183261
 21
314.0324101894884
 31
0.0
  0
LINE
  5
259
330
75
100
AcDbEntity
  8
Visible (ISO)
100
AcDbLine
 10
289.7905335183261
 20
314.0324101894884
 30
0.0
 11
301.7905335183261
 21
314.0324101894884
 31
0.0
  0
LINE
  5
25A
330
75
100
AcDbEntity
  8
Visible (ISO)
100
AcDbLine
 10
289.7905335183261
 20
314.0324101894884
 30
0.0
 11
287.7905335183261
 21
314.032410189489
 31
0.0
  0
LINE
  5
25B
330
75
100
AcDbEntity
  8
Visible (ISO)
100
AcDbLine
 10
284.2905335183261
 20
314.0324101894929
 30
0.0
 11
287.7905335183261
 21
314.0324101894929
 31
0.0
  0
LINE
  5
25C
330
75
100
AcDbEntity
  8
Visible (ISO)
100
AcDbLine
 10
346.7905335183261
 20
314.032410189489
 30
0.0
 11
344.7905335183261
 21
314.0324101894884
 31
0.0
  0
LINE
  5
25D
330
75
100
AcDbEntity
  8
Visible (ISO)
100
AcDbLine
 10
330.7905335183261
 20
315.532410189489
 30
0.0
 11
332.7905335183261
 21
315.5324101894884
 31
0.0
  0
LINE
  5
25E
330
75
100
AcDbEntity
  8
Visible (ISO)
100
AcDbLine
 10
332.7905335183261
 20
315.5324101894884
 30
0.0
 11
344.790533518326
 21
315.5324101894884
 31
0.0
  0
LINE
  5
25F
330
75
100
AcDbEntity
  8
Visible (ISO)
100
AcDbLine
 10
344.790533518326
 20
315.5324101894884
 30
0.0
 11
346.7905335183261
 21
315.532410189489
 31
0.0
  0
LINE
  5
260
330
75
100
AcDbEntity
  8
Visible (ISO)
100
AcDbLine
 10
284.2905335183261
 20
315.5324101894929
 30
0.0
 11
287.7905335183261
 21
315.5324101894929
 31
0.0
  0
LINE
  5
261
330
75
100
AcDbEntity
  8
Visible (ISO)
100
AcDbLine
 10
287.7905335183261
 20
315.532410189489
 30
0.0
 11
289.790533518326
 21
315.5324101894884
 31
0.0
  0
LINE
  5
262
330
75
100
AcDbEntity
  8
Visible (ISO)
100
AcDbLine
 10
289.790533518326
 20
315.5324101894884
 30
0.0
 11
301.7905335183261
 21
315.5324101894884
 31
0.0
  0
LINE
  5
263
330
75
100
AcDbEntity
  8
Visible (ISO)
100
AcDbLine
 10
301.7905335183261
 20
315.5324101894884
 30
0.0
 11
303.7905335183261
 21
315.532410189489
 31
0.0
  0
LINE
  5
264
330
75
100
AcDbEntity
  8
Visible (ISO)
100
AcDbLine
 10
303.7905335183261
 20
315.5324101894915
 30
0.0
 11
330.7905335183261
 21
315.5324101894915
 31
0.0
  0
LINE
  5
265
330
75
100
AcDbEntity
  8
Visible (ISO)
100
AcDbLine
 10
281.7905335183259
 20
398.4894101894929
 30
0.0
 11
281.7905335183261
 21
320.2824101894929
 31
0.0
  0
LINE
  5
266
330
75
100
AcDbEntity
  8
Visible (ISO)
100
AcDbLine
 10
283.2905335183259
 20
398.4894101894929
 30
0.0
 11
283.2905335183261
 21
320.2824101894929
 31
0.0
  0
LINE
  5
267
330
75
100
AcDbEntity
  8
Visible (ISO)
100
AcDbLine
 10
281.7905335183259
 20
398.4894101894929
 30
0.0
 11
283.2905335183259
 21
398.4894101894929
 31
0.0
  0
LINE
  5
268
330
75
100
AcDbEntity
  8
Visible (ISO)
100
AcDbLine
 10
283.5834267371396
 20
398.4894101894994
 30
0.0
 11
283.2905335183261
 21
398.4894101894992
 31
0.0
  0
LINE
  5
269
330
75
100
AcDbEntity
  8
Visible (ISO)
100
AcDbLine
 10
283.5834267371396
 20
390.9894101894994
 30
0.0
 11
283.2905335183261
 21
390.9894101894991
 31
0.0
  0
LINE
  5
26A
330
75
100
AcDbEntity
  8
Visible (ISO)
100
AcDbLine
 10
287.0583004712925
 20
398.4894101895004
 30
0.0
 11
283.5834267371396
 21
398.4894101894994
 31
0.0
  0
LINE
  5
26B
330
75
100
AcDbEntity
  8
Visible (ISO)
100
AcDbLine
 10
287.0583004712925
 20
390.9894101895004
 30
0.0
 11
283.5834267371396
 21
390.9894101894995
 31
0.0
  0
LINE
  5
26C
330
75
100
AcDbEntity
  8
Visible (ISO)
100
AcDbLine
 10
287.7905335183261
 20
390.989410189501
 30
0.0
 11
287.7905335183261
 21
398.489410189501
 31
0.0
  0
LINE
  5
26D
330
75
100
AcDbEntity
  8
Visible (ISO)
100
AcDbLine
 10
287.0583004712925
 20
398.4894101895005
 30
0.0
 11
287.7905335183261
 21
398.489410189501
 31
0.0
  0
LINE
  5
26E
330
75
100
AcDbEntity
  8
Visible (ISO)
100
AcDbLine
 10
287.0583004712925
 20
390.9894101895004
 30
0.0
 11
287.7905335183261
 21
390.9894101895009
 31
0.0
  0
LINE
  5
26F
330
75
100
AcDbEntity
  8
Visible (ISO)
100
AcDbLine
 10
283.2905335183261
 20
316.5324101894929
 30
0.0
 11
283.2905335183261
 21
320.2824101894929
 31
0.0
  0
LINE
  5
270
330
75
100
AcDbEntity
  8
Visible (ISO)
100
AcDbLine
 10
281.7905335183261
 20
316.5324101894929
 30
0.0
 11
281.7905335183261
 21
320.2824101894929
 31
0.0
  0
LINE
  5
271
330
75
100
AcDbEntity
  8
Visible (ISO)
100
AcDbLine
 10
283.5834267371395
 20
332.2824101894994
 30
0.0
 11
283.2905335183261
 21
332.2824101894992
 31
0.0
  0
LINE
  5
272
330
75
100
AcDbEntity
  8
Visible (ISO)
100
AcDbLine
 10
283.5834267371396
 20
324.7824101894995
 30
0.0
 11
283.2905335183261
 21
324.7824101894992
 31
0.0
  0
LINE
  5
273
330
75
100
AcDbEntity
  8
Visible (ISO)
100
AcDbLine
 10
287.0583004712925
 20
332.2824101895004
 30
0.0
 11
283.5834267371395
 21
332.2824101894994
 31
0.0
  0
LINE
  5
274
330
75
100
AcDbEntity
  8
Visible (ISO)
100
AcDbLine
 10
287.0583004712925
 20
332.2824101895004
 30
0.0
 11
287.7905335183261
 21
332.2824101895009
 31
0.0
  0
LINE
  5
275
330
75
100
AcDbEntity
  8
Visible (ISO)
100
AcDbLine
 10
287.0583004712925
 20
324.7824101895004
 30
0.0
 11
287.7905335183261
 21
324.7824101895009
 31
0.0
  0
LINE
  5
276
330
75
100
AcDbEntity
  8
Visible (ISO)
100
AcDbLine
 10
287.0583004712925
 20
324.7824101895004
 30
0.0
 11
283.5834267371396
 21
324.7824101894994
 31
0.0
  0
LINE
  5
277
330
75
100
AcDbEntity
  8
Visible (ISO)
100
AcDbLine
 10
287.7905335183261
 20
324.782410189501
 30
0.0
 11
287.7905335183261
 21
332.282410189501
 31
0.0
  0
ARC
  5
278
330
75
100
AcDbEntity
  8
Visible (ISO)
100
AcDbCircle
 10
284.2905335183261
 20
316.5324101894929
 30
0.0
 40
1.000000000000001
100
AcDbArc
 50
180.0
 51
270.0
  0
ARC
  5
279
330
75
100
AcDbEntity
  8
Visible (ISO)
100
AcDbCircle
 10
284.2905335183261
 20
316.5324101894929
 30
0.0
 40
2.499999999999999
100
AcDbArc
 50
180.0
 51
270.0
  0
LINE
  5
27A
330
75
100
AcDbEntity
  8
Visible (ISO)
100
AcDbLine
 10
344.7905335183261
 20
314.0324101894884
 30
0.0
 11
344.790533518326
 21
315.5324101894884
 31
0.0
  0
LINE
  5
27B
330
75
100
AcDbEntity
  8
Visible (ISO)
100
AcDbLine
 10
346.7905335183261
 20
315.532410189489
 30
0.0
 11
346.7905335183261
 21
314.032410189489
 31
0.0
  0
LINE
  5
27C
330
75
100
AcDbEntity
  8
Visible (ISO)
100
AcDbLine
 10
287.7905335183261
 20
314.032410189489
 30
0.0
 11
287.7905335183261
 21
315.532410189489
 31
0.0
  0
LINE
  5
27D
330
75
100
AcDbEntity
  8
Visible (ISO)
100
AcDbLine
 10
289.790533518326
 20
315.5324101894884
 30
0.0
 11
289.7905335183261
 21
314.0324101894884
 31
0.0
  0
LINE
  5
27E
330
75
100
AcDbEntity
  8
Visible (ISO)
100
AcDbLine
 10
301.7905335183261
 20
314.0324101894884
 30
0.0
 11
301.7905335183261
 21
315.5324101894884
 31
0.0
  0
LINE
  5
27F
330
75
100
AcDbEntity
  8
Visible (ISO)
100
AcDbLine
 10
303.7905335183261
 20
315.532410189489
 30
0.0
 11
303.7905335183261
 21
314.032410189489
 31
0.0
  0
LINE
  5
280
330
75
100
AcDbEntity
  8
Visible (ISO)
100
AcDbLine
 10
330.7905335183261
 20
314.032410189489
 30
0.0
 11
330.7905335183261
 21
315.532410189489
 31
0.0
  0
LINE
  5
281
330
75
100
AcDbEntity
  8
Visible (ISO)
100
AcDbLine
 10
332.7905335183261
 20
315.5324101894884
 30
0.0
 11
332.7905335183261
 21
314.0324101894884
 31
0.0
  0
LINE
  5
282
330
75
100
AcDbEntity
  8
Hidden (ISO)
100
AcDbLine
 10
286.2905335183261
 20
390.989410189501
 30
0.0
 11
286.2905335183261
 21
398.489410189501
 31
0.0
  0
LINE
  5
283
330
75
100
AcDbEntity
  8
Hidden (ISO)
100
AcDbLine
 10
285.0905335183261
 20
330.7824101895028
 30
0.0
 11
285.0905335183261
 21
326.2824101895028
 31
0.0
  0
LINE
  5
284
330
75
100
AcDbEntity
  8
Hidden (ISO)
100
AcDbLine
 10
283.2905335183261
 20
324.7824101894983
 30
0.0
 11
281.7905335183261
 21
324.7824101894983
 31
0.0
  0
LINE
  5
285
330
75
100
AcDbEntity
  8
Hidden (ISO)
100
AcDbLine
 10
283.2905335183261
 20
322.7824101894984
 30
0.0
 11
281.7905335183261
 21
322.7824101894984
 31
0.0
  0
LINE
  5
286
330
75
100
AcDbEntity
  8
Hidden (ISO)
100
AcDbLine
 10
283.2905335183261
 20
332.2824101894983
 30
0.0
 11
281.7905335183261
 21
332.2824101894983
 31
0.0
  0
LINE
  5
287
330
75
100
AcDbEntity
  8
Hidden (ISO)
100
AcDbLine
 10
283.2905335183261
 20
334.2824101894986
 30
0.0
 11
281.7905335183261
 21
334.2824101894984
 31
0.0
  0
LINE
  5
288
330
75
100
AcDbEntity
  8
Hidden (ISO)
100
AcDbLine
 10
286.2905335183261
 20
324.782410189501
 30
0.0
 11
286.2905335183261
 21
332.282410189501
 31
0.0
  0
LINE
  5
289
330
75
100
AcDbEntity
  8
Hidden (ISO)
100
AcDbLine
 10
320.9905335183262
 20
315.5324101895041
 30
0.0
 11
320.9905335183262
 21
314.0324101895041
 31
0.0
  0
LINE
  5
28A
330
75
100
AcDbEntity
  8
Hidden (ISO)
100
AcDbLine
 10
312.5905335183261
 20
315.5324101895041
 30
0.0
 11
312.5905335183261
 21
314.0324101895041
 31
0.0
  0
LINE
  5
28B
330
75
100
AcDbEntity
  8
Hidden (ISO)
100
AcDbLine
 10
318.9905335183261
 20
315.5324101894996
 30
0.0
 11
318.9905335183261
 21
314.0324101894996
 31
0.0
  0
LINE
  5
28C
330
75
100
AcDbEntity
  8
Hidden (ISO)
100
AcDbLine
 10
314.5905335183261
 20
315.5324101894996
 30
0.0
 11
314.5905335183261
 21
314.0324101894996
 31
0.0
  0
LINE
  5
28D
330
75
100
AcDbEntity
  8
Hidden (ISO)
100
AcDbLine
 10
342.7905335183262
 20
315.5324101895042
 30
0.0
 11
342.7905335183262
 21
314.0324101895042
 31
0.0
  0
LINE
  5
28E
330
75
100
AcDbEntity
  8
Hidden (ISO)
100
AcDbLine
 10
334.7905335183262
 20
315.5324101895042
 30
0.0
 11
334.7905335183262
 21
314.0324101895042
 31
0.0
  0
LINE
  5
28F
330
75
100
AcDbEntity
  8
Hidden (ISO)
100
AcDbLine
 10
302.7905335183261
 20
315.5324101895042
 30
0.0
 11
302.7905335183261
 21
314.0324101895042
 31
0.0
  0
LINE
  5
290
330
75
100
AcDbEntity
  8
Hidden (ISO)
100
AcDbLine
 10
294.7905335183261
 20
315.5324101895042
 30
0.0
 11
294.7905335183261
 21
314.0324101895042
 31
0.0
  0
LINE
  5
291
330
75
100
AcDbEntity
  8
Hidden (ISO)
100
AcDbLine
 10
283.290533518326
 20
390.9894101894983
 30
0.0
 11
281.7905335183259
 21
390.9894101894983
 31
0.0
  0
LINE
  5
292
330
75
100
AcDbEntity
  8
Hidden (ISO)
100
AcDbLine
 10
283.290533518326
 20
388.9894101894983
 30
0.0
 11
281.7905335183259
 21
388.9894101894983
 31
0.0
  0
LINE
  5
293
330
75
100
AcDbEntity
  8
Hidden (ISO)
100
AcDbLine
 10
285.0905335183262
 20
396.9894101895028
 30
0.0
 11
285.0905335183262
 21
392.4894101895028
 31
0.0
  0
LINE
  5
294
330
75
100
AcDbEntity
  8
Hidden (ISO)
100
AcDbLine
 10
286.2905335183261
 20
326.2824101895028
 30
0.0
 11
285.0905335183261
 21
326.2824101895028
 31
0.0
  0
LINE
  5
295
330
75
100
AcDbEntity
  8
Hidden (ISO)
100
AcDbLine
 10
286.2905335183261
 20
330.7824101895028
 30
0.0
 11
285.0905335183261
 21
330.7824101895028
 31
0.0
  0
ARC
  5
296
330
75
100
AcDbEntity
  8
Hidden (ISO)
100
AcDbCircle
 10
286.2905335183261
 20
331.5824101895028
 30
0.0
 40
1.5
100
AcDbArc
 50
291.0394697813168
 51
0.0
  0
ARC
  5
297
330
75
100
AcDbEntity
  8
Hidden (ISO)
100
AcDbCircle
 10
286.2905335183261
 20
325.4824101895028
 30
0.0
 40
1.5
100
AcDbArc
 50
0.0
 51
68.96053021868448
  0
LINE
  5
298
330
75
100
AcDbEntity
  8
Hidden (ISO)
100
AcDbLine
 10
319.0405335183261
 20
315.5324101895086
 30
0.0
 11
319.0405335183261
 21
314.0324101895086
 31
0.0
  0
LINE
  5
299
330
75
100
AcDbEntity
  8
Hidden (ISO)
100
AcDbLine
 10
314.5405335183261
 20
315.5324101895086
 30
0.0
 11
314.5405335183261
 21
314.0324101895086
 31
0.0
  0
LINE
  5
29A
330
75
100
AcDbEntity
  8
Hidden (ISO)
100
AcDbLine
 10
340.1405335183262
 20
315.5324101895027
 30
0.0
 11
340.1405335183262
 21
314.0324101895028
 31
0.0
  0
LINE
  5
29B
330
75
100
AcDbEntity
  8
Hidden (ISO)
100
AcDbLine
 10
337.4405335183261
 20
315.5324101895027
 30
0.0
 11
337.4405335183261
 21
314.0324101895028
 31
0.0
  0
LINE
  5
29C
330
75
100
AcDbEntity
  8
Hidden (ISO)
100
AcDbLine
 10
300.1405335183262
 20
315.5324101895027
 30
0.0
 11
300.1405335183262
 21
314.0324101895028
 31
0.0
  0
LINE
  5
29D
330
75
100
AcDbEntity
  8
Hidden (ISO)
100
AcDbLine
 10
297.4405335183261
 20
315.5324101895027
 30
0.0
 11
297.4405335183261
 21
314.0324101895028
 31
0.0
  0
LINE
  5
29E
330
75
100
AcDbEntity
  8
Hidden (ISO)
100
AcDbLine
 10
341.3905335183262
 20
315.5324101894899
 30
0.0
 11
341.3905335183262
 21
314.0324101894899
 31
0.0
  0
LINE
  5
29F
330
75
100
AcDbEntity
  8
Hidden (ISO)
100
AcDbLine
 10
336.1905335183261
 20
315.5324101894899
 30
0.0
 11
336.1905335183261
 21
314.0324101894899
 31
0.0
  0
ARC
  5
2A0
330
75
100
AcDbEntity
  8
Hidden (ISO)
100
AcDbCircle
 10
286.2905335183261
 20
397.7894101895028
 30
0.0
 40
1.5
100
AcDbArc
 50
291.0394697813168
 51
0.0
  0
ARC
  5
2A1
330
75
100
AcDbEntity
  8
Hidden (ISO)
100
AcDbCircle
 10
286.2905335183261
 20
391.6894101895028
 30
0.0
 40
1.5
100
AcDbArc
 50
0.0
 51
68.9605302186832
  0
LINE
  5
2A2
330
75
100
AcDbEntity
  8
Hidden (ISO)
100
AcDbLine
 10
286.2905335183262
 20
392.4894101895028
 30
0.0
 11
285.0905335183262
 21
392.4894101895028
 31
0.0
  0
LINE
  5
2A3
330
75
100
AcDbEntity
  8
Hidden (ISO)
100
AcDbLine
 10
286.2905335183262
 20
396.9894101895027
 30
0.0
 11
285.0905335183262
 21
396.9894101895027
 31
0.0
  0
LINE
  5
2A4
330
75
100
AcDbEntity
  8
Hidden (ISO)
100
AcDbLine
 10
298.3905335183261
 20
315.5324101894899
 30
0.0
 11
298.3905335183261
 21
314.0324101894899
 31
0.0
  0
LINE
  5
2A5
330
75
100
AcDbEntity
  8
Hidden (ISO)
100
AcDbLine
 10
293.1905335183261
 20
315.5324101894899
 30
0.0
 11
293.1905335183261
 21
314.0324101894899
 31
0.0
  0
LINE
  5
2A6
330
75
100
AcDbEntity
  8
Hidden (ISO)
100
AcDbLine
 10
286.8290499990396
 20
29.1782008211873
 30
0.0
 11
286.8290499990396
 21
25.8782008211873
 31
0.0
  0
LINE
  5
2A7
330
75
100
AcDbEntity
  8
Hidden (ISO)
100
AcDbLine
 10
286.8290499990395
 20
95.38520082118735
 30
0.0
 11
286.8290499990395
 21
92.08520082118731
 31
0.0
  0
LINE
  5
2A8
330
75
100
AcDbEntity
  8
Hidden (ISO)
100
AcDbLine
 10
286.8290499990396
 20
25.87820082118732
 30
0.0
 11
285.0905335183262
 21
25.87820082118732
 31
0.0
  0
LINE
  5
2A9
330
75
100
AcDbEntity
  8
Hidden (ISO)
100
AcDbLine
 10
286.8290499990396
 20
29.17820082118732
 30
0.0
 11
285.0905335183262
 21
29.17820082118732
 31
0.0
  0
LINE
  5
2AA
330
75
100
AcDbEntity
  8
Hidden (ISO)
100
AcDbLine
 10
286.8290499990395
 20
92.08520082118733
 30
0.0
 11
285.0905335183261
 21
92.08520082118733
 31
0.0
  0
LINE
  5
2AB
330
75
100
AcDbEntity
  8
Hidden (ISO)
100
AcDbLine
 10
286.8290499990395
 20
95.38520082118735
 30
0.0
 11
285.0905335183261
 21
95.38520082118735
 31
0.0
  0
LINE
  5
2AC
330
75
100
AcDbEntity
  8
Visible (ISO)
100
AcDbLine
 10
287.7905335183261
 20
108.2352008211971
 30
0.0
 11
284.2905335183261
 21
108.2352008211971
 31
0.0
  0
LINE
  5
2AD
330
75
100
AcDbEntity
  8
Visible (ISO)
100
AcDbLine
 10
287.7905335183261
 20
108.235200821201
 30
0.0
 11
289.7905335183261
 21
108.2352008212016
 31
0.0
  0
LINE
  5
2AE
330
75
100
AcDbEntity
  8
Visible (ISO)
100
AcDbLine
 10
301.7905335183261
 20
108.2352008212016
 30
0.0
 11
289.7905335183261
 21
108.2352008212016
 31
0.0
  0
LINE
  5
2AF
330
75
100
AcDbEntity
  8
Visible (ISO)
100
AcDbLine
 10
301.7905335183261
 20
108.2352008212016
 30
0.0
 11
303.7905335183261
 21
108.235200821201
 31
0.0
  0
LINE
  5
2B0
330
75
100
AcDbEntity
  8
Visible (ISO)
100
AcDbLine
 10
330.7905335183261
 20
108.2352008211985
 30
0.0
 11
303.7905335183261
 21
108.2352008211985
 31
0.0
  0
LINE
  5
2B1
330
75
100
AcDbEntity
  8
Visible (ISO)
100
AcDbLine
 10
330.7905335183261
 20
108.235200821201
 30
0.0
 11
332.7905335183261
 21
108.2352008212016
 31
0.0
  0
LINE
  5
2B2
330
75
100
AcDbEntity
  8
Visible (ISO)
100
AcDbLine
 10
344.7905335183261
 20
108.2352008212016
 30
0.0
 11
332.7905335183261
 21
108.2352008212016
 31
0.0
  0
LINE
  5
2B3
330
75
100
AcDbEntity
  8
Visible (ISO)
100
AcDbLine
 10
344.7905335183261
 20
108.2352008212016
 30
0.0
 11
346.7905335183261
 21
108.235200821201
 31
0.0
  0
LINE
  5
2B4
330
75
100
AcDbEntity
  8
Visible (ISO)
100
AcDbLine
 10
346.7905335183261
 20
106.735200821201
 30
0.0
 11
344.7905335183261
 21
106.7352008212016
 31
0.0
  0
LINE
  5
2B5
330
75
100
AcDbEntity
  8
Visible (ISO)
100
AcDbLine
 10
344.7905335183261
 20
106.7352008212016
 30
0.0
 11
332.7905335183261
 21
106.7352008212016
 31
0.0
  0
LINE
  5
2B6
330
75
100
AcDbEntity
  8
Visible (ISO)
100
AcDbLine
 10
332.7905335183261
 20
106.7352008212016
 30
0.0
 11
330.7905335183261
 21
106.735200821201
 31
0.0
  0
LINE
  5
2B7
330
75
100
AcDbEntity
  8
Visible (ISO)
100
AcDbLine
 10
330.7905335183261
 20
106.7352008211985
 30
0.0
 11
303.7905335183261
 21
106.7352008211985
 31
0.0
  0
LINE
  5
2B8
330
75
100
AcDbEntity
  8
Visible (ISO)
100
AcDbLine
 10
303.7905335183261
 20
106.735200821201
 30
0.0
 11
301.7905335183261
 21
106.7352008212016
 31
0.0
  0
LINE
  5
2B9
330
75
100
AcDbEntity
  8
Visible (ISO)
100
AcDbLine
 10
301.7905335183261
 20
106.7352008212016
 30
0.0
 11
289.7905335183261
 21
106.7352008212016
 31
0.0
  0
LINE
  5
2BA
330
75
100
AcDbEntity
  8
Visible (ISO)
100
AcDbLine
 10
289.7905335183261
 20
106.7352008212016
 30
0.0
 11
287.7905335183261
 21
106.735200821201
 31
0.0
  0
LINE
  5
2BB
330
75
100
AcDbEntity
  8
Visible (ISO)
100
AcDbLine
 10
287.7905335183261
 20
106.7352008211971
 30
0.0
 11
284.2905335183261
 21
106.7352008211971
 31
0.0
  0
LINE
  5
2BC
330
75
100
AcDbEntity
  8
Visible (ISO)
100
AcDbLine
 10
283.2905335183261
 20
105.7352008211971
 30
0.0
 11
283.2905335183261
 21
101.9852008211971
 31
0.0
  0
LINE
  5
2BD
330
75
100
AcDbEntity
  8
Visible (ISO)
100
AcDbLine
 10
283.2905335183259
 20
23.77820082119713
 30
0.0
 11
283.2905335183261
 21
101.9852008211971
 31
0.0
  0
LINE
  5
2BE
330
75
100
AcDbEntity
  8
Visible (ISO)
100
AcDbLine
 10
283.5834267371396
 20
23.77820082119066
 30
0.0
 11
283.2905335183261
 21
23.77820082119086
 31
0.0
  0
LINE
  5
2BF
330
75
100
AcDbEntity
  8
Visible (ISO)
100
AcDbLine
 10
283.5834267371396
 20
31.27820082119067
 30
0.0
 11
283.2905335183261
 21
31.27820082119088
 31
0.0
  0
LINE
  5
2C0
330
75
100
AcDbEntity
  8
Visible (ISO)
100
AcDbLine
 10
287.0583004712925
 20
23.77820082118962
 30
0.0
 11
283.5834267371396
 21
23.77820082119067
 31
0.0
  0
LINE
  5
2C1
330
75
100
AcDbEntity
  8
Visible (ISO)
100
AcDbLine
 10
287.0583004712925
 20
31.27820082118962
 30
0.0
 11
283.5834267371396
 21
31.27820082119068
 31
0.0
  0
LINE
  5
2C2
330
75
100
AcDbEntity
  8
Visible (ISO)
100
AcDbLine
 10
287.0583004712925
 20
23.77820082118963
 30
0.0
 11
287.7905335183261
 21
23.77820082118911
 31
0.0
  0
LINE
  5
2C3
330
75
100
AcDbEntity
  8
Visible (ISO)
100
AcDbLine
 10
287.7905335183261
 20
31.27820082118909
 30
0.0
 11
287.7905335183261
 21
23.77820082118909
 31
0.0
  0
LINE
  5
2C4
330
75
100
AcDbEntity
  8
Visible (ISO)
100
AcDbLine
 10
287.0583004712925
 20
31.27820082118965
 30
0.0
 11
287.7905335183261
 21
31.27820082118912
 31
0.0
  0
LINE
  5
2C5
330
75
100
AcDbEntity
  8
Visible (ISO)
100
AcDbLine
 10
281.7905335183259
 20
23.77820082119713
 30
0.0
 11
281.7905335183261
 21
101.9852008211971
 31
0.0
  0
LINE
  5
2C6
330
75
100
AcDbEntity
  8
Visible (ISO)
100
AcDbLine
 10
281.7905335183261
 20
105.7352008211971
 30
0.0
 11
281.7905335183261
 21
101.9852008211971
 31
0.0
  0
ARC
  5
2C7
330
75
100
AcDbEntity
  8
Visible (ISO)
100
AcDbCircle
 10
284.2905335183261
 20
105.7352008211971
 30
0.0
 40
2.499999999999998
100
AcDbArc
 50
90.0
 51
180.0
  0
ARC
  5
2C8
330
75
100
AcDbEntity
  8
Visible (ISO)
100
AcDbCircle
 10
284.2905335183261
 20
105.7352008211971
 30
0.0
 40
1.000000000000001
100
AcDbArc
 50
90.0
 51
180.0
  0
LINE
  5
2C9
330
75
100
AcDbEntity
  8
Visible (ISO)
100
AcDbLine
 10
283.5834267371396
 20
97.48520082119066
 30
0.0
 11
283.2905335183261
 21
97.48520082119087
 31
0.0
  0
LINE
  5
2CA
330
75
100
AcDbEntity
  8
Visible (ISO)
100
AcDbLine
 10
287.0583004712925
 20
97.48520082118965
 30
0.0
 11
283.5834267371396
 21
97.48520082119069
 31
0.0
  0
LINE
  5
2CB
330
75
100
AcDbEntity
  8
Visible (ISO)
100
AcDbLine
 10
287.0583004712925
 20
97.48520082118965
 30
0.0
 11
287.7905335183261
 21
97.48520082118913
 31
0.0
  0
LINE
  5
2CC
330
75
100
AcDbEntity
  8
Visible (ISO)
100
AcDbLine
 10
283.5834267371395
 20
89.98520082119066
 30
0.0
 11
283.2905335183261
 21
89.98520082119087
 31
0.0
  0
LINE
  5
2CD
330
75
100
AcDbEntity
  8
Visible (ISO)
100
AcDbLine
 10
287.0583004712925
 20
89.98520082118965
 30
0.0
 11
287.7905335183261
 21
89.98520082118913
 31
0.0
  0
LINE
  5
2CE
330
75
100
AcDbEntity
  8
Visible (ISO)
100
AcDbLine
 10
287.0583004712925
 20
89.98520082118963
 30
0.0
 11
283.5834267371395
 21
89.98520082119066
 31
0.0
  0
LINE
  5
2CF
330
75
100
AcDbEntity
  8
Visible (ISO)
100
AcDbLine
 10
287.7905335183261
 20
97.48520082118909
 30
0.0
 11
287.7905335183261
 21
89.98520082118909
 31
0.0
  0
LINE
  5
2D0
330
75
100
AcDbEntity
  8
Visible (ISO)
100
AcDbLine
 10
346.7905335183261
 20
108.235200821201
 30
0.0
 11
346.7905335183261
 21
106.735200821201
 31
0.0
  0
LINE
  5
2D1
330
75
100
AcDbEntity
  8
Visible (ISO)
100
AcDbLine
 10
344.7905335183261
 20
106.7352008212016
 30
0.0
 11
344.7905335183261
 21
108.2352008212016
 31
0.0
  0
LINE
  5
2D2
330
75
100
AcDbEntity
  8
Visible (ISO)
100
AcDbLine
 10
332.7905335183261
 20
108.2352008212016
 30
0.0
 11
332.7905335183261
 21
106.7352008212016
 31
0.0
  0
LINE
  5
2D3
330
75
100
AcDbEntity
  8
Visible (ISO)
100
AcDbLine
 10
330.7905335183261
 20
106.735200821201
 30
0.0
 11
330.7905335183261
 21
108.235200821201
 31
0.0
  0
LINE
  5
2D4
330
75
100
AcDbEntity
  8
Visible (ISO)
100
AcDbLine
 10
303.7905335183261
 20
108.235200821201
 30
0.0
 11
303.7905335183261
 21
106.735200821201
 31
0.0
  0
LINE
  5
2D5
330
75
100
AcDbEntity
  8
Visible (ISO)
100
AcDbLine
 10
301.7905335183261
 20
106.7352008212016
 30
0.0
 11
301.7905335183261
 21
108.2352008212016
 31
0.0
  0
LINE
  5
2D6
330
75
100
AcDbEntity
  8
Visible (ISO)
100
AcDbLine
 10
289.7905335183261
 20
108.2352008212016
 30
0.0
 11
289.7905335183261
 21
106.7352008212016
 31
0.0
  0
LINE
  5
2D7
330
75
100
AcDbEntity
  8
Visible (ISO)
100
AcDbLine
 10
287.7905335183261
 20
106.735200821201
 30
0.0
 11
287.7905335183261
 21
108.235200821201
 31
0.0
  0
LINE
  5
2D8
330
75
100
AcDbEntity
  8
Visible (ISO)
100
AcDbLine
 10
283.2905335183259
 20
23.77820082119713
 30
0.0
 11
281.7905335183259
 21
23.77820082119713
 31
0.0
  0
LINE
  5
2D9
330
75
100
AcDbEntity
  8
Hidden (ISO)
100
AcDbLine
 10
286.2905335183261
 20
31.27820082118909
 30
0.0
 11
286.2905335183261
 21
23.77820082118911
 31
0.0
  0
LINE
  5
2DA
330
75
100
AcDbEntity
  8
Hidden (ISO)
100
AcDbLine
 10
285.0905335183261
 20
91.48520082118734
 30
0.0
 11
285.0905335183261
 21
95.98520082118731
 31
0.0
  0
LINE
  5
2DB
330
75
100
AcDbEntity
  8
Hidden (ISO)
100
AcDbLine
 10
283.2905335183261
 20
97.48520082119178
 30
0.0
 11
281.7905335183261
 21
97.48520082119178
 31
0.0
  0
LINE
  5
2DC
330
75
100
AcDbEntity
  8
Hidden (ISO)
100
AcDbLine
 10
283.2905335183261
 20
89.98520082119176
 30
0.0
 11
281.7905335183261
 21
89.98520082119176
 31
0.0
  0
LINE
  5
2DD
330
75
100
AcDbEntity
  8
Hidden (ISO)
100
AcDbLine
 10
283.2905335183261
 20
87.98520082119175
 30
0.0
 11
281.7905335183261
 21
87.98520082119175
 31
0.0
  0
LINE
  5
2DE
330
75
100
AcDbEntity
  8
Hidden (ISO)
100
AcDbLine
 10
283.2905335183261
 20
99.48520082119175
 30
0.0
 11
281.7905335183261
 21
99.48520082119175
 31
0.0
  0
LINE
  5
2DF
330
75
100
AcDbEntity
  8
Hidden (ISO)
100
AcDbLine
 10
286.2905335183261
 20
97.48520082118909
 30
0.0
 11
286.2905335183261
 21
89.98520082118909
 31
0.0
  0
LINE
  5
2E0
330
75
100
AcDbEntity
  8
Hidden (ISO)
100
AcDbLine
 10
320.9905335183262
 20
106.7352008211957
 30
0.0
 11
320.9905335183262
 21
108.2352008211957
 31
0.0
  0
LINE
  5
2E1
330
75
100
AcDbEntity
  8
Hidden (ISO)
100
AcDbLine
 10
318.9905335183261
 20
106.7352008211935
 30
0.0
 11
318.9905335183261
 21
108.2352008211935
 31
0.0
  0
LINE
  5
2E2
330
75
100
AcDbEntity
  8
Hidden (ISO)
100
AcDbLine
 10
314.5905335183261
 20
106.7352008211935
 30
0.0
 11
314.5905335183261
 21
108.2352008211935
 31
0.0
  0
LINE
  5
2E3
330
75
100
AcDbEntity
  8
Hidden (ISO)
100
AcDbLine
 10
312.5905335183261
 20
106.7352008211957
 30
0.0
 11
312.5905335183261
 21
108.2352008211957
 31
0.0
  0
LINE
  5
2E4
330
75
100
AcDbEntity
  8
Hidden (ISO)
100
AcDbLine
 10
342.7905335183262
 20
106.7352008211749
 30
0.0
 11
342.7905335183262
 21
108.2352008211749
 31
0.0
  0
LINE
  5
2E5
330
75
100
AcDbEntity
  8
Hidden (ISO)
100
AcDbLine
 10
334.7905335183262
 20
106.7352008211749
 30
0.0
 11
334.7905335183262
 21
108.2352008211749
 31
0.0
  0
LINE
  5
2E6
330
75
100
AcDbEntity
  8
Hidden (ISO)
100
AcDbLine
 10
302.7905335183261
 20
106.7352008211749
 30
0.0
 11
302.7905335183261
 21
108.2352008211749
 31
0.0
  0
LINE
  5
2E7
330
75
100
AcDbEntity
  8
Hidden (ISO)
100
AcDbLine
 10
294.7905335183261
 20
106.7352008211749
 30
0.0
 11
294.7905335183261
 21
108.2352008211749
 31
0.0
  0
LINE
  5
2E8
330
75
100
AcDbEntity
  8
Hidden (ISO)
100
AcDbLine
 10
283.290533518326
 20
33.27820082119174
 30
0.0
 11
281.7905335183259
 21
33.27820082119178
 31
0.0
  0
LINE
  5
2E9
330
75
100
AcDbEntity
  8
Hidden (ISO)
100
AcDbLine
 10
283.290533518326
 20
31.27820082119176
 30
0.0
 11
281.7905335183259
 21
31.27820082119176
 31
0.0
  0
LINE
  5
2EA
330
75
100
AcDbEntity
  8
Hidden (ISO)
100
AcDbLine
 10
285.0905335183262
 20
25.27820082118731
 30
0.0
 11
285.0905335183262
 21
29.77820082118732
 31
0.0
  0
LINE
  5
2EB
330
75
100
AcDbEntity
  8
Hidden (ISO)
100
AcDbLine
 10
286.2905335183261
 20
91.48520082118734
 30
0.0
 11
285.0905335183261
 21
91.48520082118734
 31
0.0
  0
LINE
  5
2EC
330
75
100
AcDbEntity
  8
Hidden (ISO)
100
AcDbLine
 10
286.2905335183261
 20
95.98520082118733
 30
0.0
 11
285.0905335183261
 21
95.98520082118733
 31
0.0
  0
ARC
  5
2ED
330
75
100
AcDbEntity
  8
Hidden (ISO)
100
AcDbCircle
 10
286.2905335183261
 20
90.68520082118732
 30
0.0
 40
1.5
100
AcDbArc
 50
0.0
 51
68.96053021868197
  0
ARC
  5
2EE
330
75
100
AcDbEntity
  8
Hidden (ISO)
100
AcDbCircle
 10
286.2905335183261
 20
96.78520082118732
 30
0.0
 40
1.5
100
AcDbArc
 50
291.0394697813183
 51
0.0
  0
LINE
  5
2EF
330
75
100
AcDbEntity
  8
Hidden (ISO)
100
AcDbLine
 10
314.5405335183261
 20
106.7352008211787
 30
0.0
 11
314.5405335183261
 21
108.2352008211787
 31
0.0
  0
LINE
  5
2F0
330
75
100
AcDbEntity
  8
Hidden (ISO)
100
AcDbLine
 10
319.0405335183261
 20
106.7352008211787
 30
0.0
 11
319.0405335183261
 21
108.2352008211787
 31
0.0
  0
LINE
  5
2F1
330
75
100
AcDbEntity
  8
Hidden (ISO)
100
AcDbLine
 10
337.4405335183262
 20
106.7352008211873
 30
0.0
 11
337.4405335183262
 21
108.2352008211873
 31
0.0
  0
LINE
  5
2F2
330
75
100
AcDbEntity
  8
Hidden (ISO)
100
AcDbLine
 10
340.1405335183262
 20
106.7352008211873
 30
0.0
 11
340.1405335183262
 21
108.2352008211873
 31
0.0
  0
LINE
  5
2F3
330
75
100
AcDbEntity
  8
Hidden (ISO)
100
AcDbLine
 10
297.4405335183261
 20
106.7352008211873
 30
0.0
 11
297.4405335183261
 21
108.2352008211873
 31
0.0
  0
LINE
  5
2F4
330
75
100
AcDbEntity
  8
Hidden (ISO)
100
AcDbLine
 10
300.1405335183262
 20
106.7352008211873
 30
0.0
 11
300.1405335183262
 21
108.2352008211873
 31
0.0
  0
LINE
  5
2F5
330
75
100
AcDbEntity
  8
Hidden (ISO)
100
AcDbLine
 10
336.1905335183261
 20
106.7352008212001
 30
0.0
 11
336.1905335183261
 21
108.2352008212001
 31
0.0
  0
LINE
  5
2F6
330
75
100
AcDbEntity
  8
Hidden (ISO)
100
AcDbLine
 10
341.3905335183262
 20
106.7352008212001
 30
0.0
 11
341.3905335183262
 21
108.2352008212001
 31
0.0
  0
LINE
  5
2F7
330
75
100
AcDbEntity
  8
Hidden (ISO)
100
AcDbLine
 10
293.1905335183261
 20
106.7352008212001
 30
0.0
 11
293.1905335183261
 21
108.2352008212001
 31
0.0
  0
LINE
  5
2F8
330
75
100
AcDbEntity
  8
Hidden (ISO)
100
AcDbLine
 10
298.3905335183262
 20
106.7352008212001
 30
0.0
 11
298.3905335183262
 21
108.2352008212001
 31
0.0
  0
ARC
  5
2F9
330
75
100
AcDbEntity
  8
Hidden (ISO)
100
AcDbCircle
 10
286.2905335183261
 20
24.4782008211873
 30
0.0
 40
1.5
100
AcDbArc
 50
0.0
 51
68.96053021868326
  0
ARC
  5
2FA
330
75
100
AcDbEntity
  8
Hidden (ISO)
100
AcDbCircle
 10
286.2905335183261
 20
30.5782008211873
 30
0.0
 40
1.5
100
AcDbArc
 50
291.039469781317
 51
0.0
  0
LINE
  5
2FB
330
75
100
AcDbEntity
  8
Hidden (ISO)
100
AcDbLine
 10
286.2905335183262
 20
25.27820082118733
 30
0.0
 11
285.0905335183262
 21
25.27820082118733
 31
0.0
  0
LINE
  5
2FC
330
75
100
AcDbEntity
  8
Hidden (ISO)
100
AcDbLine
 10
286.2905335183262
 20
29.77820082118734
 30
0.0
 11
285.0905335183262
 21
29.77820082118734
 31
0.0
  0
ELLIPSE
  5
2FD
330
75
100
AcDbEntity
  8
Visible (ISO)
100
AcDbEllipse
 10
79.21470628562644
 20
185.3162201783355
 30
0.0
 11
-0.8234031491139008
 21
1.429862669639749
 31
0.0
210
0.0
220
0.0
230
1.0
 40
0.578093115915639
 41
2.881066455884191
 42
6.543711504885163
  0
ELLIPSE
  5
2FE
330
75
100
AcDbEntity
  8
Visible (ISO)
100
AcDbEllipse
 10
77.98538949290923
 20
184.6083037190317
 30
0.0
 11
-0.8234031491139845
 21
1.429862669639697
 31
0.0
210
0.0
220
0.0
230
0.9999999999999998
 40
0.578093115915639
 41
4.170364932779357
 42
5.254413027989791
  0
ELLIPSE
  5
2FF
330
75
100
AcDbEntity
  8
Visible (ISO)
100
AcDbEllipse
 10
32.39928762361564
 20
252.0082170687361
 30
0.0
 11
-0.8234031491138992
 21
1.429862669639746
 31
0.0
210
0.0
220
0.0
230
1.0
 40
0.578093115915639
 41
2.881066455884196
 42
6.543711504885155
  0
ELLIPSE
  5
300
330
75
100
AcDbEntity
  8
Visible (ISO)
100
AcDbEllipse
 10
31.16997083089845
 20
251.3003006094323
 30
0.0
 11
-0.823403149113991
 21
1.429862669639709
 31
0.0
210
0.0
220
0.0
230
0.9999999999999998
 40
0.578093115915639
 41
4.170364932779335
 42
5.254413027989794
  0
ELLIPSE
  5
301
330
75
100
AcDbEntity
  8
Visible (ISO)
100
AcDbEllipse
 10
79.21470628562644
 20
225.049010445683
 30
0.0
 11
-0.8234031491139019
 21
1.429862669639751
 31
0.0
210
0.0
220
0.0
230
1.0
 40
0.578093115915639
 41
2.881066455884213
 42
6.543711504885163
  0
ELLIPSE
  5
302
330
75
100
AcDbEntity
  8
Visible (ISO)
100
AcDbEllipse
 10
77.98538949290925
 20
224.3410939863793
 30
0.0
 11
-0.82340314911398
 21
1.429862669639689
 31
0.0
210
0.0
220
0.0
230
1.0
 40
0.578093115915639
 41
4.170364932779355
 42
5.254413027989803
  0
ELLIPSE
  5
303
330
75
100
AcDbEntity
  8
Visible (ISO)
100
AcDbEllipse
 10
32.39928762361564
 20
212.2754268013886
 30
0.0
 11
-0.8234031491139008
 21
1.429862669639748
 31
0.0
210
0.0
220
0.0
230
1.0
 40
0.578093115915639
 41
2.8810664558842
 42
6.543711504885159
  0
ELLIPSE
  5
304
330
75
100
AcDbEntity
  8
Visible (ISO)
100
AcDbEllipse
 10
31.16997083089846
 20
211.5675103420849
 30
0.0
 11
-0.8234031491139882
 21
1.429862669639703
 31
0.0
210
0.0
220
0.0
230
1.0
 40
0.5780931159156392
 41
4.170364932779335
 42
5.25441302798981
  0
LINE
  5
305
330
75
100
AcDbEntity
  8
Visible (ISO)
100
AcDbLine
 10
121.967431282716
 20
158.6396752870389
 30
0.0
 11
130.4527126569558
 21
163.5260238525461
 31
0.0
  0
LINE
  5
306
330
75
100
AcDbEntity
  8
Visible (ISO)
100
AcDbLine
 10
101.461334628303
 20
155.4152443979096
 30
0.0
 11
119.492557548563
 21
165.7987350996128
 31
0.0
  0
LINE
  5
307
330
75
100
AcDbEntity
  8
Visible (ISO)
100
AcDbLine
 10
101.461334628303
 20
148.466093836748
 30
0.0
 11
101.461334628303
 21
155.4152443979096
 31
0.0
  0
LINE
  5
308
330
75
100
AcDbEntity
  8
Visible (ISO)
100
AcDbLine
 10
101.461334628303
 20
148.466093836748
 30
0.0
 11
100.0471210659297
 21
146.0166081594784
 31
0.0
  0
LINE
  5
309
330
75
100
AcDbEntity
  8
Visible (ISO)
100
AcDbLine
 10
91.5618396916899
 20
141.1302595939711
 30
0.0
 11
100.0471210659297
 21
146.0166081594784
 31
0.0
  0
LINE
  5
30A
330
75
100
AcDbEntity
  8
Visible (ISO)
100
AcDbLine
 10
87.67275239516331
 20
151.1538900407516
 30
0.0
 11
89.08696595753694
 21
151.9682814683364
 31
0.0
  0
LINE
  5
30B
330
75
100
AcDbEntity
  8
Visible (ISO)
100
AcDbLine
 10
100.0471210659297
 20
264.5609412616467
 30
0.0
 11
101.461334628303
 21
263.7402384395461
 31
0.0
  0
LINE
  5
30C
330
75
100
AcDbEntity
  8
Visible (ISO)
100
AcDbLine
 10
101.461334628303
 20
258.0126750197614
 30
0.0
 11
101.461334628303
 21
263.7402384395461
 31
0.0
  0
LINE
  5
30D
330
75
100
AcDbEntity
  8
Visible (ISO)
100
AcDbLine
 10
130.4527126569558
 20
282.0703569547145
 30
0.0
 11
131.8669262193291
 21
281.249654132614
 31
0.0
  0
LINE
  5
30E
330
75
100
AcDbEntity
  8
Visible (ISO)
100
AcDbLine
 10
131.8669262193291
 20
165.9755095298158
 30
0.0
 11
131.8669262193291
 21
281.249654132614
 31
0.0
  0
LINE
  5
30F
330
75
100
AcDbEntity
  8
Visible (ISO)
100
AcDbLine
 10
131.8669262193291
 20
165.9755095298158
 30
0.0
 11
130.4527126569558
 21
163.5260238525461
 31
0.0
  0
ELLIPSE
  5
310
330
75
100
AcDbEntity
  8
Visible (ISO)
100
AcDbEllipse
 10
95.80448037880982
 20
258.0300313546803
 30
0.0
 11
1.297483750119587
 21
2.253116933977379
 31
0.0
210
0.0
220
0.0
230
1.0
 40
0.5780931159158107
 41
0.4193421108859435
 42
2.722250542704706
  0
ELLIPSE
  5
311
330
75
100
AcDbEntity
  8
Visible (ISO)
100
AcDbEllipse
 10
126.2100719698359
 20
275.5394470477481
 30
0.0
 11
1.297483750119587
 21
2.253116933977379
 31
0.0
210
0.0
220
0.0
230
1.0
 40
0.5780931159158107
 41
0.4193421108859435
 42
2.722250542704706
  0
ELLIPSE
  5
312
330
75
100
AcDbEntity
  8
Visible (ISO)
100
AcDbEllipse
 10
126.2100719698358
 20
165.1705851940052
 30
0.0
 11
1.297483750119587
 21
2.253116933977379
 31
0.0
210
0.0
220
0.0
230
1.0
 40
0.5780931159158107
 41
0.4193421108859435
 42
2.722250542704706
  0
LINE
  5
313
330
75
100
AcDbEntity
  8
Visible (ISO)
100
AcDbLine
 10
95.09737359762318
 20
188.0741017305331
 30
0.0
 11
99.69356767533675
 21
190.7208738701831
 31
0.0
  0
LINE
  5
314
330
75
100
AcDbEntity
  8
Visible (ISO)
100
AcDbLine
 10
95.09737359762318
 20
187.8241040471934
 30
0.0
 11
95.09737359762318
 21
188.0741017305331
 31
0.0
  0
LINE
  5
315
330
75
100
AcDbEntity
  8
Visible (ISO)
100
AcDbLine
 10
123.3816448450893
 20
204.3619302822242
 30
0.0
 11
127.9778389228028
 21
207.0087024218741
 31
0.0
  0
LINE
  5
316
330
75
100
AcDbEntity
  8
Visible (ISO)
100
AcDbLine
 10
123.3816448450893
 20
204.1119325988844
 30
0.0
 11
123.3816448450893
 21
204.3619302822242
 31
0.0
  0
ELLIPSE
  5
317
330
75
100
AcDbEntity
  8
Visible (ISO)
100
AcDbEllipse
 10
97.9258007223698
 20
224.0153374153437
 30
0.0
 11
0.6736934856390153
 21
1.169887638795943
 31
0.0
210
0.0
220
0.0
230
0.9999999999999998
 40
0.5780931159158105
 41
0.9013402729253918
 42
2.240252380664729
  0
ELLIPSE
  5
318
330
75
100
AcDbEntity
  8
Visible (ISO)
100
AcDbEllipse
 10
97.9258007223698
 20
184.2825471479962
 30
0.0
 11
0.673693485639014
 21
1.169887638795942
 31
0.0
210
0.0
220
0.0
230
1.0
 40
0.5780931159158105
 41
0.9013402729253954
 42
2.24025238066476
  0
ELLIPSE
  5
319
330
75
100
AcDbEntity
  8
Visible (ISO)
100
AcDbEllipse
 10
126.2100719698359
 20
240.3031659670346
 30
0.0
 11
0.6736934856390139
 21
1.169887638795941
 31
0.0
210
0.0
220
0.0
230
1.0
 40
0.5780931159158106
 41
0.9013402729253918
 42
2.240252380664729
  0
ELLIPSE
  5
31A
330
75
100
AcDbEntity
  8
Visible (ISO)
100
AcDbEllipse
 10
126.2100719698359
 20
200.5703756996872
 30
0.0
 11
0.6736934856390131
 21
1.16988763879594
 31
0.0
210
0.0
220
0.0
230
1.0
 40
0.5780931159158106
 41
0.9013402729253954
 42
2.24025238066476
  0
ELLIPSE
  5
31B
330
75
100
AcDbEntity
  8
Visible (ISO)
100
AcDbEllipse
 10
110.6537227837295
 20
207.635993643171
 30
0.0
 11
1.122822476065028
 21
1.949812731326576
 31
0.0
210
0.0
220
0.0
230
0.9999999999999998
 40
0.5780931159158104
 41
0.4898523421849675
 42
2.65174031140561
  0
LINE
  5
31C
330
75
100
AcDbEntity
  8
Visible (ISO)
100
AcDbLine
 10
109.0980878651189
 20
183.2718270439601
 30
0.0
 11
109.0980878651189
 21
185.6474472518904
 31
0.0
  0
LINE
  5
31D
330
75
100
AcDbEntity
  8
Visible (ISO)
100
AcDbLine
 10
109.0980878651189
 20
185.6474472518904
 30
0.0
 11
111.1486975305605
 21
186.8283148218882
 31
0.0
  0
LINE
  5
31E
330
75
100
AcDbEntity
  8
Visible (ISO)
100
AcDbLine
 10
107.6838743027456
 20
198.077319246755
 30
0.0
 11
112.5629110929338
 21
200.8869696719219
 31
0.0
  0
LINE
  5
31F
330
75
100
AcDbEntity
  8
Visible (ISO)
100
AcDbLine
 10
107.6838743027456
 20
193.6625647726053
 30
0.0
 11
107.6838743027456
 21
198.077319246755
 31
0.0
  0
LINE
  5
320
330
75
100
AcDbEntity
  8
Visible (ISO)
100
AcDbLine
 10
109.0980878651189
 20
192.8418619505048
 30
0.0
 11
107.6838743027456
 21
193.6625647726053
 31
0.0
  0
LINE
  5
321
330
75
100
AcDbEntity
  8
Visible (ISO)
100
AcDbLine
 10
109.0980878651189
 20
188.5041286429523
 30
0.0
 11
109.0980878651189
 21
192.8418619505048
 31
0.0
  0
LINE
  5
322
330
75
100
AcDbEntity
  8
Visible (ISO)
100
AcDbLine
 10
107.6838743027456
 20
252.8529766112052
 30
0.0
 11
112.5629110929338
 21
255.6626270363721
 31
0.0
  0
LINE
  5
323
330
75
100
AcDbEntity
  8
Visible (ISO)
100
AcDbLine
 10
107.6838743027456
 20
248.4382221370555
 30
0.0
 11
107.6838743027456
 21
252.8529766112052
 31
0.0
  0
LINE
  5
324
330
75
100
AcDbEntity
  8
Visible (ISO)
100
AcDbLine
 10
109.0980878651189
 20
247.617519314955
 30
0.0
 11
107.6838743027456
 21
248.4382221370555
 31
0.0
  0
LINE
  5
325
330
75
100
AcDbEntity
  8
Visible (ISO)
100
AcDbLine
 10
109.0980878651189
 20
243.2797860074025
 30
0.0
 11
109.0980878651189
 21
247.617519314955
 31
0.0
  0
ELLIPSE
  5
326
330
75
100
AcDbEntity
  8
Visible (ISO)
100
AcDbEllipse
 10
95.80448037880982
 20
147.6611695009374
 30
0.0
 11
1.297483750119587
 21
2.253116933977379
 31
0.0
210
0.0
220
0.0
230
1.0
 40
0.5780931159158107
 41
0.4193421108859497
 42
2.722250542704713
  0
LINE
  5
327
330
75
100
AcDbEntity
  8
Visible (ISO)
100
AcDbLine
 10
119.492557548563
 20
167.0203222409896
 30
0.0
 11
119.492557548563
 21
160.071171679828
 31
0.0
  0
LINE
  5
328
330
75
100
AcDbEntity
  8
Visible (ISO)
100
AcDbLine
 10
119.492557548563
 20
160.071171679828
 30
0.0
 11
120.9067711109363
 21
159.2504688577275
 31
0.0
  0
LINE
  5
329
330
75
100
AcDbEntity
  8
Visible (ISO)
100
AcDbLine
 10
120.9067711109363
 20
159.2504688577275
 30
0.0
 11
129.3920524851761
 21
164.1368174232347
 31
0.0
  0
LINE
  5
32A
330
75
100
AcDbEntity
  8
Visible (ISO)
100
AcDbLine
 10
129.3920524851761
 20
164.1368174232347
 30
0.0
 11
130.8062660475494
 21
166.5863031005044
 31
0.0
  0
LINE
  5
32B
330
75
100
AcDbEntity
  8
Visible (ISO)
100
AcDbLine
 10
130.8062660475494
 20
166.5863031005044
 30
0.0
 11
130.8062660475494
 21
281.8604477033025
 31
0.0
  0
LINE
  5
32C
330
75
100
AcDbEntity
  8
Visible (ISO)
100
AcDbLine
 10
130.8062660475494
 20
281.8604477033025
 30
0.0
 11
129.3920524851761
 21
282.681150525403
 31
0.0
  0
LINE
  5
32D
330
75
100
AcDbEntity
  8
Visible (ISO)
100
AcDbLine
 10
129.3920524851761
 20
282.681150525403
 30
0.0
 11
120.9067711109363
 21
277.7948019598958
 31
0.0
  0
LINE
  5
32E
330
75
100
AcDbEntity
  8
Visible (ISO)
100
AcDbLine
 10
120.9067711109363
 20
277.7948019598958
 30
0.0
 11
119.492557548563
 21
275.3453162826261
 31
0.0
  0
LINE
  5
32F
330
75
100
AcDbEntity
  8
Visible (ISO)
100
AcDbLine
 10
119.492557548563
 20
275.3453162826261
 30
0.0
 11
119.492557548563
 21
268.3961657214645
 31
0.0
  0
LINE
  5
330
330
75
100
AcDbEntity
  8
Visible (ISO)
100
AcDbLine
 10
119.492557548563
 20
268.3961657214645
 30
0.0
 11
100.4006744565234
 21
257.4018814490732
 31
0.0
  0
LINE
  5
331
330
75
100
AcDbEntity
  8
Visible (ISO)
100
AcDbLine
 10
100.4006744565234
 20
257.4018814490732
 30
0.0
 11
100.4006744565234
 21
264.3510320102347
 31
0.0
  0
LINE
  5
332
330
75
100
AcDbEntity
  8
Visible (ISO)
100
AcDbLine
 10
100.4006744565234
 20
264.3510320102347
 30
0.0
 11
98.98646089415009
 21
265.1717348323353
 31
0.0
  0
LINE
  5
333
330
75
100
AcDbEntity
  8
Visible (ISO)
100
AcDbLine
 10
98.98646089415009
 20
265.1717348323353
 30
0.0
 11
90.50117951991024
 21
260.285386266828
 31
0.0
  0
LINE
  5
334
330
75
100
AcDbEntity
  8
Visible (ISO)
100
AcDbLine
 10
90.50117951991024
 20
260.285386266828
 30
0.0
 11
89.08696595753694
 21
257.8359005895583
 31
0.0
  0
LINE
  5
335
330
75
100
AcDbEntity
  8
Visible (ISO)
100
AcDbLine
 10
89.08696595753694
 20
257.8359005895583
 30
0.0
 11
89.08696595753694
 21
247.2077879666054
 31
0.0
  0
LINE
  5
336
330
75
100
AcDbEntity
  8
Visible (ISO)
100
AcDbLine
 10
89.08696595753694
 20
247.2077879666054
 30
0.0
 11
86.61209222338365
 21
245.7826029683324
 31
0.0
  0
LINE
  5
337
330
75
100
AcDbEntity
  8
Visible Narrow (ISO)
100
AcDbLine
 10
86.61209222338365
 20
151.7646836114402
 30
0.0
 11
86.61209222338365
 21
245.7826029683324
 31
0.0
  0
LINE
  5
338
330
75
100
AcDbEntity
  8
Visible (ISO)
100
AcDbLine
 10
86.61209222338365
 20
151.7646836114402
 30
0.0
 11
89.08696595753694
 21
153.1898686097132
 31
0.0
  0
LINE
  5
339
330
75
100
AcDbEntity
  8
Visible (ISO)
100
AcDbLine
 10
89.08696595753694
 20
153.1898686097132
 30
0.0
 11
89.08696595753694
 21
142.5617559867602
 31
0.0
  0
LINE
  5
33A
330
75
100
AcDbEntity
  8
Visible (ISO)
100
AcDbLine
 10
89.08696595753694
 20
142.5617559867602
 30
0.0
 11
90.50117951991019
 21
141.7410531646597
 31
0.0
  0
LINE
  5
33B
330
75
100
AcDbEntity
  8
Visible (ISO)
100
AcDbLine
 10
90.50117951991019
 20
141.7410531646597
 30
0.0
 11
98.98646089415004
 21
146.6274017301669
 31
0.0
  0
LINE
  5
33C
330
75
100
AcDbEntity
  8
Visible (ISO)
100
AcDbLine
 10
98.98646089415004
 20
146.6274017301669
 30
0.0
 11
100.4006744565234
 21
149.0768874074366
 31
0.0
  0
LINE
  5
33D
330
75
100
AcDbEntity
  8
Visible (ISO)
100
AcDbLine
 10
100.4006744565234
 20
149.0768874074366
 30
0.0
 11
100.4006744565234
 21
156.0260379685982
 31
0.0
  0
LINE
  5
33E
330
75
100
AcDbEntity
  8
Visible (ISO)
100
AcDbLine
 10
100.4006744565234
 20
156.0260379685982
 30
0.0
 11
119.492557548563
 21
167.0203222409896
 31
0.0
  0
ELLIPSE
  5
33F
330
75
100
AcDbEntity
  8
Visible (ISO)
100
AcDbEllipse
 10
94.74382020703016
 20
148.271963071626
 30
0.0
 11
1.297483750119455
 21
2.253116933977458
 31
0.0
210
0.0
220
0.0
230
0.9999999999999998
 40
0.5780931159158106
 41
0.0
 42
6.283185307179586
  0
ELLIPSE
  5
340
330
75
100
AcDbEntity
  8
Visible (ISO)
100
AcDbEllipse
 10
94.74382020703016
 20
258.640824925369
 30
0.0
 11
1.297483750119455
 21
2.253116933977458
 31
0.0
210
0.0
220
0.0
230
0.9999999999999998
 40
0.5780931159158106
 41
0.0
 42
6.283185307179586
  0
ELLIPSE
  5
341
330
75
100
AcDbEntity
  8
Visible (ISO)
100
AcDbEllipse
 10
125.1494117980562
 20
276.1502406184367
 30
0.0
 11
1.297483750119455
 21
2.253116933977458
 31
0.0
210
0.0
220
0.0
230
0.9999999999999998
 40
0.5780931159158106
 41
0.0
 42
6.283185307179586
  0
ELLIPSE
  5
342
330
75
100
AcDbEntity
  8
Visible (ISO)
100
AcDbEllipse
 10
125.1494117980562
 20
165.7813787646938
 30
0.0
 11
1.297483750119455
 21
2.253116933977458
 31
0.0
210
0.0
220
0.0
230
0.9999999999999998
 40
0.5780931159158106
 41
0.0
 42
6.283185307179586
  0
LINE
  5
343
330
75
100
AcDbEntity
  8
Visible (ISO)
100
AcDbLine
 10
94.03671342584352
 20
187.2133104765052
 30
0.0
 11
94.03671342584352
 21
188.6848953012217
 31
0.0
  0
LINE
  5
344
330
75
100
AcDbEntity
  8
Visible (ISO)
100
AcDbLine
 10
94.03671342584352
 20
188.6848953012217
 30
0.0
 11
99.69356767533675
 21
191.94246101156
 31
0.0
  0
LINE
  5
345
330
75
100
AcDbEntity
  8
Visible (ISO)
100
AcDbLine
 10
99.69356767533675
 20
191.94246101156
 30
0.0
 11
99.69356767533675
 21
190.4708761868434
 31
0.0
  0
LINE
  5
346
330
75
100
AcDbEntity
  8
Visible (ISO)
100
AcDbLine
 10
99.69356767533675
 20
190.4708761868434
 30
0.0
 11
94.03671342584352
 21
187.2133104765052
 31
0.0
  0
LINE
  5
347
330
75
100
AcDbEntity
  8
Visible (ISO)
100
AcDbLine
 10
122.3209846733096
 20
203.5011390281961
 30
0.0
 11
122.3209846733096
 21
204.9727238529127
 31
0.0
  0
LINE
  5
348
330
75
100
AcDbEntity
  8
Visible (ISO)
100
AcDbLine
 10
122.3209846733096
 20
204.9727238529127
 30
0.0
 11
127.9778389228028
 21
208.2302895632509
 31
0.0
  0
LINE
  5
349
330
75
100
AcDbEntity
  8
Visible (ISO)
100
AcDbLine
 10
127.9778389228028
 20
208.2302895632509
 30
0.0
 11
127.9778389228028
 21
206.7587047385343
 31
0.0
  0
LINE
  5
34A
330
75
100
AcDbEntity
  8
Visible (ISO)
100
AcDbLine
 10
127.9778389228028
 20
206.7587047385343
 30
0.0
 11
122.3209846733096
 21
203.5011390281961
 31
0.0
  0
ELLIPSE
  5
34B
330
75
100
AcDbEntity
  8
Visible (ISO)
100
AcDbEllipse
 10
96.86514055059014
 20
224.6261309860322
 30
0.0
 11
0.6736934856389451
 21
1.169887638795983
 31
0.0
210
0.0
220
0.0
230
1.0
 40
0.5780931159158106
 41
0.0
 42
6.283185307179586
  0
ELLIPSE
  5
34C
330
75
100
AcDbEntity
  8
Visible (ISO)
100
AcDbEllipse
 10
96.86514055059014
 20
184.8933407186848
 30
0.0
 11
0.6736934856389468
 21
1.169887638795986
 31
0.0
210
0.0
220
0.0
230
1.0
 40
0.5780931159158106
 41
0.0
 42
6.283185307179586
  0
ELLIPSE
  5
34D
330
75
100
AcDbEntity
  8
Visible (ISO)
100
AcDbEllipse
 10
125.1494117980562
 20
240.9139595377232
 30
0.0
 11
0.6736934856389451
 21
1.169887638795983
 31
0.0
210
0.0
220
0.0
230
1.0
 40
0.5780931159158106
 41
0.0
 42
6.283185307179586
  0
ELLIPSE
  5
34E
330
75
100
AcDbEntity
  8
Visible (ISO)
100
AcDbEllipse
 10
125.1494117980562
 20
201.1811692703758
 30
0.0
 11
0.6736934856389468
 21
1.169887638795986
 31
0.0
210
0.0
220
0.0
230
1.0
 40
0.5780931159158106
 41
0.0
 42
6.283185307179586
  0
ELLIPSE
  5
34F
330
75
100
AcDbEntity
  8
Visible (ISO)
100
AcDbEllipse
 10
109.5930626119498
 20
208.2467872138595
 30
0.0
 11
1.122822476064795
 21
1.949812731326711
 31
0.0
210
0.0
220
0.0
230
1.0
 40
0.5780931159158106
 41
0.0
 42
6.283185307179586
  0
LINE
  5
350
330
75
100
AcDbEntity
  8
Visible (ISO)
100
AcDbLine
 10
108.0374276933392
 20
182.6610334732718
 30
0.0
 11
111.1486975305605
 21
184.4526946139578
 31
0.0
  0
LINE
  5
351
330
75
100
AcDbEntity
  8
Visible (ISO)
100
AcDbLine
 10
108.0374276933392
 20
186.258240822579
 30
0.0
 11
108.0374276933392
 21
182.6610334732718
 31
0.0
  0
LINE
  5
352
330
75
100
AcDbEntity
  8
Visible (ISO)
100
AcDbLine
 10
111.1486975305605
 20
188.049901963265
 30
0.0
 11
108.0374276933392
 21
186.258240822579
 31
0.0
  0
LINE
  5
353
330
75
100
AcDbEntity
  8
Visible (ISO)
100
AcDbLine
 10
111.1486975305605
 20
184.4526946139578
 30
0.0
 11
111.1486975305605
 21
188.049901963265
 31
0.0
  0
LINE
  5
354
330
75
100
AcDbEntity
  8
Visible (ISO)
100
AcDbLine
 10
106.6232141309659
 20
198.6881128174436
 30
0.0
 11
106.6232141309659
 21
194.2733583432939
 31
0.0
  0
LINE
  5
355
330
75
100
AcDbEntity
  8
Visible (ISO)
100
AcDbLine
 10
112.5629110929338
 20
202.1085568132987
 30
0.0
 11
106.6232141309659
 21
198.6881128174436
 31
0.0
  0
LINE
  5
356
330
75
100
AcDbEntity
  8
Visible (ISO)
100
AcDbLine
 10
112.5629110929338
 20
197.693802339149
 30
0.0
 11
112.5629110929338
 21
202.1085568132987
 31
0.0
  0
LINE
  5
357
330
75
100
AcDbEntity
  8
Visible (ISO)
100
AcDbLine
 10
111.1486975305605
 20
195.2443166618794
 30
0.0
 11
112.5629110929338
 21
197.693802339149
 31
0.0
  0
LINE
  5
358
330
75
100
AcDbEntity
  8
Visible (ISO)
100
AcDbLine
 10
111.1486975305605
 20
189.6849962129501
 30
0.0
 11
111.1486975305605
 21
195.2443166618794
 31
0.0
  0
LINE
  5
359
330
75
100
AcDbEntity
  8
Visible (ISO)
100
AcDbLine
 10
108.0374276933392
 20
187.8933350722641
 30
0.0
 11
111.1486975305605
 21
189.6849962129501
 31
0.0
  0
LINE
  5
35A
330
75
100
AcDbEntity
  8
Visible (ISO)
100
AcDbLine
 10
108.0374276933392
 20
193.4526555211933
 30
0.0
 11
108.0374276933392
 21
187.8933350722641
 31
0.0
  0
LINE
  5
35B
330
75
100
AcDbEntity
  8
Visible (ISO)
100
AcDbLine
 10
106.6232141309659
 20
194.2733583432939
 30
0.0
 11
108.0374276933392
 21
193.4526555211933
 31
0.0
  0
LINE
  5
35C
330
75
100
AcDbEntity
  8
Visible (ISO)
100
AcDbLine
 10
106.6232141309659
 20
253.4637701818938
 30
0.0
 11
106.6232141309659
 21
249.0490157077441
 31
0.0
  0
LINE
  5
35D
330
75
100
AcDbEntity
  8
Visible (ISO)
100
AcDbLine
 10
112.5629110929338
 20
256.8842141777489
 30
0.0
 11
106.6232141309659
 21
253.4637701818938
 31
0.0
  0
LINE
  5
35E
330
75
100
AcDbEntity
  8
Visible (ISO)
100
AcDbLine
 10
112.5629110929338
 20
252.4694597035992
 30
0.0
 11
112.5629110929338
 21
256.8842141777489
 31
0.0
  0
LINE
  5
35F
330
75
100
AcDbEntity
  8
Visible (ISO)
100
AcDbLine
 10
111.1486975305605
 20
250.0199740263295
 30
0.0
 11
112.5629110929338
 21
252.4694597035992
 31
0.0
  0
LINE
  5
360
330
75
100
AcDbEntity
  8
Visible (ISO)
100
AcDbLine
 10
111.1486975305605
 20
244.4606535774003
 30
0.0
 11
111.1486975305605
 21
250.0199740263295
 31
0.0
  0
LINE
  5
361
330
75
100
AcDbEntity
  8
Visible (ISO)
100
AcDbLine
 10
108.0374276933392
 20
242.6689924367143
 30
0.0
 11
111.1486975305605
 21
244.4606535774003
 31
0.0
  0
LINE
  5
362
330
75
100
AcDbEntity
  8
Visible (ISO)
100
AcDbLine
 10
108.0374276933392
 20
248.2283128856435
 30
0.0
 11
108.0374276933392
 21
242.6689924367143
 31
0.0
  0
LINE
  5
363
330
75
100
AcDbEntity
  8
Visible (ISO)
100
AcDbLine
 10
106.6232141309659
 20
249.0490157077441
 30
0.0
 11
108.0374276933392
 21
248.2283128856435
 31
0.0
  0
LINE
  5
364
330
75
100
AcDbEntity
  8
Visible (ISO)
100
AcDbLine
 10
26.18486802353315
 20
184.5264291560351
 30
0.0
 11
81.48556805978143
 21
152.6808739674734
 31
0.0
  0
LINE
  5
365
330
75
100
AcDbEntity
  8
Visible Narrow (ISO)
100
AcDbLine
 10
81.48556805978143
 20
152.6808739674734
 30
0.0
 11
82.54622823156141
 21
153.2916675381618
 31
0.0
  0
LINE
  5
366
330
75
100
AcDbEntity
  8
Visible (ISO)
100
AcDbLine
 10
27.24552819531312
 20
185.1372227267236
 30
0.0
 11
82.54622823156141
 21
153.2916675381618
 31
0.0
  0
LINE
  5
367
330
75
100
AcDbEntity
  8
Visible (ISO)
100
AcDbLine
 10
26.18486802353315
 20
184.5264291560351
 30
0.0
 11
27.24552819531312
 21
185.1372227267236
 31
0.0
  0
LINE
  5
368
330
75
100
AcDbEntity
  8
Visible Narrow (ISO)
100
AcDbLine
 10
32.75593583539822
 20
200.2266320033756
 30
0.0
 11
27.45263497649987
 21
203.2805998568186
 31
0.0
  0
ELLIPSE
  5
369
330
75
100
AcDbEntity
  8
Visible (ISO)
100
AcDbEllipse
 10
27.95263497649993
 20
202.9904375913954
 30
0.0
 11
-0.4990322115844165
 21
-0.8665834361451951
 31
0.0
210
0.0
220
0.0
230
1.0
 40
0.5780931159158105
 41
4.710455271961736
 42
5.495853435359157
  0
LINE
  5
36A
330
75
100
AcDbEntity
  8
Visible Narrow (ISO)
100
AcDbLine
 10
32.54882905421162
 20
199.5292740241602
 30
0.0
 11
27.24552819531327
 21
202.5832418776032
 31
0.0
  0
ELLIPSE
  5
36B
330
75
100
AcDbEntity
  8
Visible (ISO)
100
AcDbEllipse
 10
33.25593583539831
 20
199.9364697379525
 30
0.0
 11
-0.4990322115844382
 21
-0.8665834361452329
 31
0.0
210
0.0
220
0.0
230
1.0
 40
0.5780931159158105
 41
4.710455271961791
 42
5.495853435359181
  0
LINE
  5
36C
330
75
100
AcDbEntity
  8
Visible Narrow (ISO)
100
AcDbLine
 10
35.2130426165851
 20
204.4824587244396
 30
0.0
 11
29.90974175768677
 21
207.5364265778826
 31
0.0
  0
LINE
  5
36D
330
75
100
AcDbEntity
  8
Visible (ISO)
100
AcDbLine
 10
29.90974175768677
 20
207.5364265778826
 30
0.0
 11
27.45263497649987
 21
203.2805998568186
 31
0.0
  0
LINE
  5
36E
330
75
100
AcDbEntity
  8
Visible (ISO)
100
AcDbLine
 10
35.2130426165851
 20
204.4824587244396
 30
0.0
 11
32.75593583539822
 21
200.2266320033756
 31
0.0
  0
LINE
  5
36F
330
75
100
AcDbEntity
  8
Visible Narrow (ISO)
100
AcDbLine
 10
35.73080956955154
 20
206.2258536724781
 30
0.0
 11
30.42750871065319
 21
209.2798215259211
 31
0.0
  0
ELLIPSE
  5
370
330
75
100
AcDbEntity
  8
Visible (ISO)
100
AcDbEllipse
 10
28.65974175768658
 20
208.2618322414403
 30
0.0
 11
-1.247580528961134
 21
-2.166458590362851
 31
0.0
210
0.0
220
0.0
230
1.0
 40
0.5780931159158105
 41
1.568862618372131
 42
2.354260781769706
  0
ELLIPSE
  5
371
330
75
100
AcDbEntity
  8
Visible (ISO)
100
AcDbEllipse
 10
33.96304261658493
 20
205.2078643879974
 30
0.0
 11
-1.247580528961139
 21
-2.166458590362858
 31
0.0
210
0.0
220
0.0
230
1.0
 40
0.5780931159158107
 41
1.568862618372133
 42
2.35426078176972
  0
LINE
  5
372
330
75
100
AcDbEntity
  8
Visible (ISO)
100
AcDbLine
 10
35.73080956955154
 20
215.6977800635997
 30
0.0
 11
30.42750871065321
 21
218.7517479170426
 31
0.0
  0
LINE
  5
373
330
75
100
AcDbEntity
  8
Visible (ISO)
100
AcDbLine
 10
30.42750871065321
 20
218.7517479170426
 30
0.0
 11
30.42750871065319
 21
209.2798215259211
 31
0.0
  0
LINE
  5
374
330
75
100
AcDbEntity
  8
Visible (ISO)
100
AcDbLine
 10
35.73080956955154
 20
215.6977800635997
 30
0.0
 11
35.73080956955154
 21
206.2258536724781
 31
0.0
  0
ELLIPSE
  5
375
330
75
100
AcDbEntity
  8
Visible Narrow (ISO)
100
AcDbEllipse
 10
33.07915914010237
 20
212.666938769324
 30
0.0
 11
-1.522048245331597
 21
2.643079480243261
 31
0.0
210
0.0
220
0.0
230
1.0
 40
0.578093115915639
 41
0.0
 42
6.283185307179586
  0
LINE
  5
376
330
75
100
AcDbEntity
  8
Visible (ISO)
100
AcDbLine
 10
29.36684853887321
 20
208.6690279552326
 30
0.0
 11
29.36684853887324
 21
218.1409543463542
 31
0.0
  0
ELLIPSE
  5
377
330
75
100
AcDbEntity
  8
Visible (ISO)
100
AcDbEllipse
 10
28.65974175768657
 20
208.2618322414403
 30
0.0
 11
0.4990322115844038
 21
0.8665834361451729
 31
0.0
210
0.0
220
0.0
230
1.0
 40
0.5780931159158105
 41
4.71045527196185
 42
5.495853435359302
  0
LINE
  5
378
330
75
100
AcDbEntity
  8
Visible (ISO)
100
AcDbLine
 10
26.70263497649977
 20
203.7158432549532
 30
0.0
 11
29.15974175768666
 21
207.9716699760172
 31
0.0
  0
ELLIPSE
  5
379
330
75
100
AcDbEntity
  8
Visible (ISO)
100
AcDbEllipse
 10
27.95263497649994
 20
202.9904375913954
 30
0.0
 11
1.247580528961163
 21
2.166458590362901
 31
0.0
210
0.0
220
0.0
230
1.0
 40
0.5780931159158106
 41
1.568862618372106
 42
2.35426078176966
  0
LINE
  5
37A
330
75
100
AcDbEntity
  8
Visible (ISO)
100
AcDbLine
 10
32.5488290542115
 20
261.2422552361596
 30
0.0
 11
33.96304261658436
 21
260.4278638085748
 31
0.0
  0
LINE
  5
37B
330
75
100
AcDbEntity
  8
Visible (ISO)
100
AcDbLine
 10
33.96304261658436
 20
260.4278638085748
 30
0.0
 11
33.96304261658436
 21
257.6593225751727
 31
0.0
  0
LINE
  5
37C
330
75
100
AcDbEntity
  8
Visible (ISO)
100
AcDbLine
 10
33.96304261658436
 20
246.1113220320573
 30
0.0
 11
33.96304261658436
 21
216.7157693480813
 31
0.0
  0
LINE
  5
37D
330
75
100
AcDbEntity
  8
Visible (ISO)
100
AcDbLine
 10
33.96304261658436
 20
202.3173988084178
 30
0.0
 11
33.96304261658436
 21
196.2912918646775
 31
0.0
  0
LINE
  5
37E
330
75
100
AcDbEntity
  8
Visible (ISO)
100
AcDbLine
 10
33.96304261658436
 20
196.2912918646775
 30
0.0
 11
32.5488290542115
 21
197.1056832922623
 31
0.0
  0
LINE
  5
37F
330
75
100
AcDbEntity
  8
Visible (ISO)
100
AcDbLine
 10
32.54882905421162
 20
199.5292740241602
 30
0.0
 11
32.5488290542115
 21
197.1056832922623
 31
0.0
  0
LINE
  5
380
330
75
100
AcDbEntity
  8
Visible (ISO)
100
AcDbLine
 10
27.24552819531312
 20
185.1372227267236
 30
0.0
 11
27.24552819531327
 21
202.5832418776032
 31
0.0
  0
LINE
  5
381
330
75
100
AcDbEntity
  8
Visible (ISO)
100
AcDbLine
 10
85.19787866101056
 20
151.7646836114403
 30
0.0
 11
82.54622823156141
 21
153.2916675381618
 31
0.0
  0
LINE
  5
382
330
75
100
AcDbEntity
  8
Visible Narrow (ISO)
100
AcDbLine
 10
85.19787866101056
 20
245.7826029683325
 30
0.0
 11
85.19787866101056
 21
151.7646836114403
 31
0.0
  0
LINE
  5
383
330
75
100
AcDbEntity
  8
Visible (ISO)
100
AcDbLine
 10
85.19787866101056
 20
245.7826029683325
 30
0.0
 11
82.5462282315614
 21
247.309586895054
 31
0.0
  0
LINE
  5
384
330
75
100
AcDbEntity
  8
Visible (ISO)
100
AcDbLine
 10
27.24552819531312
 20
279.1551420836157
 30
0.0
 11
82.5462282315614
 21
247.309586895054
 31
0.0
  0
LINE
  5
385
330
75
100
AcDbEntity
  8
Visible (ISO)
100
AcDbLine
 10
27.24552819531327
 20
261.8726323577047
 30
0.0
 11
27.24552819531312
 21
279.1551420836157
 31
0.0
  0
LINE
  5
386
330
75
100
AcDbEntity
  8
Visible Narrow (ISO)
100
AcDbLine
 10
32.54882905421162
 20
258.8186645042618
 30
0.0
 11
27.24552819531327
 21
261.8726323577047
 31
0.0
  0
LINE
  5
387
330
75
100
AcDbEntity
  8
Visible (ISO)
100
AcDbLine
 10
32.54882905421162
 20
258.8186645042618
 30
0.0
 11
32.5488290542115
 21
261.2422552361596
 31
0.0
  0
LINE
  5
388
330
75
100
AcDbEntity
  8
Visible (ISO)
100
AcDbLine
 10
72.64673329495119
 20
238.1514078941343
 30
0.0
 11
74.06094685732407
 21
237.3370164665495
 31
0.0
  0
LINE
  5
389
330
75
100
AcDbEntity
  8
Visible (ISO)
100
AcDbLine
 10
74.06094685732405
 20
234.9134257346516
 30
0.0
 11
74.06094685732407
 21
237.3370164665495
 31
0.0
  0
LINE
  5
38A
330
75
100
AcDbEntity
  8
Visible Narrow (ISO)
100
AcDbLine
 10
79.36424771622241
 20
231.8594578812087
 30
0.0
 11
74.06094685732405
 21
234.9134257346516
 31
0.0
  0
LINE
  5
38B
330
75
100
AcDbEntity
  8
Visible (ISO)
100
AcDbLine
 10
79.36424771622241
 20
231.8594578812087
 30
0.0
 11
79.36424771622241
 21
234.2830486131066
 31
0.0
  0
LINE
  5
38C
330
75
100
AcDbEntity
  8
Visible (ISO)
100
AcDbLine
 10
79.36424771622241
 20
234.2830486131066
 30
0.0
 11
80.7784612785953
 21
233.4686571855218
 31
0.0
  0
LINE
  5
38D
330
75
100
AcDbEntity
  8
Visible (ISO)
100
AcDbLine
 10
80.7784612785953
 20
233.4686571855218
 30
0.0
 11
80.7784612785953
 21
230.7001159521195
 31
0.0
  0
LINE
  5
38E
330
75
100
AcDbEntity
  8
Visible (ISO)
100
AcDbLine
 10
80.7784612785953
 20
219.1521154090041
 30
0.0
 11
80.7784612785953
 21
212.621205502037
 31
0.0
  0
LINE
  5
38F
330
75
100
AcDbEntity
  8
Visible (ISO)
100
AcDbLine
 10
80.7784612785953
 20
212.621205502037
 30
0.0
 11
72.64673329495102
 21
217.3039562106496
 31
0.0
  0
LINE
  5
390
330
75
100
AcDbEntity
  8
Visible (ISO)
100
AcDbLine
 10
72.64673329495102
 20
217.3039562106496
 30
0.0
 11
72.64673329495119
 21
238.1514078941343
 31
0.0
  0
LINE
  5
391
330
75
100
AcDbEntity
  8
Visible (ISO)
100
AcDbLine
 10
72.64673329495119
 20
194.8622876337218
 30
0.0
 11
80.7784612785953
 21
190.1795369251093
 31
0.0
  0
LINE
  5
392
330
75
100
AcDbEntity
  8
Visible (ISO)
100
AcDbLine
 10
80.7784612785953
 20
190.1795369251093
 30
0.0
 11
80.7784612785953
 21
189.7565627250281
 31
0.0
  0
LINE
  5
393
330
75
100
AcDbEntity
  8
Visible (ISO)
100
AcDbLine
 10
80.7784612785953
 20
175.358192185365
 30
0.0
 11
80.7784612785953
 21
169.3320852416245
 31
0.0
  0
LINE
  5
394
330
75
100
AcDbEntity
  8
Visible (ISO)
100
AcDbLine
 10
80.7784612785953
 20
169.3320852416245
 30
0.0
 11
79.36424771622241
 21
170.1464766692093
 31
0.0
  0
LINE
  5
395
330
75
100
AcDbEntity
  8
Visible (ISO)
100
AcDbLine
 10
79.36424771622241
 20
172.5700674011071
 30
0.0
 11
79.36424771622241
 21
170.1464766692093
 31
0.0
  0
LINE
  5
396
330
75
100
AcDbEntity
  8
Visible Narrow (ISO)
100
AcDbLine
 10
79.36424771622241
 20
172.5700674011071
 30
0.0
 11
74.06094685732405
 21
175.6240352545501
 31
0.0
  0
LINE
  5
397
330
75
100
AcDbEntity
  8
Visible (ISO)
100
AcDbLine
 10
74.06094685732405
 20
175.6240352545501
 30
0.0
 11
74.06094685732409
 21
173.2004445226522
 31
0.0
  0
LINE
  5
398
330
75
100
AcDbEntity
  8
Visible (ISO)
100
AcDbLine
 10
74.06094685732409
 20
173.2004445226522
 30
0.0
 11
72.64673329495102
 21
174.0148359502371
 31
0.0
  0
LINE
  5
399
330
75
100
AcDbEntity
  8
Visible (ISO)
100
AcDbLine
 10
72.64673329495102
 20
174.0148359502371
 30
0.0
 11
72.64673329495119
 21
194.8622876337218
 31
0.0
  0
ELLIPSE
  5
39A
330
75
100
AcDbEntity
  8
Visible (ISO)
100
AcDbEllipse
 10
27.95263497649991
 20
262.279828071497
 30
0.0
 11
-0.499032211584407
 21
-0.8665834361451786
 31
0.0
210
0.0
220
0.0
230
1.0
 40
0.5780931159158105
 41
5.495853435359256
 42
6.281251598756744
  0
LINE
  5
39B
330
75
100
AcDbEntity
  8
Visible Narrow (ISO)
100
AcDbLine
 10
32.75593583539822
 20
258.3598362516458
 30
0.0
 11
27.45263497649987
 21
261.4138041050887
 31
0.0
  0
ELLIPSE
  5
39C
330
75
100
AcDbEntity
  8
Visible (ISO)
100
AcDbEllipse
 10
33.25593583539829
 20
259.2258602180541
 30
0.0
 11
-0.4990322115844303
 21
-0.8665834361452189
 31
0.0
210
0.0
220
0.0
230
0.9999999999999998
 40
0.5780931159158106
 41
5.495853435359318
 42
6.281251598756759
  0
LINE
  5
39D
330
75
100
AcDbEntity
  8
Visible (ISO)
100
AcDbLine
 10
29.90974175768677
 20
259.9878847650576
 30
0.0
 11
27.45263497649987
 21
261.4138041050887
 31
0.0
  0
LINE
  5
39E
330
75
100
AcDbEntity
  8
Visible Narrow (ISO)
100
AcDbLine
 10
35.2130426165851
 20
256.9339169116146
 30
0.0
 11
29.90974175768677
 21
259.9878847650576
 31
0.0
  0
LINE
  5
39F
330
75
100
AcDbEntity
  8
Visible (ISO)
100
AcDbLine
 10
35.2130426165851
 20
256.9339169116146
 30
0.0
 11
32.75593583539822
 21
258.3598362516458
 31
0.0
  0
ELLIPSE
  5
3A0
330
75
100
AcDbEntity
  8
Visible (ISO)
100
AcDbEllipse
 10
28.6597417576866
 20
257.8228248490367
 30
0.0
 11
1.247580528960994
 21
2.166458590362906
 31
0.0
210
0.0
220
0.0
230
1.0
 40
0.5780931159158106
 41
5.495853435359246
 42
6.281251598756717
  0
LINE
  5
3A1
330
75
100
AcDbEntity
  8
Visible Narrow (ISO)
100
AcDbLine
 10
35.73080956955154
 20
255.7868462800744
 30
0.0
 11
30.42750871065319
 21
258.8408141335174
 31
0.0
  0
ELLIPSE
  5
3A2
330
75
100
AcDbEntity
  8
Visible (ISO)
100
AcDbEllipse
 10
33.96304261658495
 20
254.7688569955937
 30
0.0
 11
1.247580528960991
 21
2.166458590362902
 31
0.0
210
0.0
220
0.0
230
1.0
 40
0.5780931159158105
 41
5.495853435359228
 42
6.281251598756694
  0
LINE
  5
3A3
330
75
100
AcDbEntity
  8
Visible (ISO)
100
AcDbLine
 10
30.42750871065321
 20
249.3688877423958
 30
0.0
 11
30.42750871065319
 21
258.8408141335174
 31
0.0
  0
LINE
  5
3A4
330
75
100
AcDbEntity
  8
Visible (ISO)
100
AcDbLine
 10
35.73080956955154
 20
246.3149198889529
 30
0.0
 11
30.42750871065321
 21
249.3688877423958
 31
0.0
  0
LINE
  5
3A5
330
75
100
AcDbEntity
  8
Visible (ISO)
100
AcDbLine
 10
35.73080956955154
 20
246.3149198889529
 30
0.0
 11
35.73080956955154
 21
255.7868462800744
 31
0.0
  0
ELLIPSE
  5
3A6
330
75
100
AcDbEntity
  8
Visible Narrow (ISO)
100
AcDbEllipse
 10
33.07915914010237
 20
252.3997290366715
 30
0.0
 11
-1.522048245331597
 21
2.643079480243261
 31
0.0
210
0.0
220
0.0
230
1.0
 40
0.578093115915639
 41
0.0
 42
6.283185307179586
  0
LINE
  5
3A7
330
75
100
AcDbEntity
  8
Visible (ISO)
100
AcDbLine
 10
34.67014939777158
 20
245.7041263182645
 30
0.0
 11
29.36684853887324
 21
248.7580941717074
 31
0.0
  0
LINE
  5
3A8
330
75
100
AcDbEntity
  8
Visible (ISO)
100
AcDbLine
 10
29.36684853887321
 20
258.2300205628289
 30
0.0
 11
29.36684853887324
 21
248.7580941717074
 31
0.0
  0
ELLIPSE
  5
3A9
330
75
100
AcDbEntity
  8
Visible (ISO)
100
AcDbEllipse
 10
28.65974175768658
 20
257.8228248490367
 30
0.0
 11
0.499032211584396
 21
0.8665834361451596
 31
0.0
210
0.0
220
0.0
230
1.0
 40
0.5780931159158106
 41
5.495853435359222
 42
6.281251598756673
  0
LINE
  5
3AA
330
75
100
AcDbEntity
  8
Visible (ISO)
100
AcDbLine
 10
26.70263497649977
 20
260.1147681554762
 30
0.0
 11
29.15974175768666
 21
258.688848815445
 31
0.0
  0
ELLIPSE
  5
3AB
330
75
100
AcDbEntity
  8
Visible (ISO)
100
AcDbEllipse
 10
27.95263497649993
 20
262.2798280714971
 30
0.0
 11
-1.247580528961027
 21
-2.166458590362964
 31
0.0
210
0.0
220
0.0
230
1.0
 40
0.5780931159158105
 41
5.495853435359284
 42
6.281251598756727
  0
LINE
  5
3AC
330
75
100
AcDbEntity
  8
Visible (ISO)
100
AcDbLine
 10
32.9023824448044
 20
259.8170702378864
 30
0.0
 11
32.9023824448044
 21
258.274849691748
 31
0.0
  0
LINE
  5
3AD
330
75
100
AcDbEntity
  8
Visible (ISO)
100
AcDbLine
 10
32.9023824448044
 20
246.7221156027461
 30
0.0
 11
32.9023824448044
 21
217.3265629187701
 31
0.0
  0
LINE
  5
3AE
330
75
100
AcDbEntity
  8
Visible (ISO)
100
AcDbLine
 10
32.9023824448044
 20
200.4802845504656
 30
0.0
 11
32.9023824448044
 21
196.9020854353663
 31
0.0
  0
LINE
  5
3AF
330
75
100
AcDbEntity
  8
Visible (ISO)
100
AcDbLine
 10
32.54882905421155
 20
260.0206680947824
 30
0.0
 11
32.9023824448044
 21
259.8170702378864
 31
0.0
  0
LINE
  5
3B0
330
75
100
AcDbEntity
  8
Visible (ISO)
100
AcDbLine
 10
26.18486802353331
 20
261.2618387870163
 30
0.0
 11
26.18486802353315
 21
278.5443485129273
 31
0.0
  0
LINE
  5
3B1
330
75
100
AcDbEntity
  8
Visible (ISO)
100
AcDbLine
 10
84.13721848923058
 20
151.1538900407519
 30
0.0
 11
81.48556805978143
 21
152.6808739674734
 31
0.0
  0
LINE
  5
3B2
330
75
100
AcDbEntity
  8
Visible (ISO)
100
AcDbLine
 10
26.18486802353315
 20
184.5264291560351
 30
0.0
 11
26.18486802353331
 21
201.9724483069148
 31
0.0
  0
LINE
  5
3B3
330
75
100
AcDbEntity
  8
Visible (ISO)
100
AcDbLine
 10
79.71780110681533
 20
173.5210779274128
 30
0.0
 11
79.71780110681533
 21
169.9428788123133
 31
0.0
  0
LINE
  5
3B4
330
75
100
AcDbEntity
  8
Visible (ISO)
100
AcDbLine
 10
72.64673329495114
 20
193.6407004923446
 30
0.0
 11
76.54952048353631
 21
191.3932348233416
 31
0.0
  0
LINE
  5
3B5
330
75
100
AcDbEntity
  8
Visible (ISO)
100
AcDbLine
 10
73.0002866855441
 20
173.811238093341
 30
0.0
 11
73.0002866855441
 21
175.0132416838617
 31
0.0
  0
LINE
  5
3B6
330
75
100
AcDbEntity
  8
Visible (ISO)
100
AcDbLine
 10
79.71780110681533
 20
232.8578636148334
 30
0.0
 11
79.71780110681533
 21
231.3156430686949
 31
0.0
  0
LINE
  5
3B7
330
75
100
AcDbEntity
  8
Visible (ISO)
100
AcDbLine
 10
79.71780110681533
 20
219.7629089796929
 30
0.0
 11
79.71780110681533
 21
213.2319990727258
 31
0.0
  0
LINE
  5
3B8
330
75
100
AcDbEntity
  8
Visible (ISO)
100
AcDbLine
 10
79.36424771622239
 20
233.0614614717294
 30
0.0
 11
79.71780110681533
 21
232.8578636148334
 31
0.0
  0
LINE
  5
3B9
330
75
100
AcDbEntity
  8
Visible (ISO)
100
AcDbLine
 10
73.00028668554411
 20
236.7262228958612
 30
0.0
 11
73.0002866855441
 21
234.3026321639633
 31
0.0
  0
LINE
  5
3BA
330
75
100
AcDbEntity
  8
Visible (ISO)
100
AcDbLine
 10
72.64673329495114
 20
236.9298207527572
 30
0.0
 11
73.00028668554411
 21
236.7262228958612
 31
0.0
  0
ELLIPSE
  5
3BB
330
75
100
AcDbEntity
  8
Visible (ISO)
100
AcDbEllipse
 10
85.90498544219721
 20
246.1897986821248
 30
0.0
 11
-1.0
 21
0.0000000000000595
 31
0.0
210
0.0
220
0.0
230
1.0
 40
0.5758617009853119
 41
0.7853981633975709
 42
2.356194490192475
  0
LINE
  5
3BC
330
75
100
AcDbEntity
  8
Visible (ISO)
100
AcDbLine
 10
80.7784612785953
 20
190.1795369251093
 30
0.0
 11
80.41120799594299
 21
189.9680498250687
 31
0.0
  0
ELLIPSE
  5
3BD
330
75
100
AcDbEntity
  8
Visible (ISO)
100
AcDbEllipse
 10
80.07135449740909
 20
232.266653595001
 30
0.0
 11
-0.4990322115844431
 21
-0.8665834361452413
 31
0.0
210
0.0
220
0.0
230
1.0
 40
0.5780931159158105
 41
5.495853435359348
 42
6.281251598756695
  0
LINE
  5
3BE
330
75
100
AcDbEntity
  8
Visible (ISO)
100
AcDbLine
 10
82.02846127859588
 20
229.9747102885616
 30
0.0
 11
79.57135449740897
 21
231.4006296285926
 31
0.0
  0
ELLIPSE
  5
3BF
330
75
100
AcDbEntity
  8
Visible (ISO)
100
AcDbEllipse
 10
80.77846127859572
 20
227.8096503725407
 30
0.0
 11
1.247580528961003
 21
2.166458590362921
 31
0.0
210
0.0
220
0.0
230
1.0
 40
0.5780931159158106
 41
5.495853435359244
 42
6.28125159875669
  0
LINE
  5
3C0
330
75
100
AcDbEntity
  8
Visible (ISO)
100
AcDbLine
 10
82.54622823156234
 20
219.3557132658998
 30
0.0
 11
82.54622823156232
 21
228.8276396570214
 31
0.0
  0
LINE
  5
3C1
330
75
100
AcDbEntity
  8
Visible (ISO)
100
AcDbLine
 10
81.48556805978238
 20
218.7449196952114
 30
0.0
 11
82.54622823156234
 21
219.3557132658998
 31
0.0
  0
LINE
  5
3C2
330
75
100
AcDbEntity
  8
Visible Narrow (ISO)
100
AcDbLine
 10
79.57135449740897
 20
173.2674253803225
 30
0.0
 11
74.26805363851063
 21
176.3213932337655
 31
0.0
  0
ELLIPSE
  5
3C3
330
75
100
AcDbEntity
  8
Visible (ISO)
100
AcDbEllipse
 10
74.7680536385107
 20
176.0312309683424
 30
0.0
 11
-0.4990322115844149
 21
-0.8665834361451924
 31
0.0
210
0.0
220
0.0
230
1.0
 40
0.5780931159158105
 41
4.710455271961771
 42
5.495853435359244
  0
ELLIPSE
  5
3C4
330
75
100
AcDbEntity
  8
Visible (ISO)
100
AcDbEllipse
 10
80.07135449740909
 20
172.9772631148994
 30
0.0
 11
-0.4990322115844431
 21
-0.8665834361452413
 31
0.0
210
0.0
220
0.0
230
1.0
 40
0.5780931159158105
 41
4.710455271961794
 42
5.495853435359175
  0
LINE
  5
3C5
330
75
100
AcDbEntity
  8
Visible (ISO)
100
AcDbLine
 10
74.06094685732407
 20
237.3370164665495
 30
0.0
 11
73.00028668554411
 21
236.7262228958612
 31
0.0
  0
LINE
  5
3C6
330
75
100
AcDbEntity
  8
Visible (ISO)
100
AcDbLine
 10
80.7784612785953
 20
233.4686571855218
 30
0.0
 11
79.71780110681533
 21
232.8578636148334
 31
0.0
  0
ELLIPSE
  5
3C7
330
75
100
AcDbEntity
  8
Visible (ISO)
100
AcDbEllipse
 10
74.76805363851072
 20
235.320621448444
 30
0.0
 11
-0.4990322115844179
 21
-0.8665834361451976
 31
0.0
210
0.0
220
0.0
230
1.0
 40
0.5780931159158105
 41
5.495853435359286
 42
6.281251598756749
  0
LINE
  5
3C8
330
75
100
AcDbEntity
  8
Visible Narrow (ISO)
100
AcDbLine
 10
79.57135449740897
 20
231.4006296285926
 30
0.0
 11
74.26805363851063
 21
234.4545974820356
 31
0.0
  0
ELLIPSE
  5
3C9
330
75
100
AcDbEntity
  8
Visible (ISO)
100
AcDbEllipse
 10
74.76805363851075
 20
235.3206214484441
 30
0.0
 11
-1.247580528961049
 21
-2.166458590363002
 31
0.0
210
0.0
220
0.0
230
1.0
 40
0.5780931159158106
 41
5.495853435359276
 42
6.281251598756706
  0
LINE
  5
3CA
330
75
100
AcDbEntity
  8
Visible (ISO)
100
AcDbLine
 10
73.51805363851055
 20
233.1555615324231
 30
0.0
 11
75.97516041969743
 21
231.729642192392
 31
0.0
  0
ELLIPSE
  5
3CB
330
75
100
AcDbEntity
  8
Visible (ISO)
100
AcDbEllipse
 10
75.47516041969737
 20
230.8636182259836
 30
0.0
 11
0.4990322115844008
 21
0.8665834361451679
 31
0.0
210
0.0
220
0.0
230
1.0
 40
0.5780931159158106
 41
5.495853435359219
 42
6.281251598756647
  0
LINE
  5
3CC
330
75
100
AcDbEntity
  8
Visible (ISO)
100
AcDbLine
 10
76.18226720088401
 20
231.2708139397759
 30
0.0
 11
76.18226720088403
 21
221.7988875486543
 31
0.0
  0
LINE
  5
3CD
330
75
100
AcDbEntity
  8
Visible (ISO)
100
AcDbLine
 10
76.18226720088403
 20
221.7988875486543
 30
0.0
 11
77.242927372664
 21
222.4096811193427
 31
0.0
  0
LINE
  5
3CE
330
75
100
AcDbEntity
  8
Visible (ISO)
100
AcDbLine
 10
77.242927372664
 20
222.4096811193427
 30
0.0
 11
77.24292737266399
 21
231.8816075104643
 31
0.0
  0
ELLIPSE
  5
3CF
330
75
100
AcDbEntity
  8
Visible (ISO)
100
AcDbEllipse
 10
75.47516041969737
 20
230.8636182259836
 30
0.0
 11
1.247580528961
 21
2.166458590362918
 31
0.0
210
0.0
220
0.0
230
1.0
 40
0.5780931159158104
 41
5.495853435359226
 42
6.281251598756679
  0
LINE
  5
3D0
330
75
100
AcDbEntity
  8
Visible (ISO)
100
AcDbLine
 10
76.72516041969756
 20
233.0286781420045
 30
0.0
 11
74.26805363851063
 21
234.4545974820356
 31
0.0
  0
LINE
  5
3D1
330
75
100
AcDbEntity
  8
Visible (ISO)
100
AcDbLine
 10
76.72516041969756
 20
180.5772199548295
 30
0.0
 11
74.26805363851063
 21
176.3213932337655
 31
0.0
  0
ELLIPSE
  5
3D2
330
75
100
AcDbEntity
  8
Visible (ISO)
100
AcDbEllipse
 10
75.47516041969737
 20
181.3026256183872
 30
0.0
 11
-1.247580528961134
 21
-2.166458590362851
 31
0.0
210
0.0
220
0.0
230
1.0
 40
0.5780931159158106
 41
1.568862618372129
 42
2.354260781769706
  0
LINE
  5
3D3
330
75
100
AcDbEntity
  8
Visible (ISO)
100
AcDbLine
 10
77.242927372664
 20
191.7925412939895
 30
0.0
 11
77.24292737266399
 21
182.3206149028679
 31
0.0
  0
LINE
  5
3D4
330
75
100
AcDbEntity
  8
Visible (ISO)
100
AcDbLine
 10
76.18226720088403
 20
191.1817477233011
 30
0.0
 11
77.242927372664
 21
191.7925412939895
 31
0.0
  0
LINE
  5
3D5
330
75
100
AcDbEntity
  8
Visible (ISO)
100
AcDbLine
 10
76.18226720088401
 20
181.7098213321795
 30
0.0
 11
76.18226720088403
 21
191.1817477233011
 31
0.0
  0
ELLIPSE
  5
3D6
330
75
100
AcDbEntity
  8
Visible (ISO)
100
AcDbEllipse
 10
75.47516041969737
 20
181.3026256183872
 30
0.0
 11
0.499032211584396
 21
0.8665834361451596
 31
0.0
210
0.0
220
0.0
230
1.0
 40
0.5780931159158106
 41
4.710455271961841
 42
5.495853435359312
  0
LINE
  5
3D7
330
75
100
AcDbEntity
  8
Visible (ISO)
100
AcDbLine
 10
73.51805363851055
 20
176.7566366319002
 30
0.0
 11
75.97516041969743
 21
181.0124633529641
 31
0.0
  0
ELLIPSE
  5
3D8
330
75
100
AcDbEntity
  8
Visible (ISO)
100
AcDbEllipse
 10
74.76805363851072
 20
176.0312309683424
 30
0.0
 11
1.247580528961156
 21
2.166458590362889
 31
0.0
210
0.0
220
0.0
230
1.0
 40
0.5780931159158105
 41
1.568862618372104
 42
2.354260781769681
  0
LINE
  5
3D9
330
75
100
AcDbEntity
  8
Visible (ISO)
100
AcDbLine
 10
82.54622823156234
 20
188.7385734405466
 30
0.0
 11
82.54622823156232
 21
179.266647049425
 31
0.0
  0
ELLIPSE
  5
3DA
330
75
100
AcDbEntity
  8
Visible (ISO)
100
AcDbEllipse
 10
80.77846127859571
 20
178.2486577649443
 30
0.0
 11
-1.247580528961146
 21
-2.166458590362869
 31
0.0
210
0.0
220
0.0
230
0.9999999999999998
 40
0.5780931159158108
 41
1.568862618372119
 42
2.354260781769722
  0
LINE
  5
3DB
330
75
100
AcDbEntity
  8
Visible (ISO)
100
AcDbLine
 10
82.02846127859588
 20
177.5232521013865
 30
0.0
 11
79.57135449740897
 21
173.2674253803225
 31
0.0
  0
LINE
  5
3DC
330
75
100
AcDbEntity
  8
Visible Narrow (ISO)
100
AcDbLine
 10
82.02846127859588
 20
229.9747102885616
 30
0.0
 11
76.72516041969756
 21
233.0286781420045
 31
0.0
  0
LINE
  5
3DD
330
75
100
AcDbEntity
  8
Visible Narrow (ISO)
100
AcDbLine
 10
82.54622823156232
 20
228.8276396570214
 30
0.0
 11
77.24292737266399
 21
231.8816075104643
 31
0.0
  0
LINE
  5
3DE
330
75
100
AcDbEntity
  8
Visible (ISO)
100
AcDbLine
 10
81.48556805978238
 20
218.7449196952114
 30
0.0
 11
76.18226720088403
 21
221.7988875486543
 31
0.0
  0
LINE
  5
3DF
330
75
100
AcDbEntity
  8
Visible (ISO)
100
AcDbLine
 10
82.54622823156234
 20
219.3557132658998
 30
0.0
 11
77.242927372664
 21
222.4096811193427
 31
0.0
  0
ELLIPSE
  5
3E0
330
75
100
AcDbEntity
  8
Visible Narrow (ISO)
100
AcDbEllipse
 10
79.89457780211317
 20
225.4405224136184
 30
0.0
 11
-1.522048245331598
 21
2.643079480243263
 31
0.0
210
0.0
220
0.0
230
1.0
 40
0.578093115915639
 41
0.0
 42
6.283185307179586
  0
LINE
  5
3E1
330
75
100
AcDbEntity
  8
Visible Narrow (ISO)
100
AcDbLine
 10
82.02846127859588
 20
177.5232521013865
 30
0.0
 11
76.72516041969756
 21
180.5772199548295
 31
0.0
  0
LINE
  5
3E2
330
75
100
AcDbEntity
  8
Visible (ISO)
100
AcDbLine
 10
82.54622823156234
 20
188.7385734405466
 30
0.0
 11
77.242927372664
 21
191.7925412939895
 31
0.0
  0
LINE
  5
3E3
330
75
100
AcDbEntity
  8
Visible Narrow (ISO)
100
AcDbLine
 10
82.54622823156232
 20
179.266647049425
 30
0.0
 11
77.24292737266399
 21
182.3206149028679
 31
0.0
  0
ELLIPSE
  5
3E4
330
75
100
AcDbEntity
  8
Visible Narrow (ISO)
100
AcDbEllipse
 10
79.89457780211317
 20
185.7077321462709
 30
0.0
 11
-1.522048245331598
 21
2.643079480243263
 31
0.0
210
0.0
220
0.0
230
1.0
 40
0.578093115915639
 41
0.0
 42
6.283185307179586
  0
LINE
  5
3E5
330
75
100
AcDbEntity
  8
Visible Narrow (ISO)
100
AcDbLine
 10
86.61209222338365
 20
151.7646836114402
 30
0.0
 11
87.67275239516331
 21
151.1538900407516
 31
0.0
  0
ELLIPSE
  5
3E6
330
75
100
AcDbEntity
  8
Visible (ISO)
100
AcDbEllipse
 10
85.90498544219721
 20
152.1718793252327
 30
0.0
 11
-1.0
 21
0.0000000000000595
 31
0.0
210
0.0
220
0.0
230
1.0
 40
0.5758617009853119
 41
0.7853981633975576
 42
2.356194490192439
  0
ELLIPSE
  5
3E7
330
75
100
AcDbEntity
  8
Visible (ISO)
100
AcDbEllipse
 10
85.90498544219721
 20
152.1718793252327
 30
0.0
 11
-2.499999999999999
 21
0.0000000000001489
 31
0.0
210
0.0
220
0.0
230
1.0
 40
0.5758617009853121
 41
0.785398163397538
 42
2.356194490192432
  0
LINE
  5
3E8
330
75
100
AcDbEntity
  8
Visible (ISO)
100
AcDbLine
 10
108.0374276933392
 20
248.2283128856435
 30
0.0
 11
109.0980878651189
 21
247.617519314955
 31
0.0
  0
LINE
  5
3E9
330
75
100
AcDbEntity
  8
Visible (ISO)
100
AcDbLine
 10
106.6232141309659
 20
249.0490157077441
 30
0.0
 11
107.6838743027456
 21
248.4382221370555
 31
0.0
  0
LINE
  5
3EA
330
75
100
AcDbEntity
  8
Visible (ISO)
100
AcDbLine
 10
106.6232141309659
 20
253.4637701818938
 30
0.0
 11
107.6838743027456
 21
252.8529766112052
 31
0.0
  0
LINE
  5
3EB
330
75
100
AcDbEntity
  8
Visible (ISO)
100
AcDbLine
 10
108.0374276933392
 20
193.4526555211933
 30
0.0
 11
109.0980878651189
 21
192.8418619505048
 31
0.0
  0
LINE
  5
3EC
330
75
100
AcDbEntity
  8
Visible (ISO)
100
AcDbLine
 10
106.6232141309659
 20
194.2733583432939
 30
0.0
 11
107.6838743027456
 21
193.6625647726053
 31
0.0
  0
LINE
  5
3ED
330
75
100
AcDbEntity
  8
Visible (ISO)
100
AcDbLine
 10
106.6232141309659
 20
198.6881128174436
 30
0.0
 11
107.6838743027456
 21
198.077319246755
 31
0.0
  0
LINE
  5
3EE
330
75
100
AcDbEntity
  8
Visible (ISO)
100
AcDbLine
 10
108.0374276933392
 20
186.258240822579
 30
0.0
 11
109.0980878651189
 21
185.6474472518904
 31
0.0
  0
LINE
  5
3EF
330
75
100
AcDbEntity
  8
Visible (ISO)
100
AcDbLine
 10
122.3209846733096
 20
204.9727238529127
 30
0.0
 11
123.3816448450893
 21
204.3619302822242
 31
0.0
  0
LINE
  5
3F0
330
75
100
AcDbEntity
  8
Visible (ISO)
100
AcDbLine
 10
94.03671342584352
 20
188.6848953012217
 30
0.0
 11
95.09737359762318
 21
188.0741017305331
 31
0.0
  0
LINE
  5
3F1
330
75
100
AcDbEntity
  8
Visible (ISO)
100
AcDbLine
 10
130.4527126569558
 20
163.5260238525461
 30
0.0
 11
129.3920524851761
 21
164.1368174232347
 31
0.0
  0
LINE
  5
3F2
330
75
100
AcDbEntity
  8
Visible (ISO)
100
AcDbLine
 10
130.8062660475494
 20
166.5863031005044
 30
0.0
 11
131.8669262193291
 21
165.9755095298158
 31
0.0
  0
LINE
  5
3F3
330
75
100
AcDbEntity
  8
Visible (ISO)
100
AcDbLine
 10
131.8669262193291
 20
281.249654132614
 30
0.0
 11
130.8062660475494
 21
281.8604477033025
 31
0.0
  0
LINE
  5
3F4
330
75
100
AcDbEntity
  8
Visible (ISO)
100
AcDbLine
 10
129.3920524851761
 20
282.681150525403
 30
0.0
 11
130.4527126569558
 21
282.0703569547145
 31
0.0
  0
LINE
  5
3F5
330
75
100
AcDbEntity
  8
Visible (ISO)
100
AcDbLine
 10
101.461334628303
 20
263.7402384395461
 30
0.0
 11
100.4006744565234
 21
264.3510320102347
 31
0.0
  0
LINE
  5
3F6
330
75
100
AcDbEntity
  8
Visible (ISO)
100
AcDbLine
 10
98.98646089415009
 20
265.1717348323353
 30
0.0
 11
100.0471210659297
 21
264.5609412616467
 31
0.0
  0
LINE
  5
3F7
330
75
100
AcDbEntity
  8
Visible (ISO)
100
AcDbLine
 10
90.50117951991019
 20
141.7410531646597
 30
0.0
 11
91.5618396916899
 21
141.1302595939711
 31
0.0
  0
LINE
  5
3F8
330
75
100
AcDbEntity
  8
Visible (ISO)
100
AcDbLine
 10
100.0471210659297
 20
146.0166081594784
 30
0.0
 11
98.98646089415004
 21
146.6274017301669
 31
0.0
  0
LINE
  5
3F9
330
75
100
AcDbEntity
  8
Visible (ISO)
100
AcDbLine
 10
100.4006744565234
 20
149.0768874074366
 30
0.0
 11
101.461334628303
 21
148.466093836748
 31
0.0
  0
LINE
  5
3FA
330
75
100
AcDbEntity
  8
Visible (ISO)
100
AcDbLine
 10
100.4006744565234
 20
156.0260379685982
 30
0.0
 11
101.461334628303
 21
155.4152443979096
 31
0.0
  0
LINE
  5
3FB
330
75
100
AcDbEntity
  8
Visible (ISO)
100
AcDbLine
 10
120.9067711109363
 20
159.2504688577275
 30
0.0
 11
121.967431282716
 21
158.6396752870389
 31
0.0
  0
LINE
  5
3FC
330
75
100
AcDbEntity
  8
Visible (ISO)
100
AcDbLine
 10
27.24552819531312
 20
279.1551420836157
 30
0.0
 11
26.18486802353315
 21
278.5443485129273
 31
0.0
  0
LINE
  5
3FD
330
75
100
AcDbEntity
  8
Visible (ISO)
100
AcDbLine
 10
29.36684853887324
 20
218.1409543463542
 30
0.0
 11
30.42750871065321
 21
218.7517479170426
 31
0.0
  0
LINE
  5
3FE
330
75
100
AcDbEntity
  8
Visible (ISO)
100
AcDbLine
 10
33.96304261658436
 20
260.4278638085748
 30
0.0
 11
32.9023824448044
 21
259.8170702378864
 31
0.0
  0
LINE
  5
3FF
330
75
100
AcDbEntity
  8
Visible (ISO)
100
AcDbLine
 10
34.67014939777158
 20
245.7041263182645
 30
0.0
 11
35.73080956955154
 21
246.3149198889529
 31
0.0
  0
LINE
  5
400
330
75
100
AcDbEntity
  8
Visible (ISO)
100
AcDbLine
 10
29.36684853887324
 20
248.7580941717074
 30
0.0
 11
30.42750871065321
 21
249.3688877423958
 31
0.0
  0
POLYLINE
  5
401
330
75
100
AcDbEntity
  8
Visible (ISO)
100
AcDb2dPolyline
 66
     1
 10
0.0
 20
0.0
 30
0.0
 70
   128
  0
VERTEX
  5
402
330
401
100
AcDbEntity
  8
Visible (ISO)
100
AcDbVertex
100
AcDb2dVertex
 10
78.20858315310339
 20
226.314249641641
 30
0.0
  0
VERTEX
  5
403
330
401
100
AcDbEntity
  8
Visible (ISO)
100
AcDbVertex
100
AcDb2dVertex
 10
78.19801019468598
 20
226.2802278979083
 30
0.0
  0
VERTEX
  5
405
330
401
100
AcDbEntity
  8
Visible (ISO)
100
AcDbVertex
100
AcDb2dVertex
 10
78.18176679926991
 20
226.1770184559037
 30
0.0
  0
VERTEX
  5
406
330
401
100
AcDbEntity
  8
Visible (ISO)
100
AcDbVertex
100
AcDb2dVertex
 10
78.17854846591764
 20
226.0113418122923
 30
0.0
  0
VERTEX
  5
407
330
401
100
AcDbEntity
  8
Visible (ISO)
100
AcDbVertex
100
AcDb2dVertex
 10
78.20033754366081
 20
225.7952860678187
 30
0.0
  0
VERTEX
  5
408
330
401
100
AcDbEntity
  8
Visible (ISO)
100
AcDbVertex
100
AcDb2dVertex
 10
78.25346111739789
 20
225.5426338614678
 30
0.0
  0
VERTEX
  5
409
330
401
100
AcDbEntity
  8
Visible (ISO)
100
AcDbVertex
100
AcDb2dVertex
 10
78.33985794216035
 20
225.2670754985476
 30
0.0
  0
VERTEX
  5
40A
330
401
100
AcDbEntity
  8
Visible (ISO)
100
AcDbVertex
100
AcDb2dVertex
 10
78.45841871289542
 20
224.9815907279756
 30
0.0
  0
VERTEX
  5
40B
330
401
100
AcDbEntity
  8
Visible (ISO)
100
AcDbVertex
100
AcDb2dVertex
 10
78.60588042059138
 20
224.6984094537495
 30
0.0
  0
VERTEX
  5
40C
330
401
100
AcDbEntity
  8
Visible (ISO)
100
AcDbVertex
100
AcDb2dVertex
 10
78.77680275004244
 20
224.428744516136
 30
0.0
  0
VERTEX
  5
40D
330
401
100
AcDbEntity
  8
Visible (ISO)
100
AcDbVertex
100
AcDb2dVertex
 10
78.96418089502607
 20
224.182882193178
 30
0.0
  0
VERTEX
  5
40E
330
401
100
AcDbEntity
  8
Visible (ISO)
100
AcDbVertex
100
AcDb2dVertex
 10
79.1591842478423
 20
223.9698811232056
 30
0.0
  0
VERTEX
  5
40F
330
401
100
AcDbEntity
  8
Visible (ISO)
100
AcDbVertex
100
AcDb2dVertex
 10
79.35101394296566
 20
223.7970901675082
 30
0.0
  0
VERTEX
  5
410
330
401
100
AcDbEntity
  8
Visible (ISO)
100
AcDbVertex
100
AcDb2dVertex
 10
79.52695343326343
 20
223.6698138578797
 30
0.0
  0
VERTEX
  5
411
330
401
100
AcDbEntity
  8
Visible (ISO)
100
AcDbVertex
100
AcDb2dVertex
 10
79.67185851312871
 20
223.5894400164029
 30
0.0
  0
VERTEX
  5
412
330
401
100
AcDbEntity
  8
Visible (ISO)
100
AcDbVertex
100
AcDb2dVertex
 10
79.76927926758765
 20
223.551675069412
 30
0.0
  0
VERTEX
  5
413
330
401
100
AcDbEntity
  8
Visible (ISO)
100
AcDbVertex
100
AcDb2dVertex
 10
79.80401164250848
 20
223.5437433660067
 30
0.0
  0
SEQEND
  5
404
330
401
100
AcDbEntity
  8
Visible (ISO)
  0
POLYLINE
  5
414
330
75
100
AcDbEntity
  8
Visible (ISO)
100
AcDb2dPolyline
 66
     1
 10
0.0
 20
0.0
 30
0.0
 70
   128
  0
VERTEX
  5
415
330
414
100
AcDbEntity
  8
Visible (ISO)
100
AcDbVertex
100
AcDb2dVertex
 10
79.80401164250848
 20
183.810952007116
 30
0.0
  0
VERTEX
  5
416
330
414
100
AcDbEntity
  8
Visible (ISO)
100
AcDbVertex
100
AcDb2dVertex
 10
79.76928011052463
 20
183.8188832251063
 30
0.0
  0
VERTEX
  5
418
330
414
100
AcDbEntity
  8
Visible (ISO)
100
AcDbVertex
100
AcDb2dVertex
 10
79.67186019900265
 20
183.8566379482846
 30
0.0
  0
VERTEX
  5
419
330
414
100
AcDbEntity
  8
Visible (ISO)
100
AcDbVertex
100
AcDb2dVertex
 10
79.52694921857858
 20
183.937015195191
 30
0.0
  0
VERTEX
  5
41A
330
414
100
AcDbEntity
  8
Visible (ISO)
100
AcDbVertex
100
AcDb2dVertex
 10
79.35101815765051
 20
184.0643061124157
 30
0.0
  0
VERTEX
  5
41B
330
414
100
AcDbEntity
  8
Visible (ISO)
100
AcDbVertex
100
AcDb2dVertex
 10
79.15916233148108
 20
184.2370673599819
 30
0.0
  0
VERTEX
  5
41C
330
414
100
AcDbEntity
  8
Visible (ISO)
100
AcDbVertex
100
AcDb2dVertex
 10
78.96419606789153
 20
184.450103500223
 30
0.0
  0
VERTEX
  5
41D
330
414
100
AcDbEntity
  8
Visible (ISO)
100
AcDbVertex
100
AcDb2dVertex
 10
78.77678757717697
 20
184.6959443821544
 30
0.0
  0
VERTEX
  5
41E
330
414
100
AcDbEntity
  8
Visible (ISO)
100
AcDbVertex
100
AcDb2dVertex
 10
78.6058795776544
 20
184.9656205294582
 30
0.0
  0
VERTEX
  5
41F
330
414
100
AcDbEntity
  8
Visible (ISO)
100
AcDbVertex
100
AcDb2dVertex
 10
78.45843641457181
 20
185.2488066879305
 30
0.0
  0
VERTEX
  5
420
330
414
100
AcDbEntity
  8
Visible (ISO)
100
AcDbVertex
100
AcDb2dVertex
 10
78.33983939754701
 20
185.5342773137502
 30
0.0
  0
VERTEX
  5
421
330
414
100
AcDbEntity
  8
Visible (ISO)
100
AcDbVertex
100
AcDb2dVertex
 10
78.25349230606578
 20
185.8098498214228
 30
0.0
  0
VERTEX
  5
422
330
414
100
AcDbEntity
  8
Visible (ISO)
100
AcDbVertex
100
AcDb2dVertex
 10
78.20033080016504
 20
186.0624947089281
 30
0.0
  0
VERTEX
  5
423
330
414
100
AcDbEntity
  8
Visible (ISO)
100
AcDbVertex
100
AcDb2dVertex
 10
78.17855773822431
 20
186.2785509463406
 30
0.0
  0
VERTEX
  5
424
330
414
100
AcDbEntity
  8
Visible (ISO)
100
AcDbVertex
100
AcDb2dVertex
 10
78.18177522863961
 20
186.4442222353381
 30
0.0
  0
VERTEX
  5
425
330
414
100
AcDbEntity
  8
Visible (ISO)
100
AcDbVertex
100
AcDb2dVertex
 10
78.19801019468598
 20
186.5474365390176
 30
0.0
  0
VERTEX
  5
426
330
414
100
AcDbEntity
  8
Visible (ISO)
100
AcDbVertex
100
AcDb2dVertex
 10
78.20858315310339
 20
186.5814582827503
 30
0.0
  0
SEQEND
  5
417
330
414
100
AcDbEntity
  8
Visible (ISO)
  0
POLYLINE
  5
427
330
75
100
AcDbEntity
  8
Visible (ISO)
100
AcDb2dPolyline
 66
     1
 10
0.0
 20
0.0
 30
0.0
 70
   128
  0
VERTEX
  5
428
330
427
100
AcDbEntity
  8
Visible (ISO)
100
AcDbVertex
100
AcDb2dVertex
 10
31.39316363601731
 20
253.2734567570992
 30
0.0
  0
VERTEX
  5
429
330
427
100
AcDbEntity
  8
Visible (ISO)
100
AcDbVertex
100
AcDb2dVertex
 10
31.38259152053688
 20
253.2394345279513
 30
0.0
  0
VERTEX
  5
42B
330
427
100
AcDbEntity
  8
Visible (ISO)
100
AcDbVertex
100
AcDb2dVertex
 10
31.36634643924687
 20
253.1362260567769
 30
0.0
  0
VERTEX
  5
42C
330
427
100
AcDbEntity
  8
Visible (ISO)
100
AcDbVertex
100
AcDb2dVertex
 10
31.3631281058946
 20
252.9705494131656
 30
0.0
  0
VERTEX
  5
42D
330
427
100
AcDbEntity
  8
Visible (ISO)
100
AcDbVertex
100
AcDb2dVertex
 10
31.38491802657474
 20
252.7544931832769
 30
0.0
  0
VERTEX
  5
42E
330
427
100
AcDbEntity
  8
Visible (ISO)
100
AcDbVertex
100
AcDb2dVertex
 10
31.43804160031181
 20
252.501840976926
 30
0.0
  0
VERTEX
  5
42F
330
427
100
AcDbEntity
  8
Visible (ISO)
100
AcDbVertex
100
AcDb2dVertex
 10
31.52444095388519
 20
252.2262811577604
 30
0.0
  0
VERTEX
  5
430
330
427
100
AcDbEntity
  8
Visible (ISO)
100
AcDbVertex
100
AcDb2dVertex
 10
31.64300003874633
 20
251.9407973580186
 30
0.0
  0
VERTEX
  5
431
330
427
100
AcDbEntity
  8
Visible (ISO)
100
AcDbVertex
100
AcDb2dVertex
 10
31.79046006056834
 20
251.6576170546227
 30
0.0
  0
VERTEX
  5
432
330
427
100
AcDbEntity
  8
Visible (ISO)
100
AcDbVertex
100
AcDb2dVertex
 10
31.96138407589334
 20
251.387951146179
 30
0.0
  0
VERTEX
  5
433
330
427
100
AcDbEntity
  8
Visible (ISO)
100
AcDbVertex
100
AcDb2dVertex
 10
32.14876222087697
 20
251.1420888232211
 30
0.0
  0
VERTEX
  5
434
330
427
100
AcDbEntity
  8
Visible (ISO)
100
AcDbVertex
100
AcDb2dVertex
 10
32.34376725956714
 20
250.9290867824184
 30
0.0
  0
VERTEX
  5
435
330
427
100
AcDbEntity
  8
Visible (ISO)
100
AcDbVertex
100
AcDb2dVertex
 10
32.5355944258796
 20
250.7562972829664
 30
0.0
  0
VERTEX
  5
436
330
427
100
AcDbEntity
  8
Visible (ISO)
100
AcDbVertex
100
AcDb2dVertex
 10
32.71153391617737
 20
250.6290209733379
 30
0.0
  0
VERTEX
  5
437
330
427
100
AcDbEntity
  8
Visible (ISO)
100
AcDbVertex
100
AcDb2dVertex
 10
32.85643815310566
 20
250.5486476172761
 30
0.0
  0
VERTEX
  5
438
330
427
100
AcDbEntity
  8
Visible (ISO)
100
AcDbVertex
100
AcDb2dVertex
 10
32.95385975050159
 20
250.5108821848701
 30
0.0
  0
VERTEX
  5
439
330
427
100
AcDbEntity
  8
Visible (ISO)
100
AcDbVertex
100
AcDb2dVertex
 10
32.98859381129635
 20
250.5029495106346
 30
0.0
  0
SEQEND
  5
42A
330
427
100
AcDbEntity
  8
Visible (ISO)
  0
POLYLINE
  5
43A
330
75
100
AcDbEntity
  8
Visible (ISO)
100
AcDb2dPolyline
 66
     1
 10
0.0
 20
0.0
 30
0.0
 70
   128
  0
VERTEX
  5
43B
330
43A
100
AcDbEntity
  8
Visible (ISO)
100
AcDbVertex
100
AcDb2dVertex
 10
32.98859381129635
 20
210.770158151744
 30
0.0
  0
VERTEX
  5
43C
330
43A
100
AcDbEntity
  8
Visible (ISO)
100
AcDbVertex
100
AcDb2dVertex
 10
32.95386312224947
 20
210.7780888843191
 30
0.0
  0
VERTEX
  5
43E
330
43A
100
AcDbEntity
  8
Visible (ISO)
100
AcDbVertex
100
AcDb2dVertex
 10
32.85644321072748
 20
210.8158436074973
 30
0.0
  0
VERTEX
  5
43F
330
43A
100
AcDbEntity
  8
Visible (ISO)
100
AcDbVertex
100
AcDb2dVertex
 10
32.71153054442949
 20
210.8962218252341
 30
0.0
  0
VERTEX
  5
440
330
43A
100
AcDbEntity
  8
Visible (ISO)
100
AcDbVertex
100
AcDb2dVertex
 10
32.53560116937535
 20
211.0235117716285
 30
0.0
  0
VERTEX
  5
441
330
43A
100
AcDbEntity
  8
Visible (ISO)
100
AcDbVertex
100
AcDb2dVertex
 10
32.34374365733199
 20
211.196273990025
 30
0.0
  0
VERTEX
  5
442
330
43A
100
AcDbEntity
  8
Visible (ISO)
100
AcDbVertex
100
AcDb2dVertex
 10
32.14877739374244
 20
211.4093101302661
 30
0.0
  0
VERTEX
  5
443
330
43A
100
AcDbEntity
  8
Visible (ISO)
100
AcDbVertex
100
AcDb2dVertex
 10
31.96137058890181
 20
211.6551500413672
 30
0.0
  0
VERTEX
  5
444
330
43A
100
AcDbEntity
  8
Visible (ISO)
100
AcDbVertex
100
AcDb2dVertex
 10
31.79046006056834
 20
211.9248276449164
 30
0.0
  0
VERTEX
  5
445
330
43A
100
AcDbEntity
  8
Visible (ISO)
100
AcDbVertex
100
AcDb2dVertex
 10
31.64301689748573
 20
212.2080138033887
 30
0.0
  0
VERTEX
  5
446
330
43A
100
AcDbEntity
  8
Visible (ISO)
100
AcDbVertex
100
AcDb2dVertex
 10
31.52442240927185
 20
212.493482972963
 30
0.0
  0
VERTEX
  5
447
330
43A
100
AcDbEntity
  8
Visible (ISO)
100
AcDbVertex
100
AcDb2dVertex
 10
31.43807531779061
 20
212.7690554806356
 30
0.0
  0
VERTEX
  5
448
330
43A
100
AcDbEntity
  8
Visible (ISO)
100
AcDbVertex
100
AcDb2dVertex
 10
31.38491128307898
 20
213.0217018243863
 30
0.0
  0
VERTEX
  5
449
330
43A
100
AcDbEntity
  8
Visible (ISO)
100
AcDbVertex
100
AcDb2dVertex
 10
31.36313822113824
 20
213.2377580617987
 30
0.0
  0
VERTEX
  5
44A
330
43A
100
AcDbEntity
  8
Visible (ISO)
100
AcDbVertex
100
AcDb2dVertex
 10
31.36635824036446
 20
213.403427894551
 30
0.0
  0
VERTEX
  5
44B
330
43A
100
AcDbEntity
  8
Visible (ISO)
100
AcDbVertex
100
AcDb2dVertex
 10
31.38259152053688
 20
213.5066431690606
 30
0.0
  0
VERTEX
  5
44C
330
43A
100
AcDbEntity
  8
Visible (ISO)
100
AcDbVertex
100
AcDb2dVertex
 10
31.39316363601731
 20
213.5406653982085
 30
0.0
  0
SEQEND
  5
43D
330
43A
100
AcDbEntity
  8
Visible (ISO)
  0
ELLIPSE
  5
44D
330
75
100
AcDbEntity
  8
Visible (ISO)
100
AcDbEllipse
 10
510.5299583151597
 20
195.2087563864014
 30
0.0
 11
-0.8234031491138145
 21
-1.429862669639797
 31
0.0
210
0.0
220
0.0
230
1.0
 40
0.578093115915639
 41
3.98003711955388
 42
5.444740841215089
  0
ELLIPSE
  5
44E
330
75
100
AcDbEntity
  8
Visible (ISO)
100
AcDbEllipse
 10
509.3006415224425
 20
195.9166728457051
 30
0.0
 11
0.8234031491139012
 21
1.429862669639749
 31
0.0
210
0.0
220
0.0
230
1.0
 40
0.578093115915639
 41
0.0
 42
6.283185307179586
  0
ELLIPSE
  5
44F
330
75
100
AcDbEntity
  8
Visible (ISO)
100
AcDbEllipse
 10
557.3453769771706
 20
261.9007532768019
 30
0.0
 11
-0.8234031491138244
 21
-1.429862669639814
 31
0.0
210
0.0
220
0.0
230
0.9999999999999998
 40
0.578093115915639
 41
3.98003711955388
 42
5.444740841215037
  0
ELLIPSE
  5
450
330
75
100
AcDbEntity
  8
Visible (ISO)
100
AcDbEllipse
 10
556.1160601844533
 20
262.6086697361056
 30
0.0
 11
0.8234031491139012
 21
1.429862669639749
 31
0.0
210
0.0
220
0.0
230
1.0
 40
0.578093115915639
 41
0.0
 42
6.283185307179586
  0
ELLIPSE
  5
451
330
75
100
AcDbEntity
  8
Visible (ISO)
100
AcDbEllipse
 10
510.5299583151597
 20
234.9415466537489
 30
0.0
 11
-0.8234031491138154
 21
-1.429862669639797
 31
0.0
210
0.0
220
0.0
230
1.0
 40
0.5780931159156392
 41
3.98003711955388
 42
5.444740841215037
  0
ELLIPSE
  5
452
330
75
100
AcDbEntity
  8
Visible (ISO)
100
AcDbEllipse
 10
509.3006415224425
 20
235.6494631130526
 30
0.0
 11
0.8234031491139012
 21
1.429862669639749
 31
0.0
210
0.0
220
0.0
230
1.0
 40
0.578093115915639
 41
0.0
 42
6.283185307179586
  0
ELLIPSE
  5
453
330
75
100
AcDbEntity
  8
Visible (ISO)
100
AcDbEllipse
 10
557.3453769771706
 20
222.1679630094544
 30
0.0
 11
-0.8234031491138244
 21
-1.429862669639814
 31
0.0
210
0.0
220
0.0
230
0.9999999999999998
 40
0.578093115915639
 41
3.98003711955388
 42
5.444740841215037
  0
ELLIPSE
  5
454
330
75
100
AcDbEntity
  8
Visible (ISO)
100
AcDbEllipse
 10
556.1160601844533
 20
222.8758794687582
 30
0.0
 11
0.8234031491139012
 21
1.429862669639749
 31
0.0
210
0.0
220
0.0
230
1.0
 40
0.578093115915639
 41
0.0
 42
6.283185307179586
  0
LINE
  5
455
330
75
100
AcDbEntity
  8
Visible (ISO)
100
AcDbLine
 10
532.7765866578423
 20
131.1015733179293
 30
0.0
 11
541.2618680320822
 21
126.215224752422
 31
0.0
  0
LINE
  5
456
330
75
100
AcDbEntity
  8
Visible (ISO)
100
AcDbLine
 10
532.7765866578423
 20
131.1015733179293
 30
0.0
 11
531.362373095469
 21
133.5510589951989
 31
0.0
  0
LINE
  5
457
330
75
100
AcDbEntity
  8
Visible (ISO)
100
AcDbLine
 10
531.362373095469
 20
140.5002095563605
 30
0.0
 11
531.362373095469
 21
133.5510589951989
 31
0.0
  0
LINE
  5
458
330
75
100
AcDbEntity
  8
Visible (ISO)
100
AcDbLine
 10
513.3311501752091
 20
150.8837002580637
 30
0.0
 11
531.362373095469
 21
140.5002095563605
 31
0.0
  0
LINE
  5
459
330
75
100
AcDbEntity
  8
Visible (ISO)
100
AcDbLine
 10
502.3709950668163
 20
148.6109890109971
 30
0.0
 11
510.8562764410561
 21
143.7246404454898
 31
0.0
  0
LINE
  5
45A
330
75
100
AcDbEntity
  8
Visible (ISO)
100
AcDbLine
 10
502.3709950668163
 20
148.6109890109971
 30
0.0
 11
500.956781504443
 21
151.0604746882666
 31
0.0
  0
LINE
  5
45B
330
75
100
AcDbEntity
  8
Visible (ISO)
100
AcDbLine
 10
500.956781504443
 20
161.6885873112197
 30
0.0
 11
500.956781504443
 21
151.0604746882666
 31
0.0
  0
LINE
  5
45C
330
75
100
AcDbEntity
  8
Visible (ISO)
100
AcDbLine
 10
498.4819077702897
 20
163.1137723094926
 30
0.0
 11
500.956781504443
 21
161.6885873112197
 31
0.0
  0
LINE
  5
45D
330
75
100
AcDbEntity
  8
Visible (ISO)
100
AcDbLine
 10
500.956781504443
 20
266.3346192910648
 30
0.0
 11
500.956781504443
 21
260.5928552336206
 31
0.0
  0
LINE
  5
45E
330
75
100
AcDbEntity
  8
Visible (ISO)
100
AcDbLine
 10
500.956781504443
 20
266.3346192910648
 30
0.0
 11
502.3709950668163
 21
267.1553221131654
 31
0.0
  0
ELLIPSE
  5
45F
330
75
100
AcDbEntity
  8
Visible (ISO)
100
AcDbEllipse
 10
537.0192273449622
 20
132.7461346593884
 30
0.0
 11
1.297483750119323
 21
-2.253116933977543
 31
0.0
210
0.0
220
0.0
230
0.9999999999999998
 40
0.5780931159158105
 41
0.4193421108859435
 42
2.722250542704692
  0
LINE
  5
460
330
75
100
AcDbEntity
  8
Visible (ISO)
100
AcDbLine
 10
506.9671891445293
 20
190.8720804389481
 30
0.0
 11
507.4975192304172
 21
190.5666836536051
 31
0.0
  0
LINE
  5
461
330
75
100
AcDbEntity
  8
Visible (ISO)
100
AcDbLine
 10
510.7419760224902
 20
188.6983252465492
 30
0.0
 11
511.0330531363485
 21
188.5307050846448
 31
0.0
  0
LINE
  5
462
330
75
100
AcDbEntity
  8
Visible (ISO)
100
AcDbLine
 10
535.2514603919953
 20
174.5842518872572
 30
0.0
 11
539.8476544697088
 21
171.9374797476072
 31
0.0
  0
LINE
  5
463
330
75
100
AcDbEntity
  8
Visible (ISO)
100
AcDbLine
 10
539.8476544697088
 20
171.9374797476072
 30
0.0
 11
539.8476544697088
 21
171.6874820642675
 31
0.0
  0
ELLIPSE
  5
464
330
75
100
AcDbEntity
  8
Visible (ISO)
100
AcDbEllipse
 10
537.0192273449622
 20
168.1459251650703
 30
0.0
 11
0.6736934856388794
 21
-1.16988763879603
 31
0.0
210
0.0
220
0.0
230
1.0
 40
0.5780931159158105
 41
0.9013402729253909
 42
2.240252380664756
  0
LINE
  5
465
330
75
100
AcDbEntity
  8
Visible (ISO)
100
AcDbLine
 10
523.0185130774666
 20
171.1396081241336
 30
0.0
 11
523.0185130774666
 21
168.7639879162032
 31
0.0
  0
LINE
  5
466
330
75
100
AcDbEntity
  8
Visible (ISO)
100
AcDbLine
 10
520.9679034120249
 20
172.3204756941314
 30
0.0
 11
523.0185130774666
 21
171.1396081241336
 31
0.0
  0
LINE
  5
467
330
75
100
AcDbEntity
  8
Visible (ISO)
100
AcDbLine
 10
523.0185130774666
 20
178.0578550056778
 30
0.0
 11
523.0185130774666
 21
173.9962895151955
 31
0.0
  0
ELLIPSE
  5
468
330
75
100
AcDbEntity
  8
Visible (ISO)
100
AcDbEllipse
 10
506.6136357539362
 20
150.2555503524561
 30
0.0
 11
1.297483750119321
 21
-2.253116933977537
 31
0.0
210
0.0
220
0.0
230
1.0
 40
0.5780931159158105
 41
0.4193421108859266
 42
2.722250542704694
  0
LINE
  5
469
330
75
100
AcDbEntity
  8
Visible (ISO)
100
AcDbLine
 10
532.4230332672486
 20
141.1110031270491
 30
0.0
 11
532.4230332672486
 21
134.1618525658875
 31
0.0
  0
LINE
  5
46A
330
75
100
AcDbEntity
  8
Visible (ISO)
100
AcDbLine
 10
532.4230332672486
 20
134.1618525658875
 30
0.0
 11
533.837246829622
 21
131.7123668886179
 31
0.0
  0
LINE
  5
46B
330
75
100
AcDbEntity
  8
Visible (ISO)
100
AcDbLine
 10
533.837246829622
 20
131.7123668886179
 30
0.0
 11
542.3225282038619
 21
126.8260183231106
 31
0.0
  0
LINE
  5
46C
330
75
100
AcDbEntity
  8
Visible (ISO)
100
AcDbLine
 10
542.3225282038619
 20
126.8260183231106
 30
0.0
 11
543.736741766235
 21
127.6467211452112
 31
0.0
  0
LINE
  5
46D
330
75
100
AcDbEntity
  8
Visible (ISO)
100
AcDbLine
 10
543.736741766235
 20
127.6467211452112
 30
0.0
 11
543.736741766235
 21
189.9886894197984
 31
0.0
  0
LINE
  5
46E
330
75
100
AcDbEntity
  8
Visible (ISO)
100
AcDbLine
 10
508.4225023830794
 20
264.8920779578749
 30
0.0
 11
503.4316552385959
 21
267.766115683854
 31
0.0
  0
LINE
  5
46F
330
75
100
AcDbEntity
  8
Visible (ISO)
100
AcDbLine
 10
503.4316552385959
 20
267.766115683854
 30
0.0
 11
502.0174416762227
 21
266.9454128617534
 31
0.0
  0
LINE
  5
470
330
75
100
AcDbEntity
  8
Visible (ISO)
100
AcDbLine
 10
502.0174416762227
 20
266.9454128617534
 30
0.0
 11
502.0174416762227
 21
261.2036488043092
 31
0.0
  0
LINE
  5
471
330
75
100
AcDbEntity
  8
Visible Narrow (ISO)
100
AcDbLine
 10
499.5425679420693
 20
163.7245658801812
 30
0.0
 11
499.5425679420693
 21
164.5389573077659
 31
0.0
  0
LINE
  5
472
330
75
100
AcDbEntity
  8
Visible (ISO)
100
AcDbLine
 10
499.5425679420693
 20
163.7245658801812
 30
0.0
 11
502.0174416762227
 21
162.2993808819083
 31
0.0
  0
LINE
  5
473
330
75
100
AcDbEntity
  8
Visible (ISO)
100
AcDbLine
 10
502.0174416762227
 20
162.2993808819083
 30
0.0
 11
502.0174416762227
 21
151.6712682589552
 31
0.0
  0
LINE
  5
474
330
75
100
AcDbEntity
  8
Visible (ISO)
100
AcDbLine
 10
502.0174416762227
 20
151.6712682589552
 30
0.0
 11
503.4316552385959
 21
149.2217825816857
 31
0.0
  0
LINE
  5
475
330
75
100
AcDbEntity
  8
Visible (ISO)
100
AcDbLine
 10
503.4316552385959
 20
149.2217825816857
 30
0.0
 11
511.9169366128358
 21
144.3354340161784
 31
0.0
  0
LINE
  5
476
330
75
100
AcDbEntity
  8
Visible (ISO)
100
AcDbLine
 10
511.9169366128358
 20
144.3354340161784
 30
0.0
 11
513.3311501752091
 21
145.1561368382789
 31
0.0
  0
LINE
  5
477
330
75
100
AcDbEntity
  8
Visible (ISO)
100
AcDbLine
 10
513.3311501752091
 20
145.1561368382789
 30
0.0
 11
513.3311501752091
 21
152.1052873994405
 31
0.0
  0
LINE
  5
478
330
75
100
AcDbEntity
  8
Visible (ISO)
100
AcDbLine
 10
513.3311501752091
 20
152.1052873994405
 30
0.0
 11
532.4230332672486
 21
141.1110031270491
 31
0.0
  0
ELLIPSE
  5
479
330
75
100
AcDbEntity
  8
Visible (ISO)
100
AcDbEllipse
 10
507.6742959257159
 20
150.8663439231447
 30
0.0
 11
1.297483750119319
 21
-2.253116933977536
 31
0.0
210
0.0
220
0.0
230
0.9999999999999998
 40
0.5780931159158105
 41
0.0
 42
6.283185307179586
  0
ELLIPSE
  5
47A
330
75
100
AcDbEntity
  8
Visible (ISO)
100
AcDbEllipse
 10
538.0798875167418
 20
133.3569282300769
 30
0.0
 11
1.297483750119319
 21
-2.253116933977536
 31
0.0
210
0.0
220
0.0
230
0.9999999999999998
 40
0.5780931159158105
 41
0.0
 42
6.283185307179586
  0
LINE
  5
47B
330
75
100
AcDbEntity
  8
Visible (ISO)
100
AcDbLine
 10
506.9671891445292
 20
190.6220827556084
 30
0.0
 11
506.9671891445293
 21
192.093667580325
 31
0.0
  0
LINE
  5
47C
330
75
100
AcDbEntity
  8
Visible (ISO)
100
AcDbLine
 10
506.9671891445293
 20
192.093667580325
 30
0.0
 11
507.4975192304172
 21
191.7882707949819
 31
0.0
  0
LINE
  5
47D
330
75
100
AcDbEntity
  8
Visible (ISO)
100
AcDbLine
 10
511.0330531363485
 20
188.2807074013051
 30
0.0
 11
510.6834225384329
 21
188.4820462721373
 31
0.0
  0
LINE
  5
47E
330
75
100
AcDbEntity
  8
Visible (ISO)
100
AcDbLine
 10
507.4975192304172
 20
190.3166859702653
 30
0.0
 11
506.9671891445292
 21
190.6220827556084
 31
0.0
  0
LINE
  5
47F
330
75
100
AcDbEntity
  8
Visible (ISO)
100
AcDbLine
 10
535.2514603919953
 20
174.3342542039174
 30
0.0
 11
535.2514603919953
 21
175.805839028634
 31
0.0
  0
LINE
  5
480
330
75
100
AcDbEntity
  8
Visible (ISO)
100
AcDbLine
 10
535.2514603919953
 20
175.805839028634
 30
0.0
 11
540.9083146414885
 21
172.5482733182958
 31
0.0
  0
LINE
  5
481
330
75
100
AcDbEntity
  8
Visible (ISO)
100
AcDbLine
 10
540.9083146414885
 20
172.5482733182958
 30
0.0
 11
540.9083146414885
 21
171.0766884935793
 31
0.0
  0
LINE
  5
482
330
75
100
AcDbEntity
  8
Visible (ISO)
100
AcDbLine
 10
540.9083146414885
 20
171.0766884935793
 30
0.0
 11
535.2514603919953
 21
174.3342542039174
 31
0.0
  0
ELLIPSE
  5
483
330
75
100
AcDbEntity
  8
Visible (ISO)
100
AcDbEllipse
 10
538.0798875167418
 20
168.7567187357589
 30
0.0
 11
0.6736934856388768
 21
-1.169887638796027
 31
0.0
210
0.0
220
0.0
230
0.9999999999999998
 40
0.5780931159158104
 41
0.0
 42
6.283185307179586
  0
LINE
  5
484
330
75
100
AcDbEntity
  8
Visible (ISO)
100
AcDbLine
 10
520.9679034120249
 20
169.944855486201
 30
0.0
 11
524.0791732492461
 21
168.153194345515
 31
0.0
  0
LINE
  5
485
330
75
100
AcDbEntity
  8
Visible (ISO)
100
AcDbLine
 10
520.9679034120249
 20
173.5420628355082
 30
0.0
 11
520.9679034120249
 21
169.944855486201
 31
0.0
  0
LINE
  5
486
330
75
100
AcDbEntity
  8
Visible (ISO)
100
AcDbLine
 10
524.0791732492461
 20
171.7504016948222
 30
0.0
 11
520.9679034120249
 21
173.5420628355082
 31
0.0
  0
LINE
  5
487
330
75
100
AcDbEntity
  8
Visible (ISO)
100
AcDbLine
 10
524.0791732492461
 20
168.153194345515
 30
0.0
 11
524.0791732492461
 21
171.7504016948222
 31
0.0
  0
LINE
  5
488
330
75
100
AcDbEntity
  8
Visible (ISO)
100
AcDbLine
 10
524.0791732492461
 20
173.3854959445073
 30
0.0
 11
524.0791732492461
 21
178.6686485763664
 31
0.0
  0
LINE
  5
489
330
75
100
AcDbEntity
  8
Visible (ISO)
100
AcDbLine
 10
520.9679034120249
 20
175.1771570851933
 30
0.0
 11
524.0791732492461
 21
173.3854959445073
 31
0.0
  0
LINE
  5
48A
330
75
100
AcDbEntity
  8
Visible (ISO)
100
AcDbLine
 10
520.9679034120249
 20
176.8769874356793
 30
0.0
 11
520.9679034120249
 21
175.1771570851933
 31
0.0
  0
LINE
  5
48B
330
75
100
AcDbEntity
  8
Visible (ISO)
100
AcDbLine
 10
556.4342582359863
 20
198.5222899937376
 30
0.0
 11
501.1335581997383
 21
166.6767348051758
 31
0.0
  0
LINE
  5
48C
330
75
100
AcDbEntity
  8
Visible Narrow (ISO)
100
AcDbLine
 10
501.1335581997383
 20
166.6767348051758
 30
0.0
 11
502.1942183715183
 21
166.0659412344874
 31
0.0
  0
LINE
  5
48D
330
75
100
AcDbEntity
  8
Visible (ISO)
100
AcDbLine
 10
557.4949184077663
 20
197.9114964230493
 30
0.0
 11
502.1942183715183
 21
166.0659412344874
 31
0.0
  0
LINE
  5
48E
330
75
100
AcDbEntity
  8
Visible (ISO)
100
AcDbLine
 10
556.4342582359863
 20
198.5222899937376
 30
0.0
 11
557.4949184077663
 21
197.9114964230493
 31
0.0
  0
ELLIPSE
  5
48F
330
75
100
AcDbEntity
  8
Visible (ISO)
100
AcDbEllipse
 10
558.2020251889531
 20
214.9503198601364
 30
0.0
 11
-0.4990322115844165
 21
0.8665834361451951
 31
0.0
210
0.0
220
0.0
230
1.0
 40
0.5780931159158104
 41
0.0019337084227971
 42
0.7873318718202431
  0
LINE
  5
490
330
75
100
AcDbEntity
  8
Visible (ISO)
100
AcDbLine
 10
560.15913197014
 20
217.2422631665759
 30
0.0
 11
557.702025188953
 21
215.8163438265448
 31
0.0
  0
ELLIPSE
  5
491
330
75
100
AcDbEntity
  8
Visible (ISO)
100
AcDbEllipse
 10
558.9091319701398
 20
219.4073230825968
 30
0.0
 11
1.247580528961004
 21
-2.166458590362925
 31
0.0
210
0.0
220
0.0
230
1.0
 40
0.5780931159158105
 41
0.001933708422861
 42
0.7873318718203573
  0
LINE
  5
492
330
75
100
AcDbEntity
  8
Visible (ISO)
100
AcDbLine
 10
560.6768989231064
 20
227.8612601892377
 30
0.0
 11
560.6768989231063
 21
218.3893337981161
 31
0.0
  0
LINE
  5
493
330
75
100
AcDbEntity
  8
Visible Narrow (ISO)
100
AcDbLine
 10
554.3129378924281
 20
215.9461595153616
 30
0.0
 11
559.6162387513264
 21
219.0001273688045
 31
0.0
  0
LINE
  5
494
330
75
100
AcDbEntity
  8
Visible (ISO)
100
AcDbLine
 10
559.6162387513264
 20
219.0001273688045
 30
0.0
 11
559.6162387513264
 21
228.4720537599261
 31
0.0
  0
LINE
  5
495
330
75
100
AcDbEntity
  8
Visible (ISO)
100
AcDbLine
 10
554.3129378924281
 20
225.4180859064831
 30
0.0
 11
559.6162387513264
 21
228.4720537599261
 31
0.0
  0
LINE
  5
496
330
75
100
AcDbEntity
  8
Visible (ISO)
100
AcDbLine
 10
554.3129378924281
 20
215.9461595153616
 30
0.0
 11
554.3129378924281
 21
225.4180859064831
 31
0.0
  0
ELLIPSE
  5
497
330
75
100
AcDbEntity
  8
Visible (ISO)
100
AcDbEllipse
 10
556.9645883218773
 20
222.3872446122074
 30
0.0
 11
-1.122822476064419
 21
-1.949812731326918
 31
0.0
210
0.0
220
0.0
230
1.0
 40
0.578093115915639
 41
0.0
 42
3.141592653589793
  0
LINE
  5
498
330
75
100
AcDbEntity
  8
Visible Narrow (ISO)
100
AcDbLine
 10
554.1058311112415
 20
215.4873312627455
 30
0.0
 11
559.4091319701398
 21
218.5412991161884
 31
0.0
  0
ELLIPSE
  5
499
330
75
100
AcDbEntity
  8
Visible (ISO)
100
AcDbEllipse
 10
558.9091319701398
 20
219.4073230825968
 30
0.0
 11
0.4990322115844036
 21
-0.8665834361451732
 31
0.0
210
0.0
220
0.0
230
1.0
 40
0.5780931159158104
 41
0.0019337084229657
 42
0.7873318718204171
  0
ELLIPSE
  5
49A
330
75
100
AcDbEntity
  8
Visible (ISO)
100
AcDbEllipse
 10
553.6058311112413
 20
216.3533552291538
 30
0.0
 11
0.4990322115844023
 21
-0.8665834361451711
 31
0.0
210
0.0
220
0.0
230
0.9999999999999998
 40
0.5780931159158104
 41
0.0019337084228592
 42
0.7873318718204172
  0
LINE
  5
49B
330
75
100
AcDbEntity
  8
Visible Narrow (ISO)
100
AcDbLine
 10
551.6487243300546
 20
214.0614119227143
 30
0.0
 11
556.9520251889529
 21
217.1153797761573
 31
0.0
  0
LINE
  5
49C
330
75
100
AcDbEntity
  8
Visible (ISO)
100
AcDbLine
 10
556.9520251889529
 20
217.1153797761573
 30
0.0
 11
559.4091319701398
 21
218.5412991161884
 31
0.0
  0
LINE
  5
49D
330
75
100
AcDbEntity
  8
Visible (ISO)
100
AcDbLine
 10
551.6487243300546
 20
214.0614119227143
 30
0.0
 11
554.1058311112415
 21
215.4873312627455
 31
0.0
  0
LINE
  5
49E
330
75
100
AcDbEntity
  8
Visible Narrow (ISO)
100
AcDbLine
 10
551.1309573770882
 20
212.9143412911742
 30
0.0
 11
556.4342582359865
 21
215.9683091446172
 31
0.0
  0
ELLIPSE
  5
49F
330
75
100
AcDbEntity
  8
Visible (ISO)
100
AcDbEllipse
 10
558.2020251889531
 20
214.9503198601364
 30
0.0
 11
-1.247580528961033
 21
2.166458590362975
 31
0.0
210
0.0
220
0.0
230
1.0
 40
0.5780931159158105
 41
0.0019337084228797
 42
0.7873318718203058
  0
ELLIPSE
  5
4A0
330
75
100
AcDbEntity
  8
Visible (ISO)
100
AcDbEllipse
 10
552.8987243300548
 20
211.8963520066935
 30
0.0
 11
-1.247580528961029
 21
2.166458590362967
 31
0.0
210
0.0
220
0.0
230
1.0
 40
0.5780931159158105
 41
0.0019337084228921
 42
0.7873318718203226
  0
LINE
  5
4A1
330
75
100
AcDbEntity
  8
Visible (ISO)
100
AcDbLine
 10
551.130957377088
 20
273.4057353617965
 30
0.0
 11
550.7774039864951
 21
273.2021375049005
 31
0.0
  0
LINE
  5
4A2
330
75
100
AcDbEntity
  8
Visible (ISO)
100
AcDbLine
 10
550.7774039864951
 20
273.2021375049005
 30
0.0
 11
550.7774039864951
 21
210.2871527023804
 31
0.0
  0
LINE
  5
4A3
330
75
100
AcDbEntity
  8
Visible (ISO)
100
AcDbLine
 10
557.4949184077663
 20
197.9114964230493
 30
0.0
 11
557.4949184077663
 21
215.3575155739287
 31
0.0
  0
LINE
  5
4A4
330
75
100
AcDbEntity
  8
Visible (ISO)
100
AcDbLine
 10
499.5425679420692
 20
164.5389573077659
 30
0.0
 11
502.1942183715183
 21
166.0659412344874
 31
0.0
  0
LINE
  5
4A5
330
75
100
AcDbEntity
  8
Visible (ISO)
100
AcDbLine
 10
557.4949184077663
 20
274.6469060540303
 30
0.0
 11
557.4949184077663
 21
291.9294157799414
 31
0.0
  0
LINE
  5
4A6
330
75
100
AcDbEntity
  8
Visible (ISO)
100
AcDbLine
 10
511.0330531363485
 20
250.3148880197711
 30
0.0
 11
510.6794997457556
 21
250.1112901628751
 31
0.0
  0
LINE
  5
4A7
330
75
100
AcDbEntity
  8
Visible (ISO)
100
AcDbLine
 10
510.6794997457556
 20
247.6876994309773
 30
0.0
 11
510.6794997457556
 21
250.1112901628751
 31
0.0
  0
LINE
  5
4A8
330
75
100
AcDbEntity
  8
Visible (ISO)
100
AcDbLine
 10
504.3155387150773
 20
246.4465287387433
 30
0.0
 11
503.9619853244844
 21
246.2429308818473
 31
0.0
  0
LINE
  5
4A9
330
75
100
AcDbEntity
  8
Visible (ISO)
100
AcDbLine
 10
503.9619853244844
 20
246.2429308818473
 30
0.0
 11
503.9619853244844
 21
226.6170663397398
 31
0.0
  0
LINE
  5
4AA
330
75
100
AcDbEntity
  8
Visible (ISO)
100
AcDbLine
 10
511.0330531363485
 20
207.0257677593586
 30
0.0
 11
503.9619853244844
 21
202.9538106214348
 31
0.0
  0
LINE
  5
4AB
330
75
100
AcDbEntity
  8
Visible (ISO)
100
AcDbLine
 10
503.9619853244844
 20
202.9538106214348
 30
0.0
 11
503.9619853244844
 21
183.3279460793272
 31
0.0
  0
LINE
  5
4AC
330
75
100
AcDbEntity
  8
Visible (ISO)
100
AcDbLine
 10
510.6794997457556
 20
188.3983089508757
 30
0.0
 11
510.6794997457556
 21
187.196305360355
 31
0.0
  0
ELLIPSE
  5
4AD
330
75
100
AcDbEntity
  8
Visible (ISO)
100
AcDbEllipse
 10
558.2020251889531
 20
274.239710340238
 30
0.0
 11
-0.499032211584407
 21
0.8665834361451787
 31
0.0
210
0.0
220
0.0
230
1.0
 40
0.5780931159158105
 41
0.7873318718203742
 42
1.572730035217854
  0
LINE
  5
4AE
330
75
100
AcDbEntity
  8
Visible (ISO)
100
AcDbLine
 10
560.15913197014
 20
269.6937213537509
 30
0.0
 11
557.702025188953
 21
273.9495480748149
 31
0.0
  0
ELLIPSE
  5
4AF
330
75
100
AcDbEntity
  8
Visible (ISO)
100
AcDbEllipse
 10
558.9091319701398
 20
268.9683156901931
 30
0.0
 11
-1.247580528961122
 21
2.166458590362831
 31
0.0
210
0.0
220
0.0
230
0.9999999999999998
 40
0.5780931159158104
 41
3.928924525409872
 42
4.71432268880748
  0
LINE
  5
4B0
330
75
100
AcDbEntity
  8
Visible (ISO)
100
AcDbLine
 10
560.6768989231064
 20
258.4784000145909
 30
0.0
 11
560.6768989231063
 21
267.9503264057124
 31
0.0
  0
LINE
  5
4B1
330
75
100
AcDbEntity
  8
Visible (ISO)
100
AcDbLine
 10
555.373598064208
 20
255.4244321611479
 30
0.0
 11
560.6768989231064
 21
258.4784000145909
 31
0.0
  0
LINE
  5
4B2
330
75
100
AcDbEntity
  8
Visible (ISO)
100
AcDbLine
 10
554.3129378924281
 20
256.0352257318363
 30
0.0
 11
559.6162387513264
 21
259.0891935852793
 31
0.0
  0
LINE
  5
4B3
330
75
100
AcDbEntity
  8
Visible (ISO)
100
AcDbLine
 10
559.6162387513264
 20
268.5611199764009
 30
0.0
 11
559.6162387513264
 21
259.0891935852793
 31
0.0
  0
LINE
  5
4B4
330
75
100
AcDbEntity
  8
Visible Narrow (ISO)
100
AcDbLine
 10
554.3129378924281
 20
265.5071521229579
 30
0.0
 11
559.6162387513264
 21
268.5611199764009
 31
0.0
  0
LINE
  5
4B5
330
75
100
AcDbEntity
  8
Visible (ISO)
100
AcDbLine
 10
554.3129378924281
 20
265.5071521229579
 30
0.0
 11
554.3129378924281
 21
256.0352257318363
 31
0.0
  0
ELLIPSE
  5
4B6
330
75
100
AcDbEntity
  8
Visible (ISO)
100
AcDbEllipse
 10
556.9645883218773
 20
262.1200348795549
 30
0.0
 11
1.122822476064394
 21
1.949812731326932
 31
0.0
210
0.0
220
0.0
230
1.0
 40
0.578093115915639
 41
3.141592638688638
 42
6.28318530717958
  0
ELLIPSE
  5
4B7
330
75
100
AcDbEntity
  8
Visible (ISO)
100
AcDbEllipse
 10
558.9091319701398
 20
268.9683156901931
 30
0.0
 11
0.499032211584396
 21
-0.8665834361451596
 31
0.0
210
0.0
220
0.0
230
1.0
 40
0.5780931159158104
 41
0.7873318718202862
 42
1.57273003521773
  0
LINE
  5
4B8
330
75
100
AcDbEntity
  8
Visible Narrow (ISO)
100
AcDbLine
 10
554.1058311112415
 20
266.2045101021733
 30
0.0
 11
559.4091319701398
 21
269.2584779556162
 31
0.0
  0
ELLIPSE
  5
4B9
330
75
100
AcDbEntity
  8
Visible (ISO)
100
AcDbEllipse
 10
553.6058311112413
 20
265.9143478367501
 30
0.0
 11
0.4990322115844005
 21
-0.8665834361451679
 31
0.0
210
0.0
220
0.0
230
1.0
 40
0.5780931159158104
 41
0.7873318718203297
 42
1.57273003521773
  0
LINE
  5
4BA
330
75
100
AcDbEntity
  8
Visible (ISO)
100
AcDbLine
 10
556.9520251889529
 20
273.5143046766802
 30
0.0
 11
559.4091319701398
 21
269.2584779556162
 31
0.0
  0
LINE
  5
4BB
330
75
100
AcDbEntity
  8
Visible Narrow (ISO)
100
AcDbLine
 10
551.6487243300546
 20
270.4603368232373
 30
0.0
 11
556.9520251889529
 21
273.5143046766802
 31
0.0
  0
LINE
  5
4BC
330
75
100
AcDbEntity
  8
Visible (ISO)
100
AcDbLine
 10
551.6487243300546
 20
270.4603368232373
 30
0.0
 11
554.1058311112415
 21
266.2045101021733
 31
0.0
  0
ELLIPSE
  5
4BD
330
75
100
AcDbEntity
  8
Visible (ISO)
100
AcDbEllipse
 10
558.2020251889531
 20
274.239710340238
 30
0.0
 11
1.247580528961156
 21
-2.166458590362889
 31
0.0
210
0.0
220
0.0
230
1.0
 40
0.5780931159158105
 41
3.928924525409927
 42
4.714322688807478
  0
LINE
  5
4BE
330
75
100
AcDbEntity
  8
Visible Narrow (ISO)
100
AcDbLine
 10
551.1309573770882
 20
272.2037317712757
 30
0.0
 11
556.4342582359865
 21
275.2576996247187
 31
0.0
  0
ELLIPSE
  5
4BF
330
75
100
AcDbEntity
  8
Visible (ISO)
100
AcDbEllipse
 10
552.8987243300547
 20
271.1857424867951
 30
0.0
 11
1.247580528961143
 21
-2.166458590362866
 31
0.0
210
0.0
220
0.0
230
0.9999999999999998
 40
0.5780931159158105
 41
3.928924525409943
 42
4.714322688807502
  0
LINE
  5
4C0
330
75
100
AcDbEntity
  8
Visible (ISO)
100
AcDbLine
 10
549.7167438147151
 20
273.8129310755888
 30
0.0
 11
549.7167438147151
 21
209.6763591316916
 31
0.0
  0
LINE
  5
4C1
330
75
100
AcDbEntity
  8
Visible (ISO)
100
AcDbLine
 10
551.130957377088
 20
274.6273225031737
 30
0.0
 11
549.7167438147151
 21
273.8129310755888
 31
0.0
  0
LINE
  5
4C2
330
75
100
AcDbEntity
  8
Visible (ISO)
100
AcDbLine
 10
551.130957377088
 20
274.6273225031737
 30
0.0
 11
551.1309573770882
 21
272.2037317712757
 31
0.0
  0
LINE
  5
4C3
330
75
100
AcDbEntity
  8
Visible (ISO)
100
AcDbLine
 10
556.4342582359865
 20
275.2576996247187
 30
0.0
 11
556.4342582359863
 21
292.5402093506298
 31
0.0
  0
LINE
  5
4C4
330
75
100
AcDbEntity
  8
Visible (ISO)
100
AcDbLine
 10
556.4342582359863
 20
292.5402093506298
 30
0.0
 11
501.1335581997384
 21
260.6946541620679
 31
0.0
  0
LINE
  5
4C5
330
75
100
AcDbEntity
  8
Visible (ISO)
100
AcDbLine
 10
498.4819077702892
 20
259.1676702353465
 30
0.0
 11
501.1335581997384
 21
260.6946541620679
 31
0.0
  0
LINE
  5
4C6
330
75
100
AcDbEntity
  8
Visible Narrow (ISO)
100
AcDbLine
 10
498.4819077702892
 20
165.1497508784543
 30
0.0
 11
498.4819077702892
 21
259.1676702353465
 31
0.0
  0
LINE
  5
4C7
330
75
100
AcDbEntity
  8
Visible (ISO)
100
AcDbLine
 10
498.4819077702892
 20
165.1497508784543
 30
0.0
 11
501.1335581997383
 21
166.6767348051758
 31
0.0
  0
LINE
  5
4C8
330
75
100
AcDbEntity
  8
Visible (ISO)
100
AcDbLine
 10
556.4342582359863
 20
198.5222899937376
 30
0.0
 11
556.4342582359865
 21
215.9683091446172
 31
0.0
  0
LINE
  5
4C9
330
75
100
AcDbEntity
  8
Visible (ISO)
100
AcDbLine
 10
551.130957377088
 20
210.4907505592764
 30
0.0
 11
551.1309573770882
 21
212.9143412911742
 31
0.0
  0
LINE
  5
4CA
330
75
100
AcDbEntity
  8
Visible (ISO)
100
AcDbLine
 10
549.7167438147151
 20
209.6763591316916
 30
0.0
 11
551.130957377088
 21
210.4907505592764
 31
0.0
  0
LINE
  5
4CB
330
75
100
AcDbEntity
  8
Visible (ISO)
100
AcDbLine
 10
502.9013251527045
 20
203.5646041921232
 30
0.0
 11
502.9013251527045
 21
182.7171525086384
 31
0.0
  0
LINE
  5
4CC
330
75
100
AcDbEntity
  8
Visible (ISO)
100
AcDbLine
 10
511.0330531363485
 20
208.2473549007358
 30
0.0
 11
502.9013251527045
 21
203.5646041921232
 31
0.0
  0
LINE
  5
4CD
330
75
100
AcDbEntity
  8
Visible (ISO)
100
AcDbLine
 10
511.0330531363485
 20
187.399903217251
 30
0.0
 11
511.0330531363485
 21
208.2473549007358
 31
0.0
  0
LINE
  5
4CE
330
75
100
AcDbEntity
  8
Visible (ISO)
100
AcDbLine
 10
509.6188395739757
 20
186.5855117896662
 30
0.0
 11
511.0330531363485
 21
187.399903217251
 31
0.0
  0
LINE
  5
4CF
330
75
100
AcDbEntity
  8
Visible (ISO)
100
AcDbLine
 10
509.6188395739757
 20
186.5855117896662
 30
0.0
 11
509.6188395739757
 21
189.0091025215641
 31
0.0
  0
LINE
  5
4D0
330
75
100
AcDbEntity
  8
Visible Narrow (ISO)
100
AcDbLine
 10
504.3155387150774
 20
185.9551346681211
 30
0.0
 11
509.6188395739757
 21
189.0091025215641
 31
0.0
  0
LINE
  5
4D1
330
75
100
AcDbEntity
  8
Visible (ISO)
100
AcDbLine
 10
504.3155387150773
 20
183.5315439362233
 30
0.0
 11
504.3155387150774
 21
185.9551346681211
 31
0.0
  0
LINE
  5
4D2
330
75
100
AcDbEntity
  8
Visible (ISO)
100
AcDbLine
 10
502.9013251527045
 20
182.7171525086384
 30
0.0
 11
504.3155387150773
 21
183.5315439362233
 31
0.0
  0
LINE
  5
4D3
330
75
100
AcDbEntity
  8
Visible (ISO)
100
AcDbLine
 10
502.9013251527045
 20
246.8537244525357
 30
0.0
 11
502.9013251527045
 21
226.006272769051
 31
0.0
  0
LINE
  5
4D4
330
75
100
AcDbEntity
  8
Visible (ISO)
100
AcDbLine
 10
504.3155387150773
 20
247.6681158801205
 30
0.0
 11
502.9013251527045
 21
246.8537244525357
 31
0.0
  0
LINE
  5
4D5
330
75
100
AcDbEntity
  8
Visible (ISO)
100
AcDbLine
 10
504.3155387150773
 20
247.6681158801205
 30
0.0
 11
504.3155387150774
 21
245.2445251482227
 31
0.0
  0
LINE
  5
4D6
330
75
100
AcDbEntity
  8
Visible Narrow (ISO)
100
AcDbLine
 10
504.3155387150774
 20
245.2445251482227
 30
0.0
 11
509.6188395739757
 21
248.2984930016656
 31
0.0
  0
LINE
  5
4D7
330
75
100
AcDbEntity
  8
Visible (ISO)
100
AcDbLine
 10
509.6188395739757
 20
250.7220837335635
 30
0.0
 11
509.6188395739757
 21
248.2984930016656
 31
0.0
  0
LINE
  5
4D8
330
75
100
AcDbEntity
  8
Visible (ISO)
100
AcDbLine
 10
511.0330531363485
 20
251.5364751611483
 30
0.0
 11
509.6188395739757
 21
250.7220837335635
 31
0.0
  0
LINE
  5
4D9
330
75
100
AcDbEntity
  8
Visible (ISO)
100
AcDbLine
 10
511.0330531363485
 20
230.6890234776635
 30
0.0
 11
511.0330531363485
 21
251.5364751611483
 31
0.0
  0
LINE
  5
4DA
330
75
100
AcDbEntity
  8
Visible (ISO)
100
AcDbLine
 10
502.9013251527045
 20
226.006272769051
 30
0.0
 11
511.0330531363485
 21
230.6890234776635
 31
0.0
  0
ELLIPSE
  5
4DB
330
75
100
AcDbEntity
  8
Visible (ISO)
100
AcDbEllipse
 10
500.2496747232558
 20
258.1496809508658
 30
0.0
 11
-2.49999999999997
 21
-0.0000000000000074
 31
0.0
210
0.0
220
0.0
230
1.0
 40
0.5758617009853121
 41
5.497787143782264
 42
6.283185307179546
  0
ELLIPSE
  5
4DC
330
75
100
AcDbEntity
  8
Visible (ISO)
100
AcDbEllipse
 10
510.1491696598664
 20
195.4280379891544
 30
0.0
 11
-1.122822476064416
 21
-1.94981273132692
 31
0.0
210
0.0
220
0.0
230
1.0
 40
0.5780931159156392
 41
0.0000000000000053
 42
1.372495425189961
  0
ELLIPSE
  5
4DD
330
75
100
AcDbEntity
  8
Visible (ISO)
100
AcDbEllipse
 10
509.3006415224425
 20
195.9166728457051
 30
0.0
 11
1.122822476064294
 21
1.949812731326997
 31
0.0
210
0.0
220
0.0
230
1.0
 40
0.5780931159156392
 41
0.0
 42
6.283185307179586
  0
ELLIPSE
  5
4DE
330
75
100
AcDbEntity
  8
Visible (ISO)
100
AcDbEllipse
 10
510.1491696598664
 20
235.1608282565019
 30
0.0
 11
-1.122822476064407
 21
-1.949812731326925
 31
0.0
210
0.0
220
0.0
230
1.0
 40
0.578093115915639
 41
0.0
 42
1.372495425189936
  0
ELLIPSE
  5
4DF
330
75
100
AcDbEntity
  8
Visible (ISO)
100
AcDbEllipse
 10
509.3006415224425
 20
235.6494631130526
 30
0.0
 11
1.12282247606441
 21
1.94981273132693
 31
0.0
210
0.0
220
0.0
230
1.0
 40
0.578093115915639
 41
0.0
 42
6.283185307179586
  0
LINE
  5
4E0
330
75
100
AcDbEntity
  8
Visible (ISO)
100
AcDbLine
 10
503.9619853244844
 20
202.9538106214348
 30
0.0
 11
502.9013251527045
 21
203.5646041921232
 31
0.0
  0
LINE
  5
4E1
330
75
100
AcDbEntity
  8
Visible (ISO)
100
AcDbLine
 10
507.4975192304172
 20
229.0760191087833
 30
0.0
 11
507.8647725130696
 21
228.8645320087427
 31
0.0
  0
LINE
  5
4E2
330
75
100
AcDbEntity
  8
Visible (ISO)
100
AcDbLine
 10
507.4975192304172
 20
238.5479454999048
 30
0.0
 11
507.4975192304172
 21
229.0760191087833
 31
0.0
  0
ELLIPSE
  5
4E3
330
75
100
AcDbEntity
  8
Visible (ISO)
100
AcDbEllipse
 10
506.7904124492306
 20
238.9551412136972
 30
0.0
 11
0.4990322115844023
 21
-0.8665834361451706
 31
0.0
210
0.0
220
0.0
230
1.0
 40
0.5780931159158105
 41
0.7873318718203297
 42
1.572730035217762
  0
LINE
  5
4E4
330
75
100
AcDbEntity
  8
Visible (ISO)
100
AcDbLine
 10
504.8333056680438
 20
243.5011302001842
 30
0.0
 11
507.2904124492307
 21
239.2453034791202
 31
0.0
  0
ELLIPSE
  5
4E5
330
75
100
AcDbEntity
  8
Visible (ISO)
100
AcDbEllipse
 10
506.0833056680439
 20
244.226535863742
 30
0.0
 11
1.247580528961151
 21
-2.166458590362881
 31
0.0
210
0.0
220
0.0
230
1.0
 40
0.5780931159158105
 41
3.928924525409909
 42
4.714322688807491
  0
ELLIPSE
  5
4E6
330
75
100
AcDbEntity
  8
Visible (ISO)
100
AcDbEllipse
 10
511.3866065269422
 20
187.9911132370834
 30
0.0
 11
-0.4990322115844147
 21
0.8665834361451921
 31
0.0
210
0.0
220
0.0
230
1.0
 40
0.5780931159158106
 41
0.0019337084227973
 42
0.7873318718202428
  0
LINE
  5
4E7
330
75
100
AcDbEntity
  8
Visible (ISO)
100
AcDbLine
 10
510.6794997457556
 20
250.1112901628751
 30
0.0
 11
509.6188395739757
 21
250.7220837335635
 31
0.0
  0
LINE
  5
4E8
330
75
100
AcDbEntity
  8
Visible (ISO)
100
AcDbLine
 10
503.9619853244844
 20
246.2429308818473
 30
0.0
 11
502.9013251527045
 21
246.8537244525357
 31
0.0
  0
ELLIPSE
  5
4E9
330
75
100
AcDbEntity
  8
Visible (ISO)
100
AcDbEllipse
 10
511.3866065269422
 20
247.280503717185
 30
0.0
 11
-0.499032211584418
 21
0.8665834361451977
 31
0.0
210
0.0
220
0.0
230
1.0
 40
0.5780931159158105
 41
0.787331871820423
 42
1.572730035217818
  0
ELLIPSE
  5
4EA
330
75
100
AcDbEntity
  8
Visible (ISO)
100
AcDbEllipse
 10
511.3866065269423
 20
247.280503717185
 30
0.0
 11
1.247580528961178
 21
-2.166458590362927
 31
0.0
210
0.0
220
0.0
230
1.0
 40
0.5780931159158105
 41
3.928924525409909
 42
4.714322688807478
  0
LINE
  5
4EB
330
75
100
AcDbEntity
  8
Visible (ISO)
100
AcDbLine
 10
510.1366065269421
 20
246.5550980536272
 30
0.0
 11
511.0330531363485
 21
245.0024095569245
 31
0.0
  0
LINE
  5
4EC
330
75
100
AcDbEntity
  8
Visible (ISO)
100
AcDbLine
 10
511.0330531363485
 20
246.7366889046716
 30
0.0
 11
510.8866065269422
 21
246.9903414517618
 31
0.0
  0
LINE
  5
4ED
330
75
100
AcDbEntity
  8
Visible (ISO)
100
AcDbLine
 10
511.0330531363485
 20
188.9421237633895
 30
0.0
 11
510.8866065269422
 21
188.8571372034917
 31
0.0
  0
LINE
  5
4EE
330
75
100
AcDbEntity
  8
Visible (ISO)
100
AcDbLine
 10
510.1366065269421
 20
190.1561731531042
 30
0.0
 11
511.0330531363485
 21
190.6764031111366
 31
0.0
  0
ELLIPSE
  5
4EF
330
75
100
AcDbEntity
  8
Visible (ISO)
100
AcDbEllipse
 10
511.3866065269422
 20
187.9911132370834
 30
0.0
 11
-1.247580528961027
 21
2.166458590362964
 31
0.0
210
0.0
220
0.0
230
1.0
 40
0.5780931159158104
 41
0.0019337084228797
 42
0.7873318718203226
  0
ELLIPSE
  5
4F0
330
75
100
AcDbEntity
  8
Visible (ISO)
100
AcDbEllipse
 10
506.083305668044
 20
184.9371453836403
 30
0.0
 11
-1.247580528961045
 21
2.166458590362995
 31
0.0
210
0.0
220
0.0
230
1.0
 40
0.5780931159158105
 41
0.0019337084228788
 42
0.7873318718203049
  0
LINE
  5
4F1
330
75
100
AcDbEntity
  8
Visible (ISO)
100
AcDbLine
 10
504.8333056680438
 20
187.1022052996613
 30
0.0
 11
507.2904124492307
 21
188.5281246396924
 31
0.0
  0
ELLIPSE
  5
4F2
330
75
100
AcDbEntity
  8
Visible (ISO)
100
AcDbEllipse
 10
506.7904124492306
 20
189.3941486061007
 30
0.0
 11
0.4990322115844023
 21
-0.8665834361451706
 31
0.0
210
0.0
220
0.0
230
1.0
 40
0.5780931159158105
 41
0.0019337084228592
 42
0.7873318718204603
  0
LINE
  5
4F3
330
75
100
AcDbEntity
  8
Visible (ISO)
100
AcDbLine
 10
507.4975192304172
 20
188.9869528923085
 30
0.0
 11
507.4975192304172
 21
198.45887928343
 31
0.0
  0
LINE
  5
4F4
330
75
100
AcDbEntity
  8
Visible Narrow (ISO)
100
AcDbLine
 10
504.8333056680438
 20
187.1022052996613
 30
0.0
 11
510.1366065269421
 21
190.1561731531042
 31
0.0
  0
LINE
  5
4F5
330
75
100
AcDbEntity
  8
Visible Narrow (ISO)
100
AcDbLine
 10
504.8333056680438
 20
243.5011302001842
 30
0.0
 11
510.1366065269421
 21
246.5550980536272
 31
0.0
  0
LINE
  5
4F6
330
75
100
AcDbEntity
  8
Visible Narrow (ISO)
100
AcDbLine
 10
507.2904124492307
 20
239.2453034791202
 30
0.0
 11
511.0330531363485
 21
241.4005469113813
 31
0.0
  0
LINE
  5
4F7
330
75
100
AcDbEntity
  8
Visible Narrow (ISO)
100
AcDbLine
 10
507.4975192304172
 20
238.5479454999048
 30
0.0
 11
511.0330531363485
 21
240.5839240688663
 31
0.0
  0
LINE
  5
4F8
330
75
100
AcDbEntity
  8
Visible (ISO)
100
AcDbLine
 10
507.4975192304172
 20
229.0760191087833
 30
0.0
 11
511.0330531363485
 21
231.1119976777447
 31
0.0
  0
LINE
  5
4F9
330
75
100
AcDbEntity
  8
Visible (ISO)
100
AcDbLine
 10
507.4975192304172
 20
198.45887928343
 30
0.0
 11
511.0330531363485
 21
200.4948578523915
 31
0.0
  0
LINE
  5
4FA
330
75
100
AcDbEntity
  8
Visible Narrow (ISO)
100
AcDbLine
 10
507.4975192304172
 20
188.9869528923085
 30
0.0
 11
511.0330531363485
 21
191.0229314612699
 31
0.0
  0
LINE
  5
4FB
330
75
100
AcDbEntity
  8
Visible Narrow (ISO)
100
AcDbLine
 10
507.2904124492307
 20
188.5281246396924
 30
0.0
 11
511.0330531363485
 21
190.6833680719535
 31
0.0
  0
LINE
  5
4FC
330
75
100
AcDbEntity
  8
Visible Narrow (ISO)
100
AcDbLine
 10
499.5425679420693
 20
163.7245658801812
 30
0.0
 11
498.4819077702897
 21
163.1137723094926
 31
0.0
  0
ELLIPSE
  5
4FD
330
75
100
AcDbEntity
  8
Visible (ISO)
100
AcDbEllipse
 10
500.2496747232558
 20
164.1317615939736
 30
0.0
 11
-1.000000000000001
 21
-0.0000000000000001
 31
0.0
210
0.0
220
0.0
230
1.0
 40
0.5758617009853121
 41
5.497787143782282
 42
7.068583470577171
  0
ELLIPSE
  5
4FE
330
75
100
AcDbEntity
  8
Visible (ISO)
100
AcDbEllipse
 10
500.2496747232558
 20
164.1317615939736
 30
0.0
 11
-2.499999999999999
 21
-0.0000000000000001
 31
0.0
210
0.0
220
0.0
230
1.0
 40
0.5758617009853121
 41
5.497787143782292
 42
7.068583470577179
  0
LINE
  5
4FF
330
75
100
AcDbEntity
  8
Visible (ISO)
100
AcDbLine
 10
524.0791732492461
 20
171.7504016948222
 30
0.0
 11
523.0185130774666
 21
171.1396081241336
 31
0.0
  0
LINE
  5
500
330
75
100
AcDbEntity
  8
Visible (ISO)
100
AcDbLine
 10
540.9083146414885
 20
172.5482733182958
 30
0.0
 11
539.8476544697088
 21
171.9374797476072
 31
0.0
  0
LINE
  5
501
330
75
100
AcDbEntity
  8
Visible (ISO)
100
AcDbLine
 10
541.2618680320822
 20
126.215224752422
 30
0.0
 11
542.3225282038619
 21
126.8260183231106
 31
0.0
  0
LINE
  5
502
330
75
100
AcDbEntity
  8
Visible (ISO)
100
AcDbLine
 10
502.3709950668163
 20
267.1553221131654
 30
0.0
 11
503.4316552385959
 21
267.766115683854
 31
0.0
  0
LINE
  5
503
330
75
100
AcDbEntity
  8
Visible (ISO)
100
AcDbLine
 10
502.0174416762227
 20
266.9454128617534
 30
0.0
 11
500.956781504443
 21
266.3346192910648
 31
0.0
  0
LINE
  5
504
330
75
100
AcDbEntity
  8
Visible (ISO)
100
AcDbLine
 10
502.0174416762227
 20
162.2993808819083
 30
0.0
 11
500.956781504443
 21
161.6885873112197
 31
0.0
  0
LINE
  5
505
330
75
100
AcDbEntity
  8
Visible (ISO)
100
AcDbLine
 10
500.956781504443
 20
151.0604746882666
 30
0.0
 11
502.0174416762227
 21
151.6712682589552
 31
0.0
  0
LINE
  5
506
330
75
100
AcDbEntity
  8
Visible (ISO)
100
AcDbLine
 10
503.4316552385959
 20
149.2217825816857
 30
0.0
 11
502.3709950668163
 21
148.6109890109971
 31
0.0
  0
LINE
  5
507
330
75
100
AcDbEntity
  8
Visible (ISO)
100
AcDbLine
 10
510.8562764410561
 20
143.7246404454898
 30
0.0
 11
511.9169366128358
 21
144.3354340161784
 31
0.0
  0
LINE
  5
508
330
75
100
AcDbEntity
  8
Visible (ISO)
100
AcDbLine
 10
532.4230332672486
 20
141.1110031270491
 30
0.0
 11
531.362373095469
 21
140.5002095563605
 31
0.0
  0
LINE
  5
509
330
75
100
AcDbEntity
  8
Visible (ISO)
100
AcDbLine
 10
531.362373095469
 20
133.5510589951989
 30
0.0
 11
532.4230332672486
 21
134.1618525658875
 31
0.0
  0
LINE
  5
50A
330
75
100
AcDbEntity
  8
Visible (ISO)
100
AcDbLine
 10
533.837246829622
 20
131.7123668886179
 30
0.0
 11
532.7765866578423
 21
131.1015733179293
 31
0.0
  0
LINE
  5
50B
330
75
100
AcDbEntity
  8
Visible (ISO)
100
AcDbLine
 10
557.4949184077663
 20
291.9294157799414
 30
0.0
 11
556.4342582359863
 21
292.5402093506298
 31
0.0
  0
LINE
  5
50C
330
75
100
AcDbEntity
  8
Visible (ISO)
100
AcDbLine
 10
559.6162387513264
 20
228.4720537599261
 30
0.0
 11
560.6768989231064
 21
227.8612601892377
 31
0.0
  0
LINE
  5
50D
330
75
100
AcDbEntity
  8
Visible (ISO)
100
AcDbLine
 10
550.7774039864951
 20
273.2021375049005
 30
0.0
 11
549.7167438147151
 21
273.8129310755888
 31
0.0
  0
LINE
  5
50E
330
75
100
AcDbEntity
  8
Visible (ISO)
100
AcDbLine
 10
554.3129378924281
 20
256.0352257318363
 30
0.0
 11
555.373598064208
 21
255.4244321611479
 31
0.0
  0
LINE
  5
50F
330
75
100
AcDbEntity
  8
Visible (ISO)
100
AcDbLine
 10
559.6162387513264
 20
259.0891935852793
 30
0.0
 11
560.6768989231064
 21
258.4784000145909
 31
0.0
  0
ELLIPSE
  5
510
330
75
100
AcDbEntity
  8
Visible (ISO)
100
AcDbEllipse
 10
556.1160601844533
 20
262.6086697361056
 30
0.0
 11
1.122822476064411
 21
1.949812731326932
 31
0.0
210
0.0
220
0.0
230
1.0
 40
0.5780931159156392
 41
0.0
 42
6.283185307179586
  0
ELLIPSE
  5
511
330
75
100
AcDbEntity
  8
Visible (ISO)
100
AcDbEllipse
 10
556.1160601844533
 20
222.8758794687582
 30
0.0
 11
1.122822476064295
 21
1.949812731326999
 31
0.0
210
0.0
220
0.0
230
1.0
 40
0.578093115915639
 41
0.0
 42
6.283185307179586
  0
LINE
  5
512
330
75
100
AcDbEntity
  8
Visible (ISO)
100
AcDbLine
 10
509.026347183802
 20
193.4782252578274
 30
0.0
 11
508.177819046378
 21
193.9668601143782
 31
0.0
  0
LINE
  5
513
330
75
100
AcDbEntity
  8
Visible (ISO)
100
AcDbLine
 10
511.0330531363485
 20
197.5154465392125
 30
0.0
 11
510.4234639985068
 21
197.866485577032
 31
0.0
  0
LINE
  5
514
330
75
100
AcDbEntity
  8
Visible (ISO)
100
AcDbLine
 10
509.026347183802
 20
233.2110155251749
 30
0.0
 11
508.177819046378
 21
233.6996503817257
 31
0.0
  0
LINE
  5
515
330
75
100
AcDbEntity
  8
Visible (ISO)
100
AcDbLine
 10
511.0330531363485
 20
237.24823680656
 30
0.0
 11
510.4234639985068
 21
237.5992758443795
 31
0.0
  0
POLYLINE
  5
516
330
75
100
AcDbEntity
  8
Visible (ISO)
100
AcDb2dPolyline
 66
     1
 10
0.0
 20
0.0
 30
0.0
 70
   128
  0
VERTEX
  5
517
330
516
100
AcDbEntity
  8
Visible (ISO)
100
AcDbVertex
100
AcDb2dVertex
 10
509.5839861533071
 20
234.5040631565478
 30
0.0
  0
VERTEX
  5
518
330
516
100
AcDbEntity
  8
Visible (ISO)
100
AcDbVertex
100
AcDb2dVertex
 10
509.6456507858949
 20
234.6971655298965
 30
0.0
  0
VERTEX
  5
51A
330
516
100
AcDbEntity
  8
Visible (ISO)
100
AcDbVertex
100
AcDb2dVertex
 10
509.7231010991239
 20
234.8956649113417
 30
0.0
  0
VERTEX
  5
51B
330
516
100
AcDbEntity
  8
Visible (ISO)
100
AcDbVertex
100
AcDb2dVertex
 10
509.8154119696695
 20
235.0953271842988
 30
0.0
  0
VERTEX
  5
51C
330
516
100
AcDbEntity
  8
Visible (ISO)
100
AcDbVertex
100
AcDb2dVertex
 10
509.9211322815373
 20
235.2921465350235
 30
0.0
  0
VERTEX
  5
51D
330
516
100
AcDbEntity
  8
Visible (ISO)
100
AcDbVertex
100
AcDb2dVertex
 10
510.0382840831265
 20
235.4823820016974
 30
0.0
  0
VERTEX
  5
51E
330
516
100
AcDbEntity
  8
Visible (ISO)
100
AcDbVertex
100
AcDb2dVertex
 10
510.1646736309725
 20
235.6624174831495
 30
0.0
  0
VERTEX
  5
51F
330
516
100
AcDbEntity
  8
Visible (ISO)
100
AcDbVertex
100
AcDb2dVertex
 10
510.2974446331515
 20
235.8290669253801
 30
0.0
  0
VERTEX
  5
520
330
516
100
AcDbEntity
  8
Visible (ISO)
100
AcDbVertex
100
AcDb2dVertex
 10
510.4335258488126
 20
235.9793124122198
 30
0.0
  0
SEQEND
  5
519
330
516
100
AcDbEntity
  8
Visible (ISO)
  0
POLYLINE
  5
521
330
75
100
AcDbEntity
  8
Visible (ISO)
100
AcDb2dPolyline
 66
     1
 10
0.0
 20
0.0
 30
0.0
 70
   128
  0
VERTEX
  5
522
330
521
100
AcDbEntity
  8
Visible (ISO)
100
AcDbVertex
100
AcDb2dVertex
 10
510.4335258488126
 20
196.2465210533292
 30
0.0
  0
VERTEX
  5
523
330
521
100
AcDbEntity
  8
Visible (ISO)
100
AcDbVertex
100
AcDb2dVertex
 10
510.2974614918909
 20
196.0962619221998
 30
0.0
  0
VERTEX
  5
525
330
521
100
AcDbEntity
  8
Visible (ISO)
100
AcDbVertex
100
AcDb2dVertex
 10
510.1646534004852
 20
195.9296417252566
 30
0.0
  0
VERTEX
  5
526
330
521
100
AcDbEntity
  8
Visible (ISO)
100
AcDbVertex
100
AcDb2dVertex
 10
510.0382979915866
 20
195.7495850304378
 30
0.0
  0
VERTEX
  5
527
330
521
100
AcDbEntity
  8
Visible (ISO)
100
AcDbVertex
100
AcDb2dVertex
 10
509.9211318600687
 20
195.5593549334253
 30
0.0
  0
VERTEX
  5
528
330
521
100
AcDbEntity
  8
Visible (ISO)
100
AcDbVertex
100
AcDb2dVertex
 10
509.8153980612095
 20
195.3625453361455
 30
0.0
  0
VERTEX
  5
529
330
521
100
AcDbEntity
  8
Visible (ISO)
100
AcDbVertex
100
AcDb2dVertex
 10
509.7231242798907
 20
195.1628635487747
 30
0.0
  0
VERTEX
  5
52A
330
521
100
AcDbEntity
  8
Visible (ISO)
100
AcDbVertex
100
AcDb2dVertex
 10
509.6456301339391
 20
194.964381732559
 30
0.0
  0
VERTEX
  5
52B
330
521
100
AcDbEntity
  8
Visible (ISO)
100
AcDbVertex
100
AcDb2dVertex
 10
509.5839861533071
 20
194.7712717976571
 30
0.0
  0
SEQEND
  5
524
330
521
100
AcDbEntity
  8
Visible (ISO)
  0
LINE
  5
52C
330
75
100
AcDbEntity
  8
Visible (ISO)
100
AcDbLine
 10
497.7496747232558
 20
258.1496809508658
 30
0.0
 11
497.7496747232558
 21
164.1317615939736
 31
0.0
  0
POLYLINE
  5
52D
330
75
100
AcDbEntity
  8
Visible (ISO)
100
AcDb2dPolyline
 66
     1
 10
0.0
 20
0.0
 30
0.0
 70
   128
  0
VERTEX
  5
52E
330
52D
100
AcDbEntity
  8
Visible (ISO)
100
AcDbVertex
100
AcDb2dVertex
 10
556.3994056703932
 20
261.463270272006
 30
0.0
  0
VERTEX
  5
52F
330
52D
100
AcDbEntity
  8
Visible (ISO)
100
AcDbVertex
100
AcDb2dVertex
 10
556.4610698815125
 20
261.6563724026471
 30
0.0
  0
VERTEX
  5
531
330
52D
100
AcDbEntity
  8
Visible (ISO)
100
AcDbVertex
100
AcDb2dVertex
 10
556.5385206162101
 20
261.8548720267998
 30
0.0
  0
VERTEX
  5
532
330
52D
100
AcDbEntity
  8
Visible (ISO)
100
AcDbVertex
100
AcDb2dVertex
 10
556.6308306438186
 20
262.0545338143418
 30
0.0
  0
VERTEX
  5
533
330
52D
100
AcDbEntity
  8
Visible (ISO)
100
AcDbVertex
100
AcDb2dVertex
 10
556.7365517986233
 20
262.2513536504817
 30
0.0
  0
VERTEX
  5
534
330
52D
100
AcDbEntity
  8
Visible (ISO)
100
AcDbVertex
100
AcDb2dVertex
 10
556.8537014928701
 20
262.4415879036178
 30
0.0
  0
VERTEX
  5
535
330
52D
100
AcDbEntity
  8
Visible (ISO)
100
AcDbVertex
100
AcDb2dVertex
 10
556.9800931480586
 20
262.6216245986077
 30
0.0
  0
VERTEX
  5
536
330
52D
100
AcDbEntity
  8
Visible (ISO)
100
AcDbVertex
100
AcDb2dVertex
 10
557.1128641502376
 20
262.7882740408382
 30
0.0
  0
VERTEX
  5
537
330
52D
100
AcDbEntity
  8
Visible (ISO)
100
AcDbVertex
100
AcDb2dVertex
 10
557.2489445229616
 20
262.9385190422629
 30
0.0
  0
SEQEND
  5
530
330
52D
100
AcDbEntity
  8
Visible (ISO)
  0
LINE
  5
538
330
75
100
AcDbEntity
  8
Visible (ISO)
100
AcDbLine
 10
555.8417658458129
 20
260.170222148228
 30
0.0
 11
554.9932377083889
 21
260.6588570047787
 31
0.0
  0
LINE
  5
539
330
75
100
AcDbEntity
  8
Visible (ISO)
100
AcDbLine
 10
558.0874107979416
 20
264.0698476108819
 30
0.0
 11
557.2388826605176
 21
264.5584824674326
 31
0.0
  0
POLYLINE
  5
53A
330
75
100
AcDbEntity
  8
Visible (ISO)
100
AcDb2dPolyline
 66
     1
 10
0.0
 20
0.0
 30
0.0
 70
   128
  0
VERTEX
  5
53B
330
53A
100
AcDbEntity
  8
Visible (ISO)
100
AcDbVertex
100
AcDb2dVertex
 10
557.2489445229616
 20
223.2057276833723
 30
0.0
  0
VERTEX
  5
53C
330
53A
100
AcDbEntity
  8
Visible (ISO)
100
AcDbVertex
100
AcDb2dVertex
 10
557.1128793231031
 20
223.0554680668277
 30
0.0
  0
VERTEX
  5
53E
330
53A
100
AcDbEntity
  8
Visible (ISO)
100
AcDbVertex
100
AcDb2dVertex
 10
556.9800712316974
 20
222.8888478698845
 30
0.0
  0
VERTEX
  5
53F
330
53A
100
AcDbEntity
  8
Visible (ISO)
100
AcDbVertex
100
AcDb2dVertex
 10
556.8537166657357
 20
222.7087916604809
 30
0.0
  0
VERTEX
  5
540
330
53A
100
AcDbEntity
  8
Visible (ISO)
100
AcDbVertex
100
AcDb2dVertex
 10
556.7365517986233
 20
222.5185622915911
 30
0.0
  0
VERTEX
  5
541
330
53A
100
AcDbEntity
  8
Visible (ISO)
100
AcDbVertex
100
AcDb2dVertex
 10
556.6308154709531
 20
222.3217512380659
 30
0.0
  0
VERTEX
  5
542
330
53A
100
AcDbEntity
  8
Visible (ISO)
100
AcDbVertex
100
AcDb2dVertex
 10
556.5385425325713
 20
222.1220699361102
 30
0.0
  0
VERTEX
  5
543
330
53A
100
AcDbEntity
  8
Visible (ISO)
100
AcDbVertex
100
AcDb2dVertex
 10
556.4610479651512
 20
221.9235878771869
 30
0.0
  0
VERTEX
  5
544
330
53A
100
AcDbEntity
  8
Visible (ISO)
100
AcDbVertex
100
AcDb2dVertex
 10
556.3994056703932
 20
221.7304789131154
 30
0.0
  0
SEQEND
  5
53D
330
53A
100
AcDbEntity
  8
Visible (ISO)
  0
LINE
  5
545
330
75
100
AcDbEntity
  8
Visible (ISO)
100
AcDbLine
 10
555.8417658458129
 20
220.4374318808805
 30
0.0
 11
554.9932377083889
 21
220.9260667374312
 31
0.0
  0
LINE
  5
546
330
75
100
AcDbEntity
  8
Visible (ISO)
100
AcDbLine
 10
558.0874107979416
 20
224.3370573435344
 30
0.0
 11
557.2388826605176
 21
224.8256922000851
 31
0.0
  0
ENDSEC
  0
SECTION
  2
OBJECTS
  0
DICTIONARY
  5
C
330
0
100
AcDbDictionary
281
     1
  3
ACAD_COLOR
350
6B
  3
ACAD_GROUP
350
D
  3
ACAD_LAYOUT
350
6A
  3
ACAD_MATERIAL
350
10
  3
ACAD_MLEADERSTYLE
350
6E
  3
ACAD_MLINESTYLE
350
67
  3
ACAD_PLOTSETTINGS
350
69
  3
ACAD_PLOTSTYLENAME
350
E
  3
ACAD_SCALELIST
350
3A
  3
ACAD_TABLESTYLE
350
6C
  3
ACAD_VISUALSTYLE
350
29
  3
ACDB_RECOMPOSE_DATA
350
551
  3
AcDbVariableDictionary
350
547
  0
DICTIONARY
  5
6B
102
{ACAD_REACTORS
330
C
102
}
330
C
100
AcDbDictionary
281
     1
  0
DICTIONARY
  5
D
102
{ACAD_REACTORS
330
C
102
}
330
C
100
AcDbDictionary
281
     1
  0
DICTIONARY
  5
6A
102
{ACAD_REACTORS
330
C
102
}
330
C
100
AcDbDictionary
281
     1
  3
Layout1
350
74
  3
Layout2
350
7C
  3
Model
350
78
  0
DICTIONARY
  5
10
102
{ACAD_REACTORS
330
C
102
}
330
C
100
AcDbDictionary
281
     1
  3
ByBlock
350
19
  3
ByLayer
350
11
  3
Global
350
21
  0
DICTIONARY
  5
6E
102
{ACAD_REACTORS
330
C
102
}
330
C
100
AcDbDictionary
281
     1
  3
Standard
350
6F
  0
DICTIONARY
  5
67
102
{ACAD_REACTORS
330
C
102
}
330
C
100
AcDbDictionary
281
     1
  3
Standard
350
68
  0
DICTIONARY
  5
69
102
{ACAD_REACTORS
330
C
102
}
330
C
100
AcDbDictionary
281
     1
  0
ACDBDICTIONARYWDFLT
  5
E
102
{ACAD_REACTORS
330
C
102
}
330
C
100
AcDbDictionary
281
     1
  3
Normal
350
F
100
AcDbDictionaryWithDefault
340
F
  0
DICTIONARY
  5
3A
102
{ACAD_REACTORS
330
C
102
}
330
C
100
AcDbDictionary
281
     1
  3
A0
350
3B
  3
A1
350
3C
  3
A2
350
3D
  3
A3
350
3E
  3
A4
350
3F
  3
A5
350
40
  3
A6
350
41
  3
A7
350
42
  3
A8
350
43
  3
A9
350
44
  3
B0
350
45
  3
B1
350
46
  3
B2
350
47
  3
B3
350
48
  3
B4
350
49
  3
B5
350
4A
  3
B6
350
4B
  3
B7
350
4C
  3
B8
350
4D
  3
B9
350
4E
  3
C0
350
4F
  3
C1
350
50
  3
C2
350
51
  3
C3
350
52
  3
C4
350
53
  3
C5
350
54
  3
C6
350
55
  3
C7
350
56
  3
C8
350
57
  3
C9
350
58
  3
D0
350
59
  3
D1
350
5A
  3
D2
350
5B
  0
DICTIONARY
  5
6C
102
{ACAD_REACTORS
330
C
102
}
330
C
100
AcDbDictionary
281
     1
  3
Standard
350
6D
  0
DICTIONARY
  5
29
102
{ACAD_REACTORS
330
C
102
}
330
C
100
AcDbDictionary
281
     1
  3
2dWireframe
350
2F
  3
3D Hidden
350
31
  3
3dWireframe
350
30
  3
Basic
350
2E
  3
Brighten
350
35
  3
ColorChange
350
39
  3
Conceptual
350
32
  3
Dim
350
34
  3
Facepattern
350
38
  3
Flat
350
2A
  3
FlatWithEdges
350
2B
  3
Gouraud
350
2C
  3
GouraudWithEdges
350
2D
  3
Linepattern
350
37
  3
Realistic
350
33
  3
Thicken
350
36
  0
XRECORD
  5
551
102
{ACAD_REACTORS
330
C
102
}
330
C
100
AcDbXrecord
280
     1
 90
        1
330
6D
  0
DICTIONARY
  5
547
102
{ACAD_REACTORS
330
C
102
}
330
C
100
AcDbDictionary
281
     1
  3
CANNOSCALE
350
54B
  3
CMLEADERSTYLE
350
549
  3
CTABLESTYLE
350
548
  3
LAYEREVAL
350
54D
  3
LAYERNOTIFY
350
54E
  3
LIGHTINGUNITS
350
54C
  3
MSLTSCALE
350
54A
  0
LAYOUT
  5
74
102
{ACAD_REACTORS
330
6A
102
}
330
6A
100
AcDbPlotSettings
  1

  2

  4

  6

 40
0.0
 41
0.0
 42
0.0
 43
0.0
 44
0.0
 45
0.0
 46
0.0
 47
0.0
 48
0.0
 49
0.0
140
0.0
141
0.0
142
1.0
143
1.0
 70
   688
 72
     0
 73
     0
 74
     5
  7

 75
    16
147
1.0
 76
     0
 77
     2
 78
   300
148
0.0
149
0.0
100
AcDbLayout
  1
Layout1
 70
     1
 71
     1
 10
0.0
 20
0.0
 11
12.0
 21
9.0
 12
0.0
 22
0.0
 32
0.0
 14
0.0
 24
0.0
 34
0.0
 15
0.0
 25
0.0
 35
0.0
146
0.0
 13
0.0
 23
0.0
 33
0.0
 16
1.0
 26
0.0
 36
0.0
 17
0.0
 27
1.0
 37
0.0
 76
     0
330
71
  0
LAYOUT
  5
7C
102
{ACAD_REACTORS
330
6A
102
}
330
6A
100
AcDbPlotSettings
  1

  2

  4

  6

 40
0.0
 41
0.0
 42
0.0
 43
0.0
 44
0.0
 45
0.0
 46
0.0
 47
0.0
 48
0.0
 49
0.0
140
0.0
141
0.0
142
1.0
143
1.0
 70
   688
 72
     0
 73
     0
 74
     5
  7

 75
    16
147
1.0
 76
     0
 77
     2
 78
   300
148
0.0
149
0.0
100
AcDbLayout
  1
Layout2
 70
     1
 71
     2
 10
0.0
 20
0.0
 11
12.0
 21
9.0
 12
0.0
 22
0.0
 32
0.0
 14
0.0
 24
0.0
 34
0.0
 15
0.0
 25
0.0
 35
0.0
146
0.0
 13
0.0
 23
0.0
 33
0.0
 16
1.0
 26
0.0
 36
0.0
 17
0.0
 27
1.0
 37
0.0
 76
     0
330
79
  0
LAYOUT
  5
78
102
{ACAD_REACTORS
330
6A
102
}
330
6A
100
AcDbPlotSettings
  1

  2

  4

  6

 40
0.0
 41
0.0
 42
0.0
 43
0.0
 44
0.0
 45
0.0
 46
0.0
 47
0.0
 48
0.0
 49
0.0
140
0.0
141
0.0
142
1.0
143
1.0
 70
  1712
 72
     0
 73
     0
 74
     0
  7

 75
     0
147
1.0
 76
     0
 77
     2
 78
   300
148
0.0
149
0.0
100
AcDbLayout
  1
Model
 70
     1
 71
     0
 10
0.0
 20
0.0
 11
12.0
 21
9.0
 12
0.0
 22
0.0
 32
0.0
 14
0.0
 24
0.0
 34
0.0
 15
0.0
 25
0.0
 35
0.0
146
0.0
 13
0.0
 23
0.0
 33
0.0
 16
1.0
 26
0.0
 36
0.0
 17
0.0
 27
1.0
 37
0.0
 76
     0
330
75
  0
MATERIAL
  5
19
102
{ACAD_XDICTIONARY
360
1A
102
}
102
{ACAD_REACTORS
330
10
102
}
330
10
100
AcDbMaterial
  1
ByBlock
 72
     0
 43
0.0208333333333333
 43
0.0
 43
0.0
 43
0.0
 43
0.0
 43
0.0208333333333333
 43
0.0
 43
0.0
 43
0.0
 43
0.0
 43
1.0
 43
0.0
 43
0.0
 43
0.0
 43
0.0
 43
1.0
 77
     0
 47
0.0208333333333333
 47
0.0
 47
0.0
 47
0.0
 47
0.0
 47
0.0208333333333333
 47
0.0
 47
0.0
 47
0.0
 47
0.0
 47
1.0
 47
0.0
 47
0.0
 47
0.0
 47
0.0
 47
1.0
171
     0
 49
0.0208333333333333
 49
0.0
 49
0.0
 49
0.0
 49
0.0
 49
0.0208333333333333
 49
0.0
 49
0.0
 49
0.0
 49
0.0
 49
1.0
 49
0.0
 49
0.0
 49
0.0
 49
0.0
 49
1.0
175
     0
142
0.0208333333333333
142
0.0
142
0.0
142
0.0
142
0.0
142
0.0208333333333333
142
0.0
142
0.0
142
0.0
142
0.0
142
1.0
142
0.0
142
0.0
142
0.0
142
0.0
142
1.0
179
     0
144
0.0208333333333333
144
0.0
144
0.0
144
0.0
144
0.0
144
0.0208333333333333
144
0.0
144
0.0
144
0.0
144
0.0
144
1.0
144
0.0
144
0.0
144
0.0
144
0.0
144
1.0
147
0.0208333333333333
147
0.0
147
0.0
147
0.0
147
0.0
147
0.0208333333333333
147
0.0
147
0.0
147
0.0
147
0.0
147
1.0
147
0.0
147
0.0
147
0.0
147
0.0
147
1.0
  0
MATERIAL
  5
11
102
{ACAD_XDICTIONARY
360
12
102
}
102
{ACAD_REACTORS
330
10
102
}
330
10
100
AcDbMaterial
  1
ByLayer
 72
     0
 43
0.0208333333333333
 43
0.0
 43
0.0
 43
0.0
 43
0.0
 43
0.0208333333333333
 43
0.0
 43
0.0
 43
0.0
 43
0.0
 43
1.0
 43
0.0
 43
0.0
 43
0.0
 43
0.0
 43
1.0
 77
     0
 47
0.0208333333333333
 47
0.0
 47
0.0
 47
0.0
 47
0.0
 47
0.0208333333333333
 47
0.0
 47
0.0
 47
0.0
 47
0.0
 47
1.0
 47
0.0
 47
0.0
 47
0.0
 47
0.0
 47
1.0
171
     0
 49
0.0208333333333333
 49
0.0
 49
0.0
 49
0.0
 49
0.0
 49
0.0208333333333333
 49
0.0
 49
0.0
 49
0.0
 49
0.0
 49
1.0
 49
0.0
 49
0.0
 49
0.0
 49
0.0
 49
1.0
175
     0
142
0.0208333333333333
142
0.0
142
0.0
142
0.0
142
0.0
142
0.0208333333333333
142
0.0
142
0.0
142
0.0
142
0.0
142
1.0
142
0.0
142
0.0
142
0.0
142
0.0
142
1.0
179
     0
144
0.0208333333333333
144
0.0
144
0.0
144
0.0
144
0.0
144
0.0208333333333333
144
0.0
144
0.0
144
0.0
144
0.0
144
1.0
144
0.0
144
0.0
144
0.0
144
0.0
144
1.0
147
0.0208333333333333
147
0.0
147
0.0
147
0.0
147
0.0
147
0.0208333333333333
147
0.0
147
0.0
147
0.0
147
0.0
147
1.0
147
0.0
147
0.0
147
0.0
147
0.0
147
1.0
  0
MATERIAL
  5
21
102
{ACAD_XDICTIONARY
360
22
102
}
102
{ACAD_REACTORS
330
10
102
}
330
10
100
AcDbMaterial
  1
Global
 72
     0
 43
0.0208333333333333
 43
0.0
 43
0.0
 43
0.0
 43
0.0
 43
0.0208333333333333
 43
0.0
 43
0.0
 43
0.0
 43
0.0
 43
1.0
 43
0.0
 43
0.0
 43
0.0
 43
0.0
 43
1.0
 77
     0
 47
0.0208333333333333
 47
0.0
 47
0.0
 47
0.0
 47
0.0
 47
0.0208333333333333
 47
0.0
 47
0.0
 47
0.0
 47
0.0
 47
1.0
 47
0.0
 47
0.0
 47
0.0
 47
0.0
 47
1.0
171
     0
 49
0.0208333333333333
 49
0.0
 49
0.0
 49
0.0
 49
0.0
 49
0.0208333333333333
 49
0.0
 49
0.0
 49
0.0
 49
0.0
 49
1.0
 49
0.0
 49
0.0
 49
0.0
 49
0.0
 49
1.0
175
     0
142
0.0208333333333333
142
0.0
142
0.0
142
0.0
142
0.0
142
0.0208333333333333
142
0.0
142
0.0
142
0.0
142
0.0
142
1.0
142
0.0
142
0.0
142
0.0
142
0.0
142
1.0
179
     0
144
0.0208333333333333
144
0.0
144
0.0
144
0.0
144
0.0
144
0.0208333333333333
144
0.0
144
0.0
144
0.0
144
0.0
144
1.0
144
0.0
144
0.0
144
0.0
144
0.0
144
1.0
147
0.0208333333333333
147
0.0
147
0.0
147
0.0
147
0.0
147
0.0208333333333333
147
0.0
147
0.0
147
0.0
147
0.0
147
1.0
147
0.0
147
0.0
147
0.0
147
0.0
147
1.0
  0
MLEADERSTYLE
  5
6F
102
{ACAD_REACTORS
330
6E
102
}
330
6E
100
AcDbMLeaderStyle
170
     2
171
     1
172
     0
 90
        2
 40
0.0
 41
0.0
173
     1
 91
-1056964608
340
63
 92
       -2
290
     1
 42
0.09
291
     1
 43
0.36
  3
Standard
 44
0.18
300

342
5D
174
     1
178
     6
175
     1
176
     0
 93
-1056964608
 45
0.18
292
     0
297
     0
 46
0.18
 94
-1056964608
 47
1.0
 49
1.0
140
1.0
293
     1
141
0.0
294
     1
177
     0
142
1.0
295
     0
296
     0
143
0.125
1001
ACAD_MLEADERVER
1070
     2
  0
MLINESTYLE
  5
68
102
{ACAD_REACTORS
330
67
102
}
330
67
100
AcDbMlineStyle
  2
STANDARD
 70
     0
  3

 62
   256
 51
90.0
 52
90.0
 71
     2
 49
0.5
 62
   256
  6
BYLAYER
 49
-0.5
 62
   256
  6
BYLAYER
  0
ACDBPLACEHOLDER
  5
F
102
{ACAD_REACTORS
330
E
102
}
330
E
  0
SCALE
  5
3B
102
{ACAD_REACTORS
330
3A
102
}
330
3A
100
AcDbScale
 70
     0
300
1:1
140
1.0
141
1.0
290
     1
  0
SCALE
  5
3C
102
{ACAD_REACTORS
330
3A
102
}
330
3A
100
AcDbScale
 70
     0
300
1:2
140
1.0
141
2.0
290
     0
  0
SCALE
  5
3D
102
{ACAD_REACTORS
330
3A
102
}
330
3A
100
AcDbScale
 70
     0
300
1:4
140
1.0
141
4.0
290
     0
  0
SCALE
  5
3E
102
{ACAD_REACTORS
330
3A
102
}
330
3A
100
AcDbScale
 70
     0
300
1:5
140
1.0
141
5.0
290
     0
  0
SCALE
  5
3F
102
{ACAD_REACTORS
330
3A
102
}
330
3A
100
AcDbScale
 70
     0
300
1:8
140
1.0
141
8.0
290
     0
  0
SCALE
  5
40
102
{ACAD_REACTORS
330
3A
102
}
330
3A
100
AcDbScale
 70
     0
300
1:10
140
1.0
141
10.0
290
     0
  0
SCALE
  5
41
102
{ACAD_REACTORS
330
3A
102
}
330
3A
100
AcDbScale
 70
     0
300
1:16
140
1.0
141
16.0
290
     0
  0
SCALE
  5
42
102
{ACAD_REACTORS
330
3A
102
}
330
3A
100
AcDbScale
 70
     0
300
1:20
140
1.0
141
20.0
290
     0
  0
SCALE
  5
43
102
{ACAD_REACTORS
330
3A
102
}
330
3A
100
AcDbScale
 70
     0
300
1:30
140
1.0
141
30.0
290
     0
  0
SCALE
  5
44
102
{ACAD_REACTORS
330
3A
102
}
330
3A
100
AcDbScale
 70
     0
300
1:40
140
1.0
141
40.0
290
     0
  0
SCALE
  5
45
102
{ACAD_REACTORS
330
3A
102
}
330
3A
100
AcDbScale
 70
     0
300
1:50
140
1.0
141
50.0
290
     0
  0
SCALE
  5
46
102
{ACAD_REACTORS
330
3A
102
}
330
3A
100
AcDbScale
 70
     0
300
1:100
140
1.0
141
100.0
290
     0
  0
SCALE
  5
47
102
{ACAD_REACTORS
330
3A
102
}
330
3A
100
AcDbScale
 70
     0
300
2:1
140
2.0
141
1.0
290
     0
  0
SCALE
  5
48
102
{ACAD_REACTORS
330
3A
102
}
330
3A
100
AcDbScale
 70
     0
300
4:1
140
4.0
141
1.0
290
     0
  0
SCALE
  5
49
102
{ACAD_REACTORS
330
3A
102
}
330
3A
100
AcDbScale
 70
     0
300
8:1
140
8.0
141
1.0
290
     0
  0
SCALE
  5
4A
102
{ACAD_REACTORS
330
3A
102
}
330
3A
100
AcDbScale
 70
     0
300
10:1
140
10.0
141
1.0
290
     0
  0
SCALE
  5
4B
102
{ACAD_REACTORS
330
3A
102
}
330
3A
100
AcDbScale
 70
     0
300
100:1
140
100.0
141
1.0
290
     0
  0
SCALE
  5
4C
102
{ACAD_REACTORS
330
3A
102
}
330
3A
100
AcDbScale
 70
     0
300
1/128" = 1'-0"
140
0.0078125
141
12.0
290
     0
  0
SCALE
  5
4D
102
{ACAD_REACTORS
330
3A
102
}
330
3A
100
AcDbScale
 70
     0
300
1/64" = 1'-0"
140
0.015625
141
12.0
290
     0
  0
SCALE
  5
4E
102
{ACAD_REACTORS
330
3A
102
}
330
3A
100
AcDbScale
 70
     0
300
1/32" = 1'-0"
140
0.03125
141
12.0
290
     0
  0
SCALE
  5
4F
102
{ACAD_REACTORS
330
3A
102
}
330
3A
100
AcDbScale
 70
     0
300
1/16" = 1'-0"
140
0.0625
141
12.0
290
     0
  0
SCALE
  5
50
102
{ACAD_REACTORS
330
3A
102
}
330
3A
100
AcDbScale
 70
     0
300
3/32" = 1'-0"
140
0.09375
141
12.0
290
     0
  0
SCALE
  5
51
102
{ACAD_REACTORS
330
3A
102
}
330
3A
100
AcDbScale
 70
     0
300
1/8" = 1'-0"
140
0.125
141
12.0
290
     0
  0
SCALE
  5
52
102
{ACAD_REACTORS
330
3A
102
}
330
3A
100
AcDbScale
 70
     0
300
3/16" = 1'-0"
140
0.1875
141
12.0
290
     0
  0
SCALE
  5
53
102
{ACAD_REACTORS
330
3A
102
}
330
3A
100
AcDbScale
 70
     0
300
1/4" = 1'-0"
140
0.25
141
12.0
290
     0
  0
SCALE
  5
54
102
{ACAD_REACTORS
330
3A
102
}
330
3A
100
AcDbScale
 70
     0
300
3/8" = 1'-0"
140
0.375
141
12.0
290
     0
  0
SCALE
  5
55
102
{ACAD_REACTORS
330
3A
102
}
330
3A
100
AcDbScale
 70
     0
300
1/2" = 1'-0"
140
0.5
141
12.0
290
     0
  0
SCALE
  5
56
102
{ACAD_REACTORS
330
3A
102
}
330
3A
100
AcDbScale
 70
     0
300
3/4" = 1'-0"
140
0.75
141
12.0
290
     0
  0
SCALE
  5
57
102
{ACAD_REACTORS
330
3A
102
}
330
3A
100
AcDbScale
 70
     0
300
1" = 1'-0"
140
1.0
141
12.0
290
     0
  0
SCALE
  5
58
102
{ACAD_REACTORS
330
3A
102
}
330
3A
100
AcDbScale
 70
     0
300
1-1/2" = 1'-0"
140
1.5
141
12.0
290
     0
  0
SCALE
  5
59
102
{ACAD_REACTORS
330
3A
102
}
330
3A
100
AcDbScale
 70
     0
300
3" = 1'-0"
140
3.0
141
12.0
290
     0
  0
SCALE
  5
5A
102
{ACAD_REACTORS
330
3A
102
}
330
3A
100
AcDbScale
 70
     0
300
6" = 1'-0"
140
6.0
141
12.0
290
     0
  0
SCALE
  5
5B
102
{ACAD_REACTORS
330
3A
102
}
330
3A
100
AcDbScale
 70
     0
300
1'-0" = 1'-0"
140
12.0
141
12.0
290
     0
  0
TABLESTYLE
  5
6D
102
{ACAD_XDICTIONARY
360
54F
102
}
102
{ACAD_REACTORS
330
6C
102
}
330
6C
100
AcDbTableStyle
  3
Standard
 70
     0
 71
     0
 40
0.06
 41
0.06
280
     0
281
     0
  7
Standard
140
0.18
170
     2
 62
     0
 63
     7
283
     0
274
    -2
284
     1
 64
     0
275
    -2
285
     1
 65
     0
276
    -2
286
     1
 66
     0
277
    -2
287
     1
 67
     0
278
    -2
288
     1
 68
     0
279
    -2
289
     1
 69
     0
  7
Standard
140
0.25
170
     5
 62
     0
 63
     7
283
     0
274
    -2
284
     1
 64
     0
275
    -2
285
     1
 65
     0
276
    -2
286
     1
 66
     0
277
    -2
287
     1
 67
     0
278
    -2
288
     1
 68
     0
279
    -2
289
     1
 69
     0
  7
Standard
140
0.18
170
     5
 62
     0
 63
     7
283
     0
274
    -2
284
     1
 64
     0
275
    -2
285
     1
 65
     0
276
    -2
286
     1
 66
     0
277
    -2
287
     1
 67
     0
278
    -2
288
     1
 68
     0
279
    -2
289
     1
 69
     0
  0
VISUALSTYLE
  5
2F
102
{ACAD_REACTORS
330
29
102
}
330
29
100
AcDbVisualStyle
  2
2dWireframe
 70
     4
 71
     0
 72
     2
 73
     0
 90
        0
 40
-0.6
 41
-30.0
 62
     5
 63
     7
421
 16777215
 74
     1
 91
        4
 64
     7
 65
   257
 75
     1
175
     1
 42
1.0
 92
        0
 66
   257
 43
1.0
 76
     1
 77
     6
 78
     2
 67
     7
 79
     5
170
     0
171
     0
290
     0
174
     0
 93
        1
 44
0.0
173
     0
291
     0
 45
0.0
1001
ACAD
1000
AcDbSavedByObjectVersion
1070
     0
  0
VISUALSTYLE
  5
31
102
{ACAD_REACTORS
330
29
102
}
330
29
100
AcDbVisualStyle
  2
3D Hidden
 70
     6
 71
     1
 72
     2
 73
     2
 90
        0
 40
-0.6
 41
-30.0
 62
     5
 63
     7
421
 16777215
 74
     2
 91
        2
 64
     7
 65
   257
 75
     2
175
     1
 42
40.0
 92
        0
 66
   257
 43
1.0
 76
     1
 77
     6
 78
     2
 67
     7
 79
     3
170
     0
171
     0
290
     0
174
     0
 93
        1
 44
0.0
173
     0
291
     0
 45
0.0
1001
ACAD
1000
AcDbSavedByObjectVersion
1070
     0
  0
VISUALSTYLE
  5
30
102
{ACAD_REACTORS
330
29
102
}
330
29
100
AcDbVisualStyle
  2
3dWireframe
 70
     5
 71
     0
 72
     2
 73
     0
 90
        0
 40
-0.6
 41
-30.0
 62
     5
 63
     7
421
 16777215
 74
     1
 91
        4
 64
     7
 65
   257
 75
     1
175
     1
 42
1.0
 92
        0
 66
   257
 43
1.0
 76
     1
 77
     6
 78
     2
 67
     7
 79
     5
170
     0
171
     0
290
     0
174
     0
 93
        1
 44
0.0
173
     0
291
     0
 45
0.0
1001
ACAD
1000
AcDbSavedByObjectVersion
1070
     0
  0
VISUALSTYLE
  5
2E
102
{ACAD_REACTORS
330
29
102
}
330
29
100
AcDbVisualStyle
  2
Basic
 70
     7
 71
     1
 72
     0
 73
     1
 90
        0
 40
-0.6
 41
-30.0
 62
     5
 63
     7
421
 16777215
 74
     0
 91
        4
 64
     7
 65
   257
 75
     1
175
     1
 42
1.0
 92
        8
 66
     7
 43
1.0
 76
     1
 77
     6
 78
     2
 67
     7
 79
     5
170
     0
171
     0
290
     0
174
     0
 93
        1
 44
0.0
173
     0
291
     1
 45
0.0
1001
ACAD
1000
AcDbSavedByObjectVersion
1070
     0
  0
VISUALSTYLE
  5
35
102
{ACAD_REACTORS
330
29
102
}
330
29
100
AcDbVisualStyle
  2
Brighten
 70
    12
 71
     2
 72
     2
 73
     0
 90
        0
 40
-0.6
 41
-30.0
 62
     5
 63
     7
421
 16777215
 74
     1
 91
        4
 64
     7
 65
   257
 75
     1
175
     1
 42
1.0
 92
        8
 66
     7
 43
1.0
 76
     1
 77
     6
 78
     2
 67
     7
 79
     5
170
     0
171
     0
290
     0
174
     0
 93
        1
 44
50.0
173
     0
291
     1
 45
0.0
1001
ACAD
1000
AcDbSavedByObjectVersion
1070
     0
  0
VISUALSTYLE
  5
39
102
{ACAD_REACTORS
330
29
102
}
330
29
100
AcDbVisualStyle
  2
ColorChange
 70
    16
 71
     2
 72
     2
 73
     3
 90
        0
 40
-0.6
 41
-30.0
 62
     5
 63
     8
421
  8421504
 74
     1
 91
        4
 64
     7
 65
   257
 75
     1
175
     1
 42
1.0
 92
        8
 66
     8
424
  8421504
 43
1.0
 76
     1
 77
     6
 78
     2
 67
     7
 79
     5
170
     0
171
     0
290
     0
174
     0
 93
        1
 44
0.0
173
     0
291
     1
 45
0.0
1001
ACAD
1000
AcDbSavedByObjectVersion
1070
     0
  0
VISUALSTYLE
  5
32
102
{ACAD_REACTORS
330
29
102
}
330
29
100
AcDbVisualStyle
  2
Conceptual
 70
     9
 71
     3
 72
     2
 73
     0
 90
        0
 40
-0.6
 41
-30.0
 62
     5
 63
     7
421
 16777215
 74
     2
 91
        2
 64
     7
 65
   257
 75
     1
175
     1
 42
40.0
 92
        8
 66
     7
 43
1.0
 76
     1
 77
     6
 78
     2
 67
     7
 79
     3
170
     0
171
     0
290
     0
174
     0
 93
        1
 44
0.0
173
     0
291
     0
 45
0.0
1001
ACAD
1000
AcDbSavedByObjectVersion
1070
     0
  0
VISUALSTYLE
  5
34
102
{ACAD_REACTORS
330
29
102
}
330
29
100
AcDbVisualStyle
  2
Dim
 70
    11
 71
     2
 72
     2
 73
     0
 90
        0
 40
-0.6
 41
-30.0
 62
     5
 63
     7
421
 16777215
 74
     1
 91
        4
 64
     7
 65
   257
 75
     1
175
     1
 42
1.0
 92
        8
 66
     7
 43
1.0
 76
     1
 77
     6
 78
     2
 67
     7
 79
     5
170
     0
171
     0
290
     0
174
     0
 93
        1
 44
-50.0
173
     0
291
     1
 45
0.0
1001
ACAD
1000
AcDbSavedByObjectVersion
1070
     0
  0
VISUALSTYLE
  5
38
102
{ACAD_REACTORS
330
29
102
}
330
29
100
AcDbVisualStyle
  2
Facepattern
 70
    15
 71
     2
 72
     2
 73
     0
 90
        0
 40
-0.6
 41
-30.0
 62
     5
 63
     7
421
 16777215
 74
     1
 91
        4
 64
     7
 65
   257
 75
     1
175
     1
 42
1.0
 92
        8
 66
     7
 43
1.0
 76
     1
 77
     6
 78
     2
 67
     7
 79
     5
170
     0
171
     0
290
     0
174
     0
 93
        1
 44
0.0
173
     0
291
     1
 45
0.0
1001
ACAD
1000
AcDbSavedByObjectVersion
1070
     0
  0
VISUALSTYLE
  5
2A
102
{ACAD_REACTORS
330
29
102
}
330
29
100
AcDbVisualStyle
  2
Flat
 70
     0
 71
     2
 72
     1
 73
     1
 90
        2
 40
-0.6
 41
30.0
 62
     5
 63
     7
421
 16777215
 74
     0
 91
        4
 64
     7
 65
   257
 75
     1
175
     1
 42
1.0
 92
        8
 66
     7
 43
1.0
 76
     1
 77
     6
 78
     2
 67
     7
 79
     5
170
     0
171
     0
290
     0
174
     0
 93
       13
 44
0.0
173
     0
291
     1
 45
0.0
1001
ACAD
1000
AcDbSavedByObjectVersion
1070
     0
  0
VISUALSTYLE
  5
2B
102
{ACAD_REACTORS
330
29
102
}
330
29
100
AcDbVisualStyle
  2
FlatWithEdges
 70
     1
 71
     2
 72
     1
 73
     1
 90
        2
 40
-0.6
 41
30.0
 62
     5
 63
     7
421
 16777215
 74
     1
 91
        4
 64
     7
 65
   257
 75
     1
175
     1
 42
1.0
 92
        0
 66
   257
 43
1.0
 76
     1
 77
     6
 78
     2
 67
     7
 79
     5
170
     0
171
     0
290
     0
174
     0
 93
       13
 44
0.0
173
     0
291
     1
 45
0.0
1001
ACAD
1000
AcDbSavedByObjectVersion
1070
     0
  0
VISUALSTYLE
  5
2C
102
{ACAD_REACTORS
330
29
102
}
330
29
100
AcDbVisualStyle
  2
Gouraud
 70
     2
 71
     2
 72
     2
 73
     1
 90
        2
 40
-0.6
 41
30.0
 62
     5
 63
     7
421
 16777215
 74
     0
 91
        4
 64
     7
 65
   257
 75
     1
175
     1
 42
1.0
 92
        0
 66
     7
 43
1.0
 76
     1
 77
     6
 78
     2
 67
     7
 79
     5
170
     0
171
     0
290
     0
174
     0
 93
       13
 44
0.0
173
     0
291
     1
 45
0.0
1001
ACAD
1000
AcDbSavedByObjectVersion
1070
     0
  0
VISUALSTYLE
  5
2D
102
{ACAD_REACTORS
330
29
102
}
330
29
100
AcDbVisualStyle
  2
GouraudWithEdges
 70
     3
 71
     2
 72
     2
 73
     1
 90
        2
 40
-0.6
 41
30.0
 62
     5
 63
     7
421
 16777215
 74
     1
 91
        4
 64
     7
 65
   257
 75
     1
175
     1
 42
1.0
 92
        0
 66
   257
 43
1.0
 76
     1
 77
     6
 78
     2
 67
     7
 79
     5
170
     0
171
     0
290
     0
174
     0
 93
       13
 44
0.0
173
     0
291
     1
 45
0.0
1001
ACAD
1000
AcDbSavedByObjectVersion
1070
     0
  0
VISUALSTYLE
  5
37
102
{ACAD_REACTORS
330
29
102
}
330
29
100
AcDbVisualStyle
  2
Linepattern
 70
    14
 71
     2
 72
     2
 73
     0
 90
        0
 40
-0.6
 41
-30.0
 62
     5
 63
     7
421
 16777215
 74
     1
 91
        4
 64
     7
 65
   257
 75
     7
175
     7
 42
1.0
 92
        8
 66
     7
 43
1.0
 76
     1
 77
     6
 78
     2
 67
     7
 79
     5
170
     0
171
     0
290
     0
174
     0
 93
        1
 44
0.0
173
     0
291
     1
 45
0.0
1001
ACAD
1000
AcDbSavedByObjectVersion
1070
     0
  0
VISUALSTYLE
  5
33
102
{ACAD_REACTORS
330
29
102
}
330
29
100
AcDbVisualStyle
  2
Realistic
 70
     8
 71
     2
 72
     2
 73
     0
 90
        0
 40
-0.6
 41
-30.0
 62
     5
 63
     7
421
 16777215
 74
     1
 91
        0
 64
     7
 65
   257
 75
     1
175
     1
 42
1.0
 92
        8
 66
     8
424
  7895160
 43
1.0
 76
     1
 77
     6
 78
     2
 67
     7
 79
     5
170
     0
171
     0
290
     0
174
     0
 93
       13
 44
0.0
173
     0
291
     0
 45
0.0
1001
ACAD
1000
AcDbSavedByObjectVersion
1070
     0
  0
VISUALSTYLE
  5
36
102
{ACAD_REACTORS
330
29
102
}
330
29
100
AcDbVisualStyle
  2
Thicken
 70
    13
 71
     2
 72
     2
 73
     0
 90
        0
 40
-0.6
 41
-30.0
 62
     5
 63
     7
421
 16777215
 74
     1
 91
        4
 64
     7
 65
   257
 75
     1
175
     1
 42
1.0
 92
       12
 66
     7
 43
1.0
 76
     1
 77
     6
 78
     2
 67
     7
 79
     5
170
     0
171
     0
290
     0
174
     0
 93
        1
 44
0.0
173
     0
291
     1
 45
0.0
1001
ACAD
1000
AcDbSavedByObjectVersion
1070
     0
  0
DICTIONARYVAR
  5
54B
102
{ACAD_REACTORS
330
547
102
}
330
547
100
DictionaryVariables
280
     0
  1
1:1
  0
DICTIONARYVAR
  5
549
102
{ACAD_REACTORS
330
547
102
}
330
547
100
DictionaryVariables
280
     0
  1
STANDARD
  0
DICTIONARYVAR
  5
548
102
{ACAD_REACTORS
330
547
102
}
330
547
100
DictionaryVariables
280
     0
  1
STANDARD
  0
DICTIONARYVAR
  5
54D
102
{ACAD_REACTORS
330
547
102
}
330
547
100
DictionaryVariables
280
     0
  1
0
  0
DICTIONARYVAR
  5
54E
102
{ACAD_REACTORS
330
547
102
}
330
547
100
DictionaryVariables
280
     0
  1
0
  0
DICTIONARYVAR
  5
54C
102
{ACAD_REACTORS
330
547
102
}
330
547
100
DictionaryVariables
280
     0
  1
2
  0
DICTIONARYVAR
  5
54A
102
{ACAD_REACTORS
330
547
102
}
330
547
100
DictionaryVariables
280
     0
  1
1
  0
DICTIONARY
  5
1A
330
19
100
AcDbDictionary
280
     1
281
     1
  3
ACAD_XREC_ROUNDTRIP
360
553
  3
BUMPTILE
360
1C
  3
DIFFUSETILE
360
1B
  3
OPACITYTILE
360
1F
  3
REFLECTIONTILE
360
1E
  3
REFRACTIONTILE
360
20
  3
SPECULARTILE
360
1D
  0
DICTIONARY
  5
12
330
11
100
AcDbDictionary
280
     1
281
     1
  3
ACAD_XREC_ROUNDTRIP
360
552
  3
BUMPTILE
360
14
  3
DIFFUSETILE
360
13
  3
OPACITYTILE
360
17
  3
REFLECTIONTILE
360
16
  3
REFRACTIONTILE
360
18
  3
SPECULARTILE
360
15
  0
DICTIONARY
  5
22
330
21
100
AcDbDictionary
280
     1
281
     1
  3
ACAD_XREC_ROUNDTRIP
360
554
  3
BUMPTILE
360
24
  3
DIFFUSETILE
360
23
  3
OPACITYTILE
360
27
  3
REFLECTIONTILE
360
26
  3
REFRACTIONTILE
360
28
  3
SPECULARTILE
360
25
  0
DICTIONARY
  5
54F
330
6D
100
AcDbDictionary
280
     1
281
     1
  3
ACAD_ROUNDTRIP_2008_TABLESTYLE_CELLSTYLEMAP
360
550
  3
ACAD_XREC_ROUNDTRIP
360
555
  0
XRECORD
  5
553
102
{ACAD_REACTORS
330
1A
102
}
330
1A
100
AcDbXrecord
280
     1
102
MATERIAL
148
0.0
149
0.0
149
0.0
 93
        0
 94
      127
282
     0
 72
     0
 77
     0
171
     0
175
     0
179
     0
273
     0
  0
XRECORD
  5
1C
102
{ACAD_REACTORS
330
1A
102
}
330
1A
100
AcDbXrecord
280
     1
270
     1
271
     1
  0
XRECORD
  5
1B
102
{ACAD_REACTORS
330
1A
102
}
330
1A
100
AcDbXrecord
280
     1
270
     1
271
     1
  0
XRECORD
  5
1F
102
{ACAD_REACTORS
330
1A
102
}
330
1A
100
AcDbXrecord
280
     1
270
     1
271
     1
  0
XRECORD
  5
1E
102
{ACAD_REACTORS
330
1A
102
}
330
1A
100
AcDbXrecord
280
     1
270
     1
271
     1
  0
XRECORD
  5
20
102
{ACAD_REACTORS
330
1A
102
}
330
1A
100
AcDbXrecord
280
     1
270
     1
271
     1
  0
XRECORD
  5
1D
102
{ACAD_REACTORS
330
1A
102
}
330
1A
100
AcDbXrecord
280
     1
270
     1
271
     1
  0
XRECORD
  5
552
102
{ACAD_REACTORS
330
12
102
}
330
12
100
AcDbXrecord
280
     1
102
MATERIAL
148
0.0
149
0.0
149
0.0
 93
        0
 94
      127
282
     0
 72
     0
 77
     0
171
     0
175
     0
179
     0
273
     0
  0
XRECORD
  5
14
102
{ACAD_REACTORS
330
12
102
}
330
12
100
AcDbXrecord
280
     1
270
     1
271
     1
  0
XRECORD
  5
13
102
{ACAD_REACTORS
330
12
102
}
330
12
100
AcDbXrecord
280
     1
270
     1
271
     1
  0
XRECORD
  5
17
102
{ACAD_REACTORS
330
12
102
}
330
12
100
AcDbXrecord
280
     1
270
     1
271
     1
  0
XRECORD
  5
16
102
{ACAD_REACTORS
330
12
102
}
330
12
100
AcDbXrecord
280
     1
270
     1
271
     1
  0
XRECORD
  5
18
102
{ACAD_REACTORS
330
12
102
}
330
12
100
AcDbXrecord
280
     1
270
     1
271
     1
  0
XRECORD
  5
15
102
{ACAD_REACTORS
330
12
102
}
330
12
100
AcDbXrecord
280
     1
270
     1
271
     1
  0
XRECORD
  5
554
102
{ACAD_REACTORS
330
22
102
}
330
22
100
AcDbXrecord
280
     1
102
MATERIAL
148
0.0
149
0.0
149
0.0
 93
        0
 94
      127
282
     0
 72
     0
 77
     0
171
     0
175
     0
179
     0
273
     0
  0
XRECORD
  5
24
102
{ACAD_REACTORS
330
22
102
}
330
22
100
AcDbXrecord
280
     1
270
     1
271
     1
  0
XRECORD
  5
23
102
{ACAD_REACTORS
330
22
102
}
330
22
100
AcDbXrecord
280
     1
270
     1
271
     1
  0
XRECORD
  5
27
102
{ACAD_REACTORS
330
22
102
}
330
22
100
AcDbXrecord
280
     1
270
     1
271
     1
  0
XRECORD
  5
26
102
{ACAD_REACTORS
330
22
102
}
330
22
100
AcDbXrecord
280
     1
270
     1
271
     1
  0
XRECORD
  5
28
102
{ACAD_REACTORS
330
22
102
}
330
22
100
AcDbXrecord
280
     1
270
     1
271
     1
  0
XRECORD
  5
25
102
{ACAD_REACTORS
330
22
102
}
330
22
100
AcDbXrecord
280
     1
270
     1
271
     1
  0
CELLSTYLEMAP
  5
550
102
{ACAD_REACTORS
330
54F
102
}
330
54F
100
AcDbCellStyleMap
 90
        3
300
CELLSTYLE
  1
TABLEFORMAT_BEGIN
 90
        5
170
     1
 91
        0
 92
    32768
 62
   257
 93
        1
300
CONTENTFORMAT
  1
CONTENTFORMAT_BEGIN
 90
        0
 91
        0
 92
      512
 93
        0
300

 40
0.0
140
1.0
 94
        5
 62
     0
340
5D
144
0.25
309
CONTENTFORMAT_END
171
     0
 94
        0
309
TABLEFORMAT_END
  1
CELLSTYLE_BEGIN
 90
        1
 91
        1
300
_TITLE
309
CELLSTYLE_END
300
CELLSTYLE
  1
TABLEFORMAT_BEGIN
 90
        5
170
     1
 91
        0
 92
        0
 62
   257
 93
        1
300
CONTENTFORMAT
  1
CONTENTFORMAT_BEGIN
 90
        0
 91
        0
 92
      512
 93
        0
300

 40
0.0
140
1.0
 94
        5
 62
     0
340
5D
144
0.18
309
CONTENTFORMAT_END
171
     0
 94
        0
309
TABLEFORMAT_END
  1
CELLSTYLE_BEGIN
 90
        2
 91
        1
300
_HEADER
309
CELLSTYLE_END
300
CELLSTYLE
  1
TABLEFORMAT_BEGIN
 90
        5
170
     1
 91
        0
 92
        0
 62
   257
 93
        1
300
CONTENTFORMAT
  1
CONTENTFORMAT_BEGIN
 90
        0
 91
        0
 92
      512
 93
        0
300

 40
0.0
140
1.0
 94
        2
 62
     0
340
5D
144
0.18
309
CONTENTFORMAT_END
171
     0
 94
        0
309
TABLEFORMAT_END
  1
CELLSTYLE_BEGIN
 90
        3
 91
        2
300
_DATA
309
CELLSTYLE_END
  0
XRECORD
  5
555
102
{ACAD_REACTORS
330
54F
102
}
330
54F
100
AcDbXrecord
280
     1
102
ACAD_ROUNDTRIP_PRE2007_TABLESTYLE
 90
      512
 91
        0
  1

 92
      512
 93
        0
  2

 94
      512
 95
        0
  3

  0
ENDSEC
  0
EOF
