  0
SECTION
  2
HEADER
  9
$ACADVER
  1
AC1018
  9
$ACADMAINTVER
 70
   104
  9
$DWGCODEPAGE
  3
ANSI_1252
  9
$AUTHOR
  1
hoerl
  9
$CUSTOMPROPERTYTAG
  1
Manager
  9
$CUSTOMPROPERTY
  1

  9
$CUSTOMPROPERTYTAG
  1
Company
  9
$CUSTOMPROPERTY
  1

  9
$CUSTOMPROPERTYTAG
  1
Category
  9
$CUSTOMPROPERTY
  1

  9
$CUSTOMPROPERTYTAG
  1
Part Number
  9
$CUSTOMPROPERTY
  1
EW-347.880.00
  9
$CUSTOMPROPERTYTAG
  1
Description
  9
$CUSTOMPROPERTY
  1

  9
$CUSTOMPROPERTYTAG
  1
Project
  9
$CUSTOMPROPERTY
  1

  9
$CUSTOMPROPERTYTAG
  1
Designer
  9
$CUSTOMPROPERTY
  1
hoerl
  9
$CUSTOMPROPERTYTAG
  1
Engineer
  9
$CUSTOMPROPERTY
  1

  9
$CUSTOMPROPERTYTAG
  1
Authority
  9
$CUSTOMPROPERTY
  1

  9
$CUSTOMPROPERTYTAG
  1
Cost Center
  9
$CUSTOMPROPERTY
  1

  9
$CUSTOMPROPERTYTAG
  1
Vendor
  9
$CUSTOMPROPERTY
  1

  9
$CUSTOMPROPERTYTAG
  1
User Status
  9
$CUSTOMPROPERTY
  1

  9
$CUSTOMPROPERTYTAG
  1
Design Status
  9
$CUSTOMPROPERTY
  1
WorkInProgress
  9
$CUSTOMPROPERTYTAG
  1
Checked by
  9
$CUSTOMPROPERTY
  1

  9
$CUSTOMPROPERTYTAG
  1
Engr Approved by
  9
$CUSTOMPROPERTY
  1

  9
$CUSTOMPROPERTYTAG
  1
Mfg Approved by
  9
$CUSTOMPROPERTY
  1

  9
$INSBASE
 10
0.0
 20
0.0
 30
0.0
  9
$EXTMIN
 10
0.0
 20
0.0
 30
0.0
  9
$EXTMAX
 10
594.0
 20
420.0
 30
0.0
  9
$LIMMIN
 10
0.0
 20
0.0
  9
$LIMMAX
 10
594.0
 20
420.0
  9
$ORTHOMODE
 70
     0
  9
$REGENMODE
 70
     1
  9
$FILLMODE
 70
     1
  9
$QTEXTMODE
 70
     0
  9
$MIRRTEXT
 70
     0
  9
$LTSCALE
 40
1.0
  9
$ATTMODE
 70
     1
  9
$TEXTSIZE
 40
0.2
  9
$TRACEWID
 40
0.05
  9
$TEXTSTYLE
  7
Standard
  9
$CLAYER
  8
0
  9
$CELTYPE
  6
ByLayer
  9
$CECOLOR
 62
   256
  9
$CELTSCALE
 40
1.0
  9
$DISPSILH
 70
     0
  9
$DIMSCALE
 40
1.0
  9
$DIMASZ
 40
1.799999999999999
  9
$DIMEXO
 40
0.0625
  9
$DIMDLI
 40
0.38
  9
$DIMRND
 40
0.0
  9
$DIMDLE
 40
0.0
  9
$DIMEXE
 40
0.18
  9
$DIMTP
 40
0.0
  9
$DIMTM
 40
0.0
  9
$DIMTXT
 40
0.3499999940395355
  9
$DIMCEN
 40
0.09
  9
$DIMTSZ
 40
0.0
  9
$DIMTOL
 70
     0
  9
$DIMLIM
 70
     0
  9
$DIMTIH
 70
     1
  9
$DIMTOH
 70
     1
  9
$DIMSE1
 70
     0
  9
$DIMSE2
 70
     0
  9
$DIMTAD
 70
     0
  9
$DIMZIN
 70
     0
  9
$DIMBLK
  1

  9
$DIMASO
 70
     1
  9
$DIMSHO
 70
     1
  9
$DIMPOST
  1

  9
$DIMAPOST
  1

  9
$DIMALT
 70
     0
  9
$DIMALTD
 70
     2
  9
$DIMALTF
 40
25.4
  9
$DIMLFAC
 40
1.0
  9
$DIMTOFL
 70
     0
  9
$DIMTVP
 40
0.0
  9
$DIMTIX
 70
     0
  9
$DIMSOXD
 70
     0
  9
$DIMSAH
 70
     0
  9
$DIMBLK1
  1

  9
$DIMBLK2
  1

  9
$DIMSTYLE
  2
Standard
  9
$DIMCLRD
 70
     0
  9
$DIMCLRE
 70
     0
  9
$DIMCLRT
 70
     0
  9
$DIMTFAC
 40
1.0
  9
$DIMGAP
 40
0.09
  9
$DIMJUST
 70
     0
  9
$DIMSD1
 70
     0
  9
$DIMSD2
 70
     0
  9
$DIMTOLJ
 70
     1
  9
$DIMTZIN
 70
     0
  9
$DIMALTZ
 70
     0
  9
$DIMALTTZ
 70
     0
  9
$DIMUPT
 70
     0
  9
$DIMDEC
 70
     4
  9
$DIMTDEC
 70
     4
  9
$DIMALTU
 70
     2
  9
$DIMALTTD
 70
     2
  9
$DIMTXSTY
  7
Standard
  9
$DIMAUNIT
 70
     0
  9
$DIMADEC
 70
     0
  9
$DIMALTRND
 40
0.0
  9
$DIMAZIN
 70
     0
  9
$DIMDSEP
 70
    46
  9
$DIMATFIT
 70
     3
  9
$DIMFRAC
 70
     0
  9
$DIMLDRBLK
  1

  9
$DIMLUNIT
 70
     2
  9
$DIMLWD
 70
    -2
  9
$DIMLWE
 70
    -2
  9
$DIMTMOVE
 70
     0
  9
$LUNITS
 70
     2
  9
$LUPREC
 70
     4
  9
$SKETCHINC
 40
0.1
  9
$FILLETRAD
 40
0.0
  9
$AUNITS
 70
     0
  9
$AUPREC
 70
     0
  9
$MENU
  1
.
  9
$ELEVATION
 40
0.0
  9
$PELEVATION
 40
0.0
  9
$THICKNESS
 40
0.0
  9
$LIMCHECK
 70
     0
  9
$CHAMFERA
 40
0.0
  9
$CHAMFERB
 40
0.0
  9
$CHAMFERC
 40
0.0
  9
$CHAMFERD
 40
0.0
  9
$SKPOLY
 70
     0
  9
$TDCREATE
 40
2455071.487852466
  9
$TDUCREATE
 40
2455071.404519132
  9
$TDUPDATE
 40
2455071.487852466
  9
$TDUUPDATE
 40
2455071.404519132
  9
$TDINDWG
 40
0.0000226042
  9
$TDUSRTIMER
 40
0.0000226042
  9
$USRTIMER
 70
     1
  9
$ANGBASE
 50
0.0
  9
$ANGDIR
 70
     0
  9
$PDMODE
 70
     0
  9
$PDSIZE
 40
0.0
  9
$PLINEWID
 40
0.0
  9
$SPLFRAME
 70
     0
  9
$SPLINETYPE
 70
     6
  9
$SPLINESEGS
 70
     8
  9
$HANDSEED
  5
569
  9
$SURFTAB1
 70
     6
  9
$SURFTAB2
 70
     6
  9
$SURFTYPE
 70
     6
  9
$SURFU
 70
     6
  9
$SURFV
 70
     6
  9
$UCSBASE
  2

  9
$UCSNAME
  2

  9
$UCSORG
 10
0.0
 20
0.0
 30
0.0
  9
$UCSXDIR
 10
1.0
 20
0.0
 30
0.0
  9
$UCSYDIR
 10
0.0
 20
1.0
 30
0.0
  9
$UCSORTHOREF
  2

  9
$UCSORTHOVIEW
 70
     0
  9
$UCSORGTOP
 10
0.0
 20
0.0
 30
0.0
  9
$UCSORGBOTTOM
 10
0.0
 20
0.0
 30
0.0
  9
$UCSORGLEFT
 10
0.0
 20
0.0
 30
0.0
  9
$UCSORGRIGHT
 10
0.0
 20
0.0
 30
0.0
  9
$UCSORGFRONT
 10
0.0
 20
0.0
 30
0.0
  9
$UCSORGBACK
 10
0.0
 20
0.0
 30
0.0
  9
$PUCSBASE
  2

  9
$PUCSNAME
  2

  9
$PUCSORG
 10
0.0
 20
0.0
 30
0.0
  9
$PUCSXDIR
 10
1.0
 20
0.0
 30
0.0
  9
$PUCSYDIR
 10
0.0
 20
1.0
 30
0.0
  9
$PUCSORTHOREF
  2

  9
$PUCSORTHOVIEW
 70
     0
  9
$PUCSORGTOP
 10
0.0
 20
0.0
 30
0.0
  9
$PUCSORGBOTTOM
 10
0.0
 20
0.0
 30
0.0
  9
$PUCSORGLEFT
 10
0.0
 20
0.0
 30
0.0
  9
$PUCSORGRIGHT
 10
0.0
 20
0.0
 30
0.0
  9
$PUCSORGFRONT
 10
0.0
 20
0.0
 30
0.0
  9
$PUCSORGBACK
 10
0.0
 20
0.0
 30
0.0
  9
$USERI1
 70
     0
  9
$USERI2
 70
     0
  9
$USERI3
 70
     0
  9
$USERI4
 70
     0
  9
$USERI5
 70
     0
  9
$USERR1
 40
0.0
  9
$USERR2
 40
0.0
  9
$USERR3
 40
0.0
  9
$USERR4
 40
0.0
  9
$USERR5
 40
0.0
  9
$WORLDVIEW
 70
     1
  9
$SHADEDGE
 70
     3
  9
$SHADEDIF
 70
    70
  9
$TILEMODE
 70
     1
  9
$MAXACTVP
 70
    64
  9
$PINSBASE
 10
0.0
 20
0.0
 30
0.0
  9
$PLIMCHECK
 70
     0
  9
$PEXTMIN
 10
0.0
 20
0.0
 30
0.0
  9
$PEXTMAX
 10
594.0
 20
420.0
 30
0.0
  9
$PLIMMIN
 10
0.0
 20
0.0
  9
$PLIMMAX
 10
594.0
 20
420.0
  9
$UNITMODE
 70
     0
  9
$VISRETAIN
 70
     1
  9
$PLINEGEN
 70
     0
  9
$PSLTSCALE
 70
     1
  9
$TREEDEPTH
 70
  3020
  9
$CMLSTYLE
  2
Standard
  9
$CMLJUST
 70
     0
  9
$CMLSCALE
 40
1.0
  9
$PROXYGRAPHICS
 70
     1
  9
$MEASUREMENT
 70
     1
  9
$CELWEIGHT
370
    -1
  9
$ENDCAPS
280
     0
  9
$JOINSTYLE
280
     0
  9
$LWDISPLAY
290
     0
  9
$INSUNITS
 70
     4
  9
$HYPERLINKBASE
  1

  9
$STYLESHEET
  1

  9
$XEDIT
290
     1
  9
$CEPSNTYPE
380
     0
  9
$PSTYLEMODE
290
     1
  9
$FINGERPRINTGUID
  2
{4D08F98A-5E94-4FC6-9D67-419AF459F20C}
  9
$VERSIONGUID
  2
{F640E920-B8A5-445D-98A6-4BB7B174729B}
  9
$EXTNAMES
290
     1
  9
$PSVPSCALE
 40
0.0
  9
$OLESTARTUP
290
     0
  9
$SORTENTS
280
   127
  9
$INDEXCTL
280
     0
  9
$HIDETEXT
280
     1
  9
$XCLIPFRAME
290
     0
  9
$HALOGAP
280
     0
  9
$OBSCOLOR
 70
   257
  9
$OBSLTYPE
280
     0
  9
$INTERSECTIONDISPLAY
280
     0
  9
$INTERSECTIONCOLOR
 70
   257
  9
$DIMASSOC
280
     1
  9
$PROJECTNAME
  1

  0
ENDSEC
  0
SECTION
  2
CLASSES
  0
CLASS
  1
ACDBDICTIONARYWDFLT
  2
AcDbDictionaryWithDefault
  3
ObjectDBX Classes
 90
        0
 91
        1
280
     0
281
     0
  0
CLASS
  1
MATERIAL
  2
AcDbMaterial
  3
ObjectDBX Classes
 90
     1153
 91
        3
280
     0
281
     0
  0
CLASS
  1
VISUALSTYLE
  2
AcDbVisualStyle
  3
ObjectDBX Classes
 90
     4095
 91
       16
280
     0
281
     0
  0
CLASS
  1
SCALE
  2
AcDbScale
  3
ObjectDBX Classes
 90
     1153
 91
       33
280
     0
281
     0
  0
CLASS
  1
TABLESTYLE
  2
AcDbTableStyle
  3
ObjectDBX Classes
 90
     4095
 91
        1
280
     0
281
     0
  0
CLASS
  1
MLEADERSTYLE
  2
AcDbMLeaderStyle
  3
ACDB_MLEADERSTYLE_CLASS
 90
     4095
 91
        1
280
     0
281
     0
  0
CLASS
  1
DICTIONARYVAR
  2
AcDbDictionaryVar
  3
ObjectDBX Classes
 90
        0
 91
        7
280
     0
281
     0
  0
CLASS
  1
CELLSTYLEMAP
  2
AcDbCellStyleMap
  3
ObjectDBX Classes
 90
     1152
 91
        1
280
     0
281
     0
  0
ENDSEC
  0
SECTION
  2
TABLES
  0
TABLE
  2
VPORT
  5
8
330
0
100
AcDbSymbolTable
 70
     1
  0
VPORT
  5
5F
330
8
100
AcDbSymbolTableRecord
100
AcDbViewportTableRecord
  2
*Active
 70
     0
 10
0.0
 20
0.0
 11
1.0
 21
1.0
 12
297.0
 22
210.0
 13
0.0
 23
0.0
 14
1.0
 24
1.0
 15
0.0
 25
0.0
 16
0.0
 26
0.0
 36
1.0
 17
0.0
 27
0.0
 37
0.0
 40
420.0
 41
1.414285714285714
 42
50.0
 43
0.0
 44
0.0
 50
0.0
 51
0.0
 71
     0
 72
   100
 73
     1
 74
     1
 75
     0
 76
     0
 77
     0
 78
     0
281
     0
 65
     1
110
0.0
120
0.0
130
0.0
111
1.0
121
0.0
131
0.0
112
0.0
122
1.0
132
0.0
 79
     0
146
0.0
  0
ENDTAB
  0
TABLE
  2
LTYPE
  5
5
330
0
100
AcDbSymbolTable
 70
    59
  0
LTYPE
  5
63
330
5
100
AcDbSymbolTableRecord
100
AcDbLinetypeTableRecord
  2
ByBlock
 70
     0
  3

 72
    65
 73
     0
 40
0.0
  0
LTYPE
  5
64
330
5
100
AcDbSymbolTableRecord
100
AcDbLinetypeTableRecord
  2
ByLayer
 70
     0
  3

 72
    65
 73
     0
 40
0.0
  0
LTYPE
  5
65
330
5
100
AcDbSymbolTableRecord
100
AcDbLinetypeTableRecord
  2
Continuous
 70
     0
  3
Solid line
 72
    65
 73
     0
 40
0.0
  0
LTYPE
  5
7D
330
5
100
AcDbSymbolTableRecord
100
AcDbLinetypeTableRecord
  2
Section_View_Lines
 70
     0
  3
Section View Lines
 72
    65
 73
     4
 40
0.8406
 49
0.6614
 74
     0
 49
-0.0827
 74
     0
 49
0.0138
 74
     0
 49
-0.0827
 74
     0
  0
LTYPE
  5
7E
330
5
100
AcDbSymbolTableRecord
100
AcDbLinetypeTableRecord
  2
CHAIN
 70
     0
  3
Chain ____ _ ____ _ ____ _ ____ _ ____ _ ____
 72
    65
 73
     4
 40
0.3543
 49
0.2362
 74
     0
 49
-0.0295
 74
     0
 49
0.0591
 74
     0
 49
-0.0295
 74
     0
  0
LTYPE
  5
7F
330
5
100
AcDbSymbolTableRecord
100
AcDbLinetypeTableRecord
  2
DASH_DOT
 70
     0
  3
Dash dot _._._._._._._._._._._._._._._.
 72
    65
 73
     4
 40
0.182
 49
0.1181
 74
     0
 49
-0.0295
 74
     0
 49
0.0049
 74
     0
 49
-0.0295
 74
     0
  0
LTYPE
  5
80
330
5
100
AcDbSymbolTableRecord
100
AcDbLinetypeTableRecord
  2
DASH_DOUBLE_DOT
 70
     0
  3
Dash Double Dot __ __ . __ __ . __ __ . __ _
 72
    65
 73
     6
 40
0.2164
 49
0.1181
 74
     0
 49
-0.0295
 74
     0
 49
0.0049
 74
     0
 49
-0.0295
 74
     0
 49
0.0049
 74
     0
 49
-0.0295
 74
     0
  0
LTYPE
  5
81
330
5
100
AcDbSymbolTableRecord
100
AcDbLinetypeTableRecord
  2
DASH_TRIPLE_DOT
 70
     0
  3
Dash Triple-Dot _ . . . _ . . . _ . . . _
 72
    65
 73
     8
 40
0.2508
 49
0.1181
 74
     0
 49
-0.0295
 74
     0
 49
0.0049
 74
     0
 49
-0.0295
 74
     0
 49
0.0049
 74
     0
 49
-0.0295
 74
     0
 49
0.0049
 74
     0
 49
-0.0295
 74
     0
  0
LTYPE
  5
82
330
5
100
AcDbSymbolTableRecord
100
AcDbLinetypeTableRecord
  2
DASHED
 70
     0
  3
Dashed __ __ __ __ __ __ __ __ __ __ __ __ __ _
 72
    65
 73
     2
 40
0.2068
 49
0.1655
 74
     0
 49
-0.0413
 74
     0
  0
LTYPE
  5
83
330
5
100
AcDbSymbolTableRecord
100
AcDbLinetypeTableRecord
  2
DASHED_SPACE
 70
     0
  3
Dashed Space __ __ __ __ __ __ __ __ __ __ __ _
 72
    65
 73
     2
 40
0.2067
 49
0.1654
 74
     0
 49
-0.0413
 74
     0
  0
LTYPE
  5
84
330
5
100
AcDbSymbolTableRecord
100
AcDbLinetypeTableRecord
  2
DOTTED
 70
     0
  3
Dotted . . . . . . . . . . . . . . . . . . . . 
 72
    65
 73
     2
 40
0.0481
 49
0.0068
 74
     0
 49
-0.0413
 74
     0
  0
LTYPE
  5
85
330
5
100
AcDbSymbolTableRecord
100
AcDbLinetypeTableRecord
  2
DOUBLE_DASH_CHAIN
 70
     0
  3
Double Dash Chain ___ _ _ ___ _ _ ___ _ _ ___ _
 72
    65
 73
     6
 40
1.240299999999999
 49
0.6614
 74
     0
 49
-0.0827
 74
     0
 49
0.1654
 74
     0
 49
-0.0827
 74
     0
 49
0.1654
 74
     0
 49
-0.0827
 74
     0
  0
LTYPE
  5
86
330
5
100
AcDbSymbolTableRecord
100
AcDbLinetypeTableRecord
  2
DOUBLE_DASH_DOT
 70
     0
  3
Double Dash Dot __ __ . __ __ . __ __ . __ _
 72
    65
 73
     6
 40
0.3296
 49
0.1181
 74
     0
 49
-0.0295
 74
     0
 49
0.1181
 74
     0
 49
-0.0295
 74
     0
 49
0.0049
 74
     0
 49
-0.0295
 74
     0
  0
LTYPE
  5
87
330
5
100
AcDbSymbolTableRecord
100
AcDbLinetypeTableRecord
  2
DOUBLE_DASH_DOUBLE_DOT
 70
     0
  3
Double Dash Double Dot _ _ . . _ _ . . _ _
 72
    65
 73
     8
 40
0.364
 49
0.1181
 74
     0
 49
-0.0295
 74
     0
 49
0.1181
 74
     0
 49
-0.0295
 74
     0
 49
0.0049
 74
     0
 49
-0.0295
 74
     0
 49
0.0049
 74
     0
 49
-0.0295
 74
     0
  0
LTYPE
  5
88
330
5
100
AcDbSymbolTableRecord
100
AcDbLinetypeTableRecord
  2
DOUBLE_DASH_TRIPLE_DOT
 70
     0
  3
Double Dash Triple Dot __ __ . . . __ __ . . .
 72
    65
 73
    10
 40
0.3984
 49
0.1181
 74
     0
 49
-0.0295
 74
     0
 49
0.1181
 74
     0
 49
-0.0295
 74
     0
 49
0.0049
 74
     0
 49
-0.0295
 74
     0
 49
0.0049
 74
     0
 49
-0.0295
 74
     0
 49
0.0049
 74
     0
 49
-0.0295
 74
     0
  0
LTYPE
  5
89
330
5
100
AcDbSymbolTableRecord
100
AcDbLinetypeTableRecord
  2
LONG_DASH_DOTTED
 70
     0
  3
Long Dash Dotted ____ . ____ . ____ . ____ . _
 72
    65
 73
     4
 40
0.3001
 49
0.2362
 74
     0
 49
-0.0295
 74
     0
 49
0.0049
 74
     0
 49
-0.0295
 74
     0
  0
LTYPE
  5
8A
330
5
100
AcDbSymbolTableRecord
100
AcDbLinetypeTableRecord
  2
LONG_DASH_DOUBLE_DOT
 70
     0
  3
Long Dash Double Dot ____ . . ____ . . ____ . .
 72
    65
 73
     6
 40
0.3345
 49
0.2362
 74
     0
 49
-0.0295
 74
     0
 49
0.0049
 74
     0
 49
-0.0295
 74
     0
 49
0.0049
 74
     0
 49
-0.0295
 74
     0
  0
LTYPE
  5
8B
330
5
100
AcDbSymbolTableRecord
100
AcDbLinetypeTableRecord
  2
LONG_DASH_TRIPLE_DOT
 70
     0
  3
Long Dash Triple Dot ____ ... ____ ... ____
 72
    65
 73
     8
 40
0.3689
 49
0.2362
 74
     0
 49
-0.0295
 74
     0
 49
0.0049
 74
     0
 49
-0.0295
 74
     0
 49
0.0049
 74
     0
 49
-0.0295
 74
     0
 49
0.0049
 74
     0
 49
-0.0295
 74
     0
  0
LTYPE
  5
8C
330
5
100
AcDbSymbolTableRecord
100
AcDbLinetypeTableRecord
  2
BORDER
 70
     0
  3
Border __ __ . __ __ . __ __ . __ __ . __ __ .
 72
    65
 73
     6
 40
44.45
 49
12.7
 74
     0
 49
-6.349999999999999
 74
     0
 49
12.7
 74
     0
 49
-6.349999999999999
 74
     0
 49
0.0
 74
     0
 49
-6.349999999999999
 74
     0
  0
LTYPE
  5
8D
330
5
100
AcDbSymbolTableRecord
100
AcDbLinetypeTableRecord
  2
BORDER2
 70
     0
  3
Border (.5x) __.__.__.__.__.__.__.__.__.__.__.
 72
    65
 73
     6
 40
22.225
 49
6.349999999999999
 74
     0
 49
-3.174999999999999
 74
     0
 49
6.349999999999999
 74
     0
 49
-3.174999999999999
 74
     0
 49
0.0
 74
     0
 49
-3.174999999999999
 74
     0
  0
LTYPE
  5
8E
330
5
100
AcDbSymbolTableRecord
100
AcDbLinetypeTableRecord
  2
BORDERX2
 70
     0
  3
Border (2x) ____  ____  .  ____  ____  .  ___
 72
    65
 73
     6
 40
88.9
 49
25.4
 74
     0
 49
-12.7
 74
     0
 49
25.4
 74
     0
 49
-12.7
 74
     0
 49
0.0
 74
     0
 49
-12.7
 74
     0
  0
LTYPE
  5
8F
330
5
100
AcDbSymbolTableRecord
100
AcDbLinetypeTableRecord
  2
CENTER
 70
     0
  3
Center ____ _ ____ _ ____ _ ____ _ ____ _ ____
 72
    65
 73
     4
 40
50.8
 49
31.75
 74
     0
 49
-6.349999999999999
 74
     0
 49
6.349999999999999
 74
     0
 49
-6.349999999999999
 74
     0
  0
LTYPE
  5
90
330
5
100
AcDbSymbolTableRecord
100
AcDbLinetypeTableRecord
  2
CENTER2
 70
     0
  3
Center (.5x) ___ _ ___ _ ___ _ ___ _ ___ _ ___
 72
    65
 73
     4
 40
28.575
 49
19.05
 74
     0
 49
-3.174999999999999
 74
     0
 49
3.174999999999999
 74
     0
 49
-3.174999999999999
 74
     0
  0
LTYPE
  5
91
330
5
100
AcDbSymbolTableRecord
100
AcDbLinetypeTableRecord
  2
CENTERX2
 70
     0
  3
Center (2x) ________  __  ________  __  _____
 72
    65
 73
     4
 40
101.6
 49
63.5
 74
     0
 49
-12.7
 74
     0
 49
12.7
 74
     0
 49
-12.7
 74
     0
  0
LTYPE
  5
92
330
5
100
AcDbSymbolTableRecord
100
AcDbLinetypeTableRecord
  2
DASHDOT2
 70
     0
  3
Dash dot (.5x) _._._._._._._._._._._._._._._.
 72
    65
 73
     4
 40
12.7
 49
6.349999999999999
 74
     0
 49
-3.174999999999999
 74
     0
 49
0.0
 74
     0
 49
-3.174999999999999
 74
     0
  0
LTYPE
  5
93
330
5
100
AcDbSymbolTableRecord
100
AcDbLinetypeTableRecord
  2
DASHDOTX2
 70
     0
  3
Dash dot (2x) ____  .  ____  .  ____  .  ___
 72
    65
 73
     4
 40
50.8
 49
25.4
 74
     0
 49
-12.7
 74
     0
 49
0.0
 74
     0
 49
-12.7
 74
     0
  0
LTYPE
  5
94
330
5
100
AcDbSymbolTableRecord
100
AcDbLinetypeTableRecord
  2
DASHED2
 70
     0
  3
Dashed (.5x) _ _ _ _ _ _ _ _ _ _ _ _ _ _ _ _ _
 72
    65
 73
     2
 40
9.524999999999998
 49
6.349999999999999
 74
     0
 49
-3.174999999999999
 74
     0
  0
LTYPE
  5
95
330
5
100
AcDbSymbolTableRecord
100
AcDbLinetypeTableRecord
  2
DASHEDX2
 70
     0
  3
Dashed (2x) ____  ____  ____  ____  ____  ___
 72
    65
 73
     2
 40
38.1
 49
25.4
 74
     0
 49
-12.7
 74
     0
  0
LTYPE
  5
96
330
5
100
AcDbSymbolTableRecord
100
AcDbLinetypeTableRecord
  2
DIVIDE
 70
     0
  3
Divide ____ . . ____ . . ____ . . ____ . . ____
 72
    65
 73
     6
 40
31.75
 49
12.7
 74
     0
 49
-6.349999999999999
 74
     0
 49
0.0
 74
     0
 49
-6.349999999999999
 74
     0
 49
0.0
 74
     0
 49
-6.349999999999999
 74
     0
  0
LTYPE
  5
97
330
5
100
AcDbSymbolTableRecord
100
AcDbLinetypeTableRecord
  2
DIVIDE2
 70
     0
  3
Divide (.5x) __..__..__..__..__..__..__..__.._
 72
    65
 73
     6
 40
15.875
 49
6.349999999999999
 74
     0
 49
-3.174999999999999
 74
     0
 49
0.0
 74
     0
 49
-3.174999999999999
 74
     0
 49
0.0
 74
     0
 49
-3.174999999999999
 74
     0
  0
LTYPE
  5
98
330
5
100
AcDbSymbolTableRecord
100
AcDbLinetypeTableRecord
  2
DIVIDEX2
 70
     0
  3
Divide (2x) ________  .  .  ________  .  .  _
 72
    65
 73
     6
 40
63.49999999999999
 49
25.4
 74
     0
 49
-12.7
 74
     0
 49
0.0
 74
     0
 49
-12.7
 74
     0
 49
0.0
 74
     0
 49
-12.7
 74
     0
  0
LTYPE
  5
99
330
5
100
AcDbSymbolTableRecord
100
AcDbLinetypeTableRecord
  2
DOT
 70
     0
  3
Dot . . . . . . . . . . . . . . . . . . . . . .
 72
    65
 73
     2
 40
6.349999999999999
 49
0.0
 74
     0
 49
-6.349999999999999
 74
     0
  0
LTYPE
  5
9A
330
5
100
AcDbSymbolTableRecord
100
AcDbLinetypeTableRecord
  2
DOT2
 70
     0
  3
Dot (.5x) .....................................
 72
    65
 73
     2
 40
3.174999999999999
 49
0.0
 74
     0
 49
-3.174999999999999
 74
     0
  0
LTYPE
  5
9B
330
5
100
AcDbSymbolTableRecord
100
AcDbLinetypeTableRecord
  2
DOTX2
 70
     0
  3
Dot (2x) .  .  .  .  .  .  .  .  .  .  .  .  . 
 72
    65
 73
     2
 40
12.7
 49
0.0
 74
     0
 49
-12.7
 74
     0
  0
LTYPE
  5
9C
330
5
100
AcDbSymbolTableRecord
100
AcDbLinetypeTableRecord
  2
HIDDEN
 70
     0
  3
Hidden __ __ __ __ __ __ __ __ __ __ __ __ __ _
 72
    65
 73
     2
 40
9.524999999999998
 49
6.349999999999999
 74
     0
 49
-3.174999999999999
 74
     0
  0
LTYPE
  5
9D
330
5
100
AcDbSymbolTableRecord
100
AcDbLinetypeTableRecord
  2
HIDDEN2
 70
     0
  3
Hidden (.5x) _ _ _ _ _ _ _ _ _ _ _ _ _ _ _ _ _
 72
    65
 73
     2
 40
4.762499999999999
 49
3.174999999999999
 74
     0
 49
-1.587499999999999
 74
     0
  0
LTYPE
  5
9E
330
5
100
AcDbSymbolTableRecord
100
AcDbLinetypeTableRecord
  2
HIDDENX2
 70
     0
  3
Hidden (2x) ____ ____ ____ ____ ____ ____ ____
 72
    65
 73
     2
 40
19.05
 49
12.7
 74
     0
 49
-6.349999999999999
 74
     0
  0
LTYPE
  5
9F
330
5
100
AcDbSymbolTableRecord
100
AcDbLinetypeTableRecord
  2
PHANTOM
 70
     0
  3
Phantom ______  __  __  ______  __  __  ______
 72
    65
 73
     6
 40
63.5
 49
31.75
 74
     0
 49
-6.349999999999999
 74
     0
 49
6.349999999999999
 74
     0
 49
-6.349999999999999
 74
     0
 49
6.349999999999999
 74
     0
 49
-6.349999999999999
 74
     0
  0
LTYPE
  5
A0
330
5
100
AcDbSymbolTableRecord
100
AcDbLinetypeTableRecord
  2
PHANTOM2
 70
     0
  3
Phantom (.5x) ___ _ _ ___ _ _ ___ _ _ ___ _ _
 72
    65
 73
     6
 40
31.75
 49
15.875
 74
     0
 49
-3.174999999999999
 74
     0
 49
3.174999999999999
 74
     0
 49
-3.174999999999999
 74
     0
 49
3.174999999999999
 74
     0
 49
-3.174999999999999
 74
     0
  0
LTYPE
  5
A1
330
5
100
AcDbSymbolTableRecord
100
AcDbLinetypeTableRecord
  2
PHANTOMX2
 70
     0
  3
Phantom (2x) ____________    ____    ____   _
 72
    65
 73
     6
 40
127.0
 49
63.5
 74
     0
 49
-12.7
 74
     0
 49
12.7
 74
     0
 49
-12.7
 74
     0
 49
12.7
 74
     0
 49
-12.7
 74
     0
  0
LTYPE
  5
A2
330
5
100
AcDbSymbolTableRecord
100
AcDbLinetypeTableRecord
  2
ACAD_ISO02W100
 70
     0
  3
ISO dash __ __ __ __ __ __ __ __ __ __ __ __ __
 72
    65
 73
     2
 40
15.0
 49
12.0
 74
     0
 49
-3.0
 74
     0
  0
LTYPE
  5
A3
330
5
100
AcDbSymbolTableRecord
100
AcDbLinetypeTableRecord
  2
ACAD_ISO03W100
 70
     0
  3
ISO dash space __    __    __    __    __    __
 72
    65
 73
     2
 40
30.0
 49
12.0
 74
     0
 49
-18.0
 74
     0
  0
LTYPE
  5
A4
330
5
100
AcDbSymbolTableRecord
100
AcDbLinetypeTableRecord
  2
ACAD_ISO04W100
 70
     0
  3
ISO long-dash dot ____ . ____ . ____ . ____ . _
 72
    65
 73
     4
 40
30.0
 49
24.0
 74
     0
 49
-3.0
 74
     0
 49
0.0
 74
     0
 49
-3.0
 74
     0
  0
LTYPE
  5
A5
330
5
100
AcDbSymbolTableRecord
100
AcDbLinetypeTableRecord
  2
ACAD_ISO05W100
 70
     0
  3
ISO long-dash double-dot ____ .. ____ .. ____ .
 72
    65
 73
     6
 40
33.0
 49
24.0
 74
     0
 49
-3.0
 74
     0
 49
0.0
 74
     0
 49
-3.0
 74
     0
 49
0.0
 74
     0
 49
-3.0
 74
     0
  0
LTYPE
  5
A6
330
5
100
AcDbSymbolTableRecord
100
AcDbLinetypeTableRecord
  2
ACAD_ISO06W100
 70
     0
  3
ISO long-dash triple-dot ____ ... ____ ... ____
 72
    65
 73
     8
 40
36.0
 49
24.0
 74
     0
 49
-3.0
 74
     0
 49
0.0
 74
     0
 49
-3.0
 74
     0
 49
0.0
 74
     0
 49
-3.0
 74
     0
 49
0.0
 74
     0
 49
-3.0
 74
     0
  0
LTYPE
  5
A7
330
5
100
AcDbSymbolTableRecord
100
AcDbLinetypeTableRecord
  2
ACAD_ISO07W100
 70
     0
  3
ISO dot . . . . . . . . . . . . . . . . . . . .
 72
    65
 73
     2
 40
3.0
 49
0.0
 74
     0
 49
-3.0
 74
     0
  0
LTYPE
  5
A8
330
5
100
AcDbSymbolTableRecord
100
AcDbLinetypeTableRecord
  2
ACAD_ISO08W100
 70
     0
  3
ISO long-dash short-dash ____ __ ____ __ ____ _
 72
    65
 73
     4
 40
36.0
 49
24.0
 74
     0
 49
-3.0
 74
     0
 49
6.0
 74
     0
 49
-3.0
 74
     0
  0
LTYPE
  5
A9
330
5
100
AcDbSymbolTableRecord
100
AcDbLinetypeTableRecord
  2
ACAD_ISO09W100
 70
     0
  3
ISO long-dash double-short-dash ____ __ __ ____
 72
    65
 73
     6
 40
45.0
 49
24.0
 74
     0
 49
-3.0
 74
     0
 49
6.0
 74
     0
 49
-3.0
 74
     0
 49
6.0
 74
     0
 49
-3.0
 74
     0
  0
LTYPE
  5
AA
330
5
100
AcDbSymbolTableRecord
100
AcDbLinetypeTableRecord
  2
ACAD_ISO10W100
 70
     0
  3
ISO dash dot __ . __ . __ . __ . __ . __ . __ .
 72
    65
 73
     4
 40
18.0
 49
12.0
 74
     0
 49
-3.0
 74
     0
 49
0.0
 74
     0
 49
-3.0
 74
     0
  0
LTYPE
  5
AB
330
5
100
AcDbSymbolTableRecord
100
AcDbLinetypeTableRecord
  2
ACAD_ISO11W100
 70
     0
  3
ISO double-dash dot __ __ . __ __ . __ __ . __ 
 72
    65
 73
     6
 40
33.0
 49
12.0
 74
     0
 49
-3.0
 74
     0
 49
12.0
 74
     0
 49
-3.0
 74
     0
 49
0.0
 74
     0
 49
-3.0
 74
     0
  0
LTYPE
  5
AC
330
5
100
AcDbSymbolTableRecord
100
AcDbLinetypeTableRecord
  2
ACAD_ISO12W100
 70
     0
  3
ISO dash double-dot __ . . __ . . __ . . __ . .
 72
    65
 73
     6
 40
21.0
 49
12.0
 74
     0
 49
-3.0
 74
     0
 49
0.0
 74
     0
 49
-3.0
 74
     0
 49
0.0
 74
     0
 49
-3.0
 74
     0
  0
LTYPE
  5
AD
330
5
100
AcDbSymbolTableRecord
100
AcDbLinetypeTableRecord
  2
ACAD_ISO13W100
 70
     0
  3
ISO double-dash double-dot __ __ . . __ __ . . 
 72
    65
 73
     8
 40
36.0
 49
12.0
 74
     0
 49
-3.0
 74
     0
 49
12.0
 74
     0
 49
-3.0
 74
     0
 49
0.0
 74
     0
 49
-3.0
 74
     0
 49
0.0
 74
     0
 49
-3.0
 74
     0
  0
LTYPE
  5
AE
330
5
100
AcDbSymbolTableRecord
100
AcDbLinetypeTableRecord
  2
ACAD_ISO14W100
 70
     0
  3
ISO dash triple-dot __ . . . __ . . . __ . . . 
 72
    65
 73
     8
 40
24.0
 49
12.0
 74
     0
 49
-3.0
 74
     0
 49
0.0
 74
     0
 49
-3.0
 74
     0
 49
0.0
 74
     0
 49
-3.0
 74
     0
 49
0.0
 74
     0
 49
-3.0
 74
     0
  0
LTYPE
  5
AF
330
5
100
AcDbSymbolTableRecord
100
AcDbLinetypeTableRecord
  2
ACAD_ISO15W100
 70
     0
  3
ISO double-dash triple-dot __ __ . . . __ __ . 
 72
    65
 73
    10
 40
39.0
 49
12.0
 74
     0
 49
-3.0
 74
     0
 49
12.0
 74
     0
 49
-3.0
 74
     0
 49
0.0
 74
     0
 49
-3.0
 74
     0
 49
0.0
 74
     0
 49
-3.0
 74
     0
 49
0.0
 74
     0
 49
-3.0
 74
     0
  0
LTYPE
  5
B2
330
5
100
AcDbSymbolTableRecord
100
AcDbLinetypeTableRecord
  2
FENCELINE1
 70
     0
  3
Fenceline circle ----0-----0----0-----0----0---
 72
    65
 73
     4
 40
36.83
 49
6.349999999999999
 74
     0
 49
-2.54
 74
     4
 75
   133
340
B1
 46
2.54
 50
0.0
 44
-2.54
 45
0.0
 49
-2.54
 74
     0
 49
25.4
 74
     0
  0
LTYPE
  5
B3
330
5
100
AcDbSymbolTableRecord
100
AcDbLinetypeTableRecord
  2
FENCELINE2
 70
     0
  3
Fenceline square ----[]-----[]----[]-----[]----
 72
    65
 73
     4
 40
36.83
 49
6.349999999999999
 74
     0
 49
-2.54
 74
     4
 75
   132
340
B1
 46
2.54
 50
0.0
 44
-2.54
 45
0.0
 49
-2.54
 74
     0
 49
25.4
 74
     0
  0
LTYPE
  5
B4
330
5
100
AcDbSymbolTableRecord
100
AcDbLinetypeTableRecord
  2
TRACKS
 70
     0
  3
Tracks -|-|-|-|-|-|-|-|-|-|-|-|-|-|-|-|-|-|-|-|
 72
    65
 73
     2
 40
7.62
 49
3.81
 74
     4
 75
   130
340
B1
 46
6.349999999999999
 50
0.0
 44
0.0
 45
0.0
 49
3.81
 74
     0
  0
LTYPE
  5
B5
330
5
100
AcDbSymbolTableRecord
100
AcDbLinetypeTableRecord
  2
BATTING
 70
     0
  3
Batting SSSSSSSSSSSSSSSSSSSSSSSSSSSSSSSSSSSSSSS
 72
    65
 73
     4
 40
10.16254
 49
0.00254
 74
     0
 49
-2.54
 74
     4
 75
   134
340
B1
 46
2.54
 50
0.0
 44
-2.54
 45
0.0
 49
-5.08
 74
     4
 75
   134
340
B1
 46
2.54
 50
180.0
 44
2.54
 45
0.0
 49
-2.54
 74
     0
  0
LTYPE
  5
B6
330
5
100
AcDbSymbolTableRecord
100
AcDbLinetypeTableRecord
  2
HOT_WATER_SUPPLY
 70
     0
  3
Hot water supply ---- HW ---- HW ---- HW ----
 72
    65
 73
     3
 40
22.86
 49
12.7
 74
     0
 49
-5.08
 74
     2
 75
     0
340
5D
 46
2.54
 50
0.0
 44
-2.54
 45
-1.27
  9
HW
 49
-5.08
 74
     0
  0
LTYPE
  5
B7
330
5
100
AcDbSymbolTableRecord
100
AcDbLinetypeTableRecord
  2
GAS_LINE
 70
     0
  3
Gas line ----GAS----GAS----GAS----GAS----GAS---
 72
    65
 73
     3
 40
24.13
 49
12.7
 74
     0
 49
-5.08
 74
     2
 75
     0
340
5D
 46
2.54
 50
0.0
 44
-2.54
 45
-1.27
  9
GAS
 49
-6.349999999999999
 74
     0
  0
LTYPE
  5
B8
330
5
100
AcDbSymbolTableRecord
100
AcDbLinetypeTableRecord
  2
ZIGZAG
 70
     0
  3
Zig zag /\/\/\/\/\/\/\/\/\/\/\/\/\/\/\/\/\/\/\/
 72
    65
 73
     4
 40
20.32254
 49
0.00254
 74
     0
 49
-5.08
 74
     4
 75
   131
340
B1
 46
5.08
 50
0.0
 44
-5.08
 45
0.0
 49
-10.16
 74
     4
 75
   131
340
B1
 46
5.08
 50
180.0
 44
5.08
 45
0.0
 49
-5.08
 74
     0
  0
ENDTAB
  0
TABLE
  2
LAYER
  5
2
330
0
100
AcDbSymbolTable
 70
    25
  0
LAYER
  5
5C
330
2
100
AcDbSymbolTableRecord
100
AcDbLayerTableRecord
  2
0
 70
     0
 62
     7
  6
Continuous
370
    -3
390
F
  0
LAYER
  5
C3
330
2
100
AcDbSymbolTableRecord
100
AcDbLayerTableRecord
  2
Hidden (ISO)
 70
     0
 62
     7
  6
Continuous
370
    35
390
F
  0
LAYER
  5
CC
330
2
100
AcDbSymbolTableRecord
100
AcDbLayerTableRecord
  2
Visible (ISO)
 70
     0
 62
     7
  6
Continuous
370
    50
390
F
  0
LAYER
  5
CD
330
2
100
AcDbSymbolTableRecord
100
AcDbLayerTableRecord
  2
Visible Narrow (ISO)
 70
     0
 62
     7
  6
Continuous
370
    35
390
F
  0
ENDTAB
  0
TABLE
  2
STYLE
  5
3
330
0
100
AcDbSymbolTable
 70
    15
  0
STYLE
  5
5D
330
3
100
AcDbSymbolTableRecord
100
AcDbTextStyleTableRecord
  2
Standard
 70
     0
 40
0.0
 41
1.0
 50
0.0
 71
     0
 42
0.2
  3
TAHOMA.TTF
  4

1001
ACAD
1000
Tahoma
1071
      256
  0
STYLE
  5
62
330
3
100
AcDbSymbolTableRecord
100
AcDbTextStyleTableRecord
  2
Annotative
 70
     0
 40
0.0
 41
1.0
 50
0.0
 71
     0
 42
0.2
  3
txt
  4

1001
AcadAnnotative
1000
AnnotativeData
1002
{
1070
     1
1070
     1
1002
}
  0
STYLE
  5
B1
330
3
100
AcDbSymbolTableRecord
100
AcDbTextStyleTableRecord
  2

 70
     1
 40
0.0
 41
1.0
 50
0.0
 71
     0
 42
0.2
  3
ltypeshp.shx
  4

  0
STYLE
  5
D1
330
3
100
AcDbSymbolTableRecord
100
AcDbTextStyleTableRecord
  2
Alternative Text (GOST)
 70
     0
 40
0.0
 41
0.8000000119209289
 50
0.0
 71
     0
 42
0.2
  3
ARIAL.TTF
  4

1001
ACAD
1000
Arial
1071
      256
  0
STYLE
  5
D2
330
3
100
AcDbSymbolTableRecord
100
AcDbTextStyleTableRecord
  2
Condensed Text (GOST)
 70
     0
 40
0.0
 41
0.8000000119209289
 50
0.0
 71
     0
 42
0.2
  3
GOST Common.ttf
  4

1001
ACAD
1000
GOST Common
1071
      256
  0
STYLE
  5
D3
330
3
100
AcDbSymbolTableRecord
100
AcDbTextStyleTableRecord
  2
Enlarged Text (GOST)
 70
     0
 40
0.0
 41
1.0
 50
0.0
 71
     0
 42
0.2
  3
GOST Common.ttf
  4

1001
ACAD
1000
GOST Common
1071
      256
  0
STYLE
  5
D4
330
3
100
AcDbSymbolTableRecord
100
AcDbTextStyleTableRecord
  2
Label Text (ANSI)
 70
     0
 40
0.0
 41
1.0
 50
0.0
 71
     0
 42
0.2
  3
TAHOMA.TTF
  4

1001
ACAD
1000
Tahoma
1071
      256
  0
STYLE
  5
D5
330
3
100
AcDbSymbolTableRecord
100
AcDbTextStyleTableRecord
  2
Label Text (DIN)
 70
     0
 40
0.0
 41
1.0
 50
0.0
 71
     0
 42
0.2
  3
isocpeur.ttf
  4

1001
ACAD
1000
ISOCPEUR
1071
      256
  0
STYLE
  5
D6
330
3
100
AcDbSymbolTableRecord
100
AcDbTextStyleTableRecord
  2
Label Text (ISO)
 70
     0
 40
0.0
 41
1.0
 50
0.0
 71
     0
 42
0.2
  3
TAHOMA.TTF
  4

1001
ACAD
1000
Tahoma
1071
      256
  0
STYLE
  5
D7
330
3
100
AcDbSymbolTableRecord
100
AcDbTextStyleTableRecord
  2
Label Text (JIS)
 70
     0
 40
0.0
 41
1.0
 50
0.0
 71
     0
 42
0.2
  3
TAHOMA.TTF
  4

1001
ACAD
1000
Tahoma
1071
      256
  0
STYLE
  5
D8
330
3
100
AcDbSymbolTableRecord
100
AcDbTextStyleTableRecord
  2
Note Text (ANSI)
 70
     0
 40
0.0
 41
1.0
 50
0.0
 71
     0
 42
0.2
  3
TAHOMA.TTF
  4

1001
ACAD
1000
Tahoma
1071
      256
  0
STYLE
  5
D9
330
3
100
AcDbSymbolTableRecord
100
AcDbTextStyleTableRecord
  2
Note Text (DIN)
 70
     0
 40
0.0
 41
1.0
 50
0.0
 71
     0
 42
0.2
  3
isocpeur.ttf
  4

1001
ACAD
1000
ISOCPEUR
1071
      256
  0
STYLE
  5
DA
330
3
100
AcDbSymbolTableRecord
100
AcDbTextStyleTableRecord
  2
Note Text (ISO)
 70
     0
 40
0.0
 41
1.0
 50
0.0
 71
     0
 42
0.2
  3
TAHOMA.TTF
  4

1001
ACAD
1000
Tahoma
1071
      256
  0
STYLE
  5
DB
330
3
100
AcDbSymbolTableRecord
100
AcDbTextStyleTableRecord
  2
Note Text (JIS)
 70
     0
 40
0.0
 41
1.0
 50
0.0
 71
     0
 42
0.2
  3
TAHOMA.TTF
  4

1001
ACAD
1000
Tahoma
1071
      256
  0
STYLE
  5
DC
330
3
100
AcDbSymbolTableRecord
100
AcDbTextStyleTableRecord
  2
Regular Text (GOST)
 70
     0
 40
0.0
 41
1.0
 50
0.0
 71
     0
 42
0.2
  3
GOST Common.ttf
  4

1001
ACAD
1000
GOST Common
1071
      256
  0
ENDTAB
  0
TABLE
  2
VIEW
  5
6
330
0
100
AcDbSymbolTable
 70
     0
  0
ENDTAB
  0
TABLE
  2
UCS
  5
7
330
0
100
AcDbSymbolTable
 70
     0
  0
ENDTAB
  0
TABLE
  2
APPID
  5
9
330
0
100
AcDbSymbolTable
 70
     3
  0
APPID
  5
5E
330
9
100
AcDbSymbolTableRecord
100
AcDbRegAppTableRecord
  2
ACAD
 70
     0
  0
APPID
  5
66
330
9
100
AcDbSymbolTableRecord
100
AcDbRegAppTableRecord
  2
AcadAnnotative
 70
     0
  0
APPID
  5
70
330
9
100
AcDbSymbolTableRecord
100
AcDbRegAppTableRecord
  2
ACAD_MLEADERVER
 70
     0
  0
ENDTAB
  0
TABLE
  2
DIMSTYLE
  5
A
330
0
100
AcDbSymbolTable
 70
    15
100
AcDbDimStyleTable
 71
     0
  0
DIMSTYLE
105
60
330
A
100
AcDbSymbolTableRecord
100
AcDbDimStyleTableRecord
  2
Standard
 70
     0
340
5D
  0
DIMSTYLE
105
61
330
A
100
AcDbSymbolTableRecord
100
AcDbDimStyleTableRecord
  2
Annotative
 70
     0
340
5D
1001
AcadAnnotative
1000
AnnotativeData
1002
{
1070
     1
1070
     1
1002
}
  0
DIMSTYLE
105
DD
330
A
100
AcDbSymbolTableRecord
100
AcDbDimStyleTableRecord
  2
Default - Method 1b (ISO)
 70
     0
 41
2.5
 42
0.0
 43
5.999999999999999
 44
3.174999999999999
 45
0.00000001
 46
10.0
 73
     0
 77
     1
 78
     8
 79
     2
140
3.5
143
0.03937
147
0.762
171
     3
172
     1
176
   256
177
   256
178
   256
179
     2
271
     2
272
     2
274
     3
278
    44
284
     8
286
     8
340
DA
371
    -1
372
    -1
  0
DIMSTYLE
105
DE
330
A
100
AcDbSymbolTableRecord
100
AcDbDimStyleTableRecord
  2
Default - Method 1b (ISO)$7
 70
     0
 41
2.5
 42
0.0
 43
5.999999999999999
 44
3.174999999999999
 45
0.00000001
 46
10.0
 73
     0
 77
     1
 78
     8
 79
     2
140
3.5
143
0.03937
147
0.762
171
     3
172
     1
176
   256
177
   256
178
   256
179
     2
271
     2
272
     2
274
     3
278
    44
284
     8
286
     8
340
DA
371
    -1
372
    -1
  0
DIMSTYLE
105
DF
330
A
100
AcDbSymbolTableRecord
100
AcDbDimStyleTableRecord
  2
Default - Method 2a (ISO)
 70
     0
 41
2.5
 42
0.0
 43
5.999999999999999
 44
3.174999999999999
 45
0.00000001
 46
10.0
 77
     1
 78
     8
 79
     2
140
3.5
143
0.03937
147
0.762
171
     3
172
     1
176
   256
177
   256
178
   256
179
     2
271
     2
272
     2
274
     3
278
    44
284
     8
286
     8
340
DA
371
    -1
372
    -1
  0
DIMSTYLE
105
E0
330
A
100
AcDbSymbolTableRecord
100
AcDbDimStyleTableRecord
  2
Default - Method 2a (ISO)$7
 70
     0
 41
2.5
 42
0.0
 43
5.999999999999999
 44
3.174999999999999
 45
0.00000001
 46
10.0
 77
     1
 78
     8
 79
     2
140
3.5
143
0.03937
147
0.762
171
     3
172
     1
176
   256
177
   256
178
   256
179
     2
271
     2
272
     2
274
     3
278
    44
284
     8
286
     8
340
DA
371
    -1
372
    -1
  0
DIMSTYLE
105
E1
330
A
100
AcDbSymbolTableRecord
100
AcDbDimStyleTableRecord
  2
Default - Method 2b (ISO)
 70
     0
 41
2.5
 42
0.0
 43
5.999999999999999
 44
3.174999999999999
 45
0.00000001
 46
10.0
 77
     1
 78
     8
 79
     2
140
3.5
143
0.03937
147
0.762
171
     3
172
     1
176
   256
177
   256
178
   256
179
     2
271
     2
272
     2
274
     3
278
    44
284
     8
286
     8
340
DA
371
    -1
372
    -1
  0
DIMSTYLE
105
E2
330
A
100
AcDbSymbolTableRecord
100
AcDbDimStyleTableRecord
  2
Default - Method 2b (ISO)$7
 70
     0
 41
2.5
 42
0.0
 43
5.999999999999999
 44
3.174999999999999
 45
0.00000001
 46
10.0
 77
     1
 78
     8
 79
     2
140
3.5
143
0.03937
147
0.762
171
     3
172
     1
176
   256
177
   256
178
   256
179
     2
271
     2
272
     2
274
     3
278
    44
284
     8
286
     8
340
DA
371
    -1
372
    -1
  0
DIMSTYLE
105
E3
330
A
100
AcDbSymbolTableRecord
100
AcDbDimStyleTableRecord
  2
Default - mm [in] (ISO)
 70
     0
  4
 in
 41
2.5
 42
0.0
 43
5.999999999999999
 44
3.174999999999999
 45
0.00000001
 46
10.0
 73
     0
 74
     0
 77
     1
 78
     8
 79
     2
140
3.5
143
0.03937
147
0.762
170
     1
171
     3
172
     1
176
   256
177
   256
178
   256
179
     3
271
     3
272
     2
274
     3
275
     1
278
    44
284
     8
285
     8
286
     8
340
DA
371
    -1
372
    -1
  0
DIMSTYLE
105
E4
330
A
100
AcDbSymbolTableRecord
100
AcDbDimStyleTableRecord
  2
Default - mm [in] (ISO)$7
 70
     0
  4
 in
 41
2.5
 42
0.0
 43
5.999999999999999
 44
3.174999999999999
 45
0.00000001
 46
10.0
 73
     0
 74
     0
 77
     1
 78
     8
 79
     2
140
3.5
143
0.03937
147
0.762
170
     1
171
     3
172
     1
176
   256
177
   256
178
   256
179
     3
271
     3
272
     2
274
     3
275
     1
278
    44
284
     8
285
     8
286
     8
340
DA
371
    -1
372
    -1
  0
DIMSTYLE
105
E5
330
A
100
AcDbSymbolTableRecord
100
AcDbDimStyleTableRecord
  2
Default (ISO)
 70
     0
 41
2.5
 42
0.0
 43
5.999999999999999
 44
3.174999999999999
 45
0.00000001
 46
10.0
 73
     0
 74
     0
 77
     1
140
3.5
143
0.03937
146
1.001485756465366
147
0.762
171
     3
172
     1
176
   256
177
   256
178
   256
179
     2
271
     2
272
     2
274
     3
278
    44
340
DA
371
    -1
372
    -1
  0
DIMSTYLE
105
E6
330
A
100
AcDbSymbolTableRecord
100
AcDbDimStyleTableRecord
  2
Default (ISO)$7
 70
     0
 41
2.5
 42
0.0
 43
5.999999999999999
 44
3.174999999999999
 45
0.00000001
 46
10.0
 73
     0
 74
     0
 77
     1
140
3.5
143
0.03937
146
1.001485756465366
147
0.762
171
     3
172
     1
176
   256
177
   256
178
   256
179
     2
271
     2
272
     2
274
     3
278
    44
340
DA
371
    -1
372
    -1
  0
DIMSTYLE
105
E7
330
A
100
AcDbSymbolTableRecord
100
AcDbDimStyleTableRecord
  2
Alternate (ISO)
 70
     0
 41
2.5
340
5D
342
E8
  0
DIMSTYLE
105
F9
330
A
100
AcDbSymbolTableRecord
100
AcDbDimStyleTableRecord
  2
Datum (ISO)
 70
     0
 41
2.5
340
5D
342
E8
  0
DIMSTYLE
105
108
330
A
100
AcDbSymbolTableRecord
100
AcDbDimStyleTableRecord
  2
Large (ISO)
 70
     0
 41
5.0
340
5D
342
E8
  0
ENDTAB
  0
TABLE
  2
BLOCK_RECORD
  5
1
330
0
100
AcDbSymbolTable
 70
     4
  0
BLOCK_RECORD
  5
75
330
1
100
AcDbSymbolTableRecord
100
AcDbBlockTableRecord
  2
*Model_Space
340
78
  0
BLOCK_RECORD
  5
71
330
1
100
AcDbSymbolTableRecord
100
AcDbBlockTableRecord
  2
*Paper_Space
340
74
  0
BLOCK_RECORD
  5
79
330
1
100
AcDbSymbolTableRecord
100
AcDbBlockTableRecord
  2
*Paper_Space0
340
7C
  0
BLOCK_RECORD
  5
E8
330
1
100
AcDbSymbolTableRecord
100
AcDbBlockTableRecord
  2
_Closed
340
0
  0
BLOCK_RECORD
  5
EF
330
1
100
AcDbSymbolTableRecord
100
AcDbBlockTableRecord
  2
DatumFilled45
340
0
  0
BLOCK_RECORD
  5
FA
330
1
100
AcDbSymbolTableRecord
100
AcDbBlockTableRecord
  2
Filled-1
340
0
  0
ENDTAB
  0
ENDSEC
  0
SECTION
  2
BLOCKS
  0
BLOCK
  5
76
330
75
100
AcDbEntity
  8
0
100
AcDbBlockBegin
  2
*Model_Space
 70
     0
 10
0.0
 20
0.0
 30
0.0
  3
*Model_Space
  1

  0
ENDBLK
  5
77
330
75
100
AcDbEntity
  8
0
100
AcDbBlockEnd
  0
BLOCK
  5
72
330
71
100
AcDbEntity
 67
     1
  8
0
100
AcDbBlockBegin
  2
*Paper_Space
 70
     0
 10
0.0
 20
0.0
 30
0.0
  3
*Paper_Space
  1

  0
ENDBLK
  5
73
330
71
100
AcDbEntity
 67
     1
  8
0
100
AcDbBlockEnd
  0
BLOCK
  5
7A
330
79
100
AcDbEntity
 67
     1
  8
0
100
AcDbBlockBegin
  2
*Paper_Space0
 70
     0
 10
0.0
 20
0.0
 30
0.0
  3
*Paper_Space0
  1

  0
ENDBLK
  5
7B
330
79
100
AcDbEntity
 67
     1
  8
0
100
AcDbBlockEnd
  0
BLOCK
  5
ED
330
E8
100
AcDbEntity
  8
0
100
AcDbBlockBegin
  2
_Closed
 70
     0
 10
0.0
 20
0.0
 30
0.0
  3
_Closed
  1

  0
LINE
  5
E9
330
E8
100
AcDbEntity
  8
0
  6
ByBlock
 62
     0
370
    -2
100
AcDbLine
 10
-1.0
 20
0.1666666666666666
 30
0.0
 11
0.0
 21
0.0
 31
0.0
  0
LINE
  5
EA
330
E8
100
AcDbEntity
  8
0
  6
ByBlock
 62
     0
370
    -2
100
AcDbLine
 10
0.0
 20
0.0
 30
0.0
 11
-1.0
 21
-0.1666666666666666
 31
0.0
  0
LINE
  5
EB
330
E8
100
AcDbEntity
  8
0
  6
ByBlock
 62
     0
370
    -2
100
AcDbLine
 10
-1.0
 20
0.1666666666666666
 30
0.0
 11
-1.0
 21
-0.1666666666666666
 31
0.0
  0
LINE
  5
EC
330
E8
100
AcDbEntity
  8
0
  6
ByBlock
 62
     0
370
    -2
100
AcDbLine
 10
0.0
 20
0.0
 30
0.0
 11
-1.0
 21
0.0
 31
0.0
  0
ENDBLK
  5
EE
330
E8
100
AcDbEntity
  8
0
100
AcDbBlockEnd
  0
BLOCK
  5
F0
330
EF
100
AcDbEntity
  8
0
100
AcDbBlockBegin
  2
DatumFilled45
 70
     0
 10
0.0
 20
0.0
 30
0.0
  3
DatumFilled45
  1

  0
POLYLINE
  5
F2
330
EF
100
AcDbEntity
  8
0
 62
     0
100
AcDb2dPolyline
 66
     1
 10
0.0
 20
0.0
 30
0.0
 70
   128
  0
VERTEX
  5
F3
330
F2
100
AcDbEntity
  8
0
 62
     0
100
AcDbVertex
100
AcDb2dVertex
 10
0.0
 20
1.0
 30
0.0
  0
VERTEX
  5
F4
330
F2
100
AcDbEntity
  8
0
 62
     0
100
AcDbVertex
100
AcDb2dVertex
 10
0.0
 20
-1.0
 30
0.0
  0
VERTEX
  5
F6
330
F2
100
AcDbEntity
  8
0
 62
     0
100
AcDbVertex
100
AcDb2dVertex
 10
-1.0
 20
0.0
 30
0.0
  0
VERTEX
  5
F7
330
F2
100
AcDbEntity
  8
0
 62
     0
100
AcDbVertex
100
AcDb2dVertex
 10
0.0
 20
1.0
 30
0.0
  0
SEQEND
  5
F5
330
F2
100
AcDbEntity
  8
0
 62
     0
  0
SOLID
  5
F8
330
EF
100
AcDbEntity
  8
0
 62
     0
100
AcDbTrace
 10
0.0
 20
1.0
 30
0.0
 11
0.0
 21
-1.0
 31
0.0
 12
-1.0
 22
0.0
 32
0.0
 13
0.0
 23
1.0
 33
0.0
  0
ENDBLK
  5
F1
330
EF
100
AcDbEntity
  8
0
100
AcDbBlockEnd
  0
BLOCK
  5
FB
330
FA
100
AcDbEntity
  8
0
100
AcDbBlockBegin
  2
Filled-1
 70
     0
 10
0.0
 20
0.0
 30
0.0
  3
Filled-1
  1

  0
LINE
  5
FD
330
FA
100
AcDbEntity
  8
0
 62
     0
100
AcDbLine
 10
-1.0
 20
0.0
 30
0.0
 11
0.0
 21
0.0
 31
0.0
  0
POLYLINE
  5
FE
330
FA
100
AcDbEntity
  8
0
 62
     0
100
AcDb2dPolyline
 66
     1
 10
0.0
 20
0.0
 30
0.0
 70
   128
  0
VERTEX
  5
FF
330
FE
100
AcDbEntity
  8
0
 62
     0
100
AcDbVertex
100
AcDb2dVertex
 10
-1.0
 20
-0.1
 30
0.0
  0
VERTEX
  5
100
330
FE
100
AcDbEntity
  8
0
 62
     0
100
AcDbVertex
100
AcDb2dVertex
 10
0.0
 20
0.0
 30
0.0
  0
VERTEX
  5
102
330
FE
100
AcDbEntity
  8
0
 62
     0
100
AcDbVertex
100
AcDb2dVertex
 10
-1.0
 20
0.1
 30
0.0
  0
VERTEX
  5
103
330
FE
100
AcDbEntity
  8
0
 62
     0
100
AcDbVertex
100
AcDb2dVertex
 10
-1.0
 20
-0.1
 30
0.0
  0
SEQEND
  5
101
330
FE
100
AcDbEntity
  8
0
 62
     0
  0
SOLID
  5
104
330
FA
100
AcDbEntity
  8
0
 62
     0
100
AcDbTrace
 10
-1.0
 20
-0.1
 30
0.0
 11
0.0
 21
0.0
 31
0.0
 12
-1.0
 22
0.1
 32
0.0
 13
-1.0
 23
-0.1
 33
0.0
  0
LINE
  5
105
330
FA
100
AcDbEntity
  8
0
 62
     0
100
AcDbLine
 10
-1.0
 20
-0.1
 30
0.0
 11
0.0
 21
0.0
 31
0.0
  0
LINE
  5
106
330
FA
100
AcDbEntity
  8
0
 62
     0
100
AcDbLine
 10
0.0
 20
0.0
 30
0.0
 11
-1.0
 21
0.1
 31
0.0
  0
LINE
  5
107
330
FA
100
AcDbEntity
  8
0
 62
     0
100
AcDbLine
 10
-1.0
 20
0.1
 30
0.0
 11
-1.0
 21
-0.1
 31
0.0
  0
ENDBLK
  5
FC
330
FA
100
AcDbEntity
  8
0
100
AcDbBlockEnd
  0
ENDSEC
  0
SECTION
  2
ENTITIES
  0
LINE
  5
109
330
75
100
AcDbEntity
  8
Hidden (ISO)
100
AcDbLine
 10
282.8607308308992
 20
190.2845137633626
 30
0.0
 11
282.8607308308992
 21
186.9845137633626
 31
0.0
  0
LINE
  5
10A
330
75
100
AcDbEntity
  8
Hidden (ISO)
100
AcDbLine
 10
282.8607308308992
 20
238.8845137633627
 30
0.0
 11
282.8607308308992
 21
235.5845137633627
 31
0.0
  0
LINE
  5
10B
330
75
100
AcDbEntity
  8
Hidden (ISO)
100
AcDbLine
 10
281.1222143501857
 20
190.2845137633626
 30
0.0
 11
282.8607308308992
 21
190.2845137633626
 31
0.0
  0
LINE
  5
10C
330
75
100
AcDbEntity
  8
Hidden (ISO)
100
AcDbLine
 10
281.1222143501857
 20
186.9845137633626
 30
0.0
 11
282.8607308308992
 21
186.9845137633626
 31
0.0
  0
LINE
  5
10D
330
75
100
AcDbEntity
  8
Hidden (ISO)
100
AcDbLine
 10
281.1222143501857
 20
238.8845137633627
 30
0.0
 11
282.8607308308992
 21
238.8845137633627
 31
0.0
  0
LINE
  5
10E
330
75
100
AcDbEntity
  8
Hidden (ISO)
100
AcDbLine
 10
281.1222143501857
 20
235.5845137633627
 30
0.0
 11
282.8607308308992
 21
235.5845137633627
 31
0.0
  0
LINE
  5
10F
330
75
100
AcDbEntity
  8
Visible (ISO)
100
AcDbLine
 10
281.1222143501857
 20
234.9845137633626
 30
0.0
 11
281.1222143501857
 21
239.4845137633627
 31
0.0
  0
LINE
  5
110
330
75
100
AcDbEntity
  8
Visible (ISO)
100
AcDbLine
 10
281.1222143501857
 20
190.8845137633626
 30
0.0
 11
281.1222143501857
 21
186.3845137633626
 31
0.0
  0
CIRCLE
  5
111
330
75
100
AcDbEntity
  8
Visible (ISO)
100
AcDbCircle
 10
291.8222143501858
 20
145.5345137633626
 30
0.0
 40
2.600000000000004
  0
LINE
  5
112
330
75
100
AcDbEntity
  8
Visible (ISO)
100
AcDbLine
 10
326.8222143501857
 20
150.8345137633626
 30
0.0
 11
326.8222143501859
 21
142.3345137633626
 31
0.0
  0
LINE
  5
113
330
75
100
AcDbEntity
  8
Visible (ISO)
100
AcDbLine
 10
326.8222143501859
 20
142.3345137633626
 30
0.0
 11
328.8222143501858
 21
140.3345137633627
 31
0.0
  0
LINE
  5
114
330
75
100
AcDbEntity
  8
Visible (ISO)
100
AcDbLine
 10
328.8222143501858
 20
140.3345137633627
 30
0.0
 11
340.8222143501857
 21
140.3345137633627
 31
0.0
  0
LINE
  5
115
330
75
100
AcDbEntity
  8
Visible (ISO)
100
AcDbLine
 10
340.8222143501857
 20
140.3345137633627
 30
0.0
 11
342.8222143501858
 21
142.3345137633627
 31
0.0
  0
LINE
  5
116
330
75
100
AcDbEntity
  8
Visible (ISO)
100
AcDbLine
 10
342.8222143501858
 20
142.3345137633627
 30
0.0
 11
342.8222143501858
 21
283.3345137633626
 31
0.0
  0
LINE
  5
117
330
75
100
AcDbEntity
  8
Visible (ISO)
100
AcDbLine
 10
342.8222143501858
 20
283.3345137633626
 30
0.0
 11
340.8222143501859
 21
285.3345137633626
 31
0.0
  0
LINE
  5
118
330
75
100
AcDbEntity
  8
Visible (ISO)
100
AcDbLine
 10
340.8222143501859
 20
285.3345137633626
 30
0.0
 11
328.8222143501858
 21
285.3345137633627
 31
0.0
  0
LINE
  5
119
330
75
100
AcDbEntity
  8
Visible (ISO)
100
AcDbLine
 10
328.8222143501858
 20
285.3345137633627
 30
0.0
 11
326.8222143501859
 21
283.3345137633626
 31
0.0
  0
LINE
  5
11A
330
75
100
AcDbEntity
  8
Visible (ISO)
100
AcDbLine
 10
326.8222143501859
 20
283.3345137633626
 30
0.0
 11
326.8222143501859
 21
274.8345137633627
 31
0.0
  0
LINE
  5
11B
330
75
100
AcDbEntity
  8
Visible (ISO)
100
AcDbLine
 10
326.8222143501859
 20
274.8345137633627
 30
0.0
 11
299.8222143501858
 21
274.8345137633627
 31
0.0
  0
LINE
  5
11C
330
75
100
AcDbEntity
  8
Visible (ISO)
100
AcDbLine
 10
299.8222143501858
 20
274.8345137633627
 30
0.0
 11
299.8222143501858
 21
283.3345137633626
 31
0.0
  0
LINE
  5
11D
330
75
100
AcDbEntity
  8
Visible (ISO)
100
AcDbLine
 10
299.8222143501858
 20
283.3345137633626
 30
0.0
 11
297.8222143501858
 21
285.3345137633626
 31
0.0
  0
LINE
  5
11E
330
75
100
AcDbEntity
  8
Visible (ISO)
100
AcDbLine
 10
297.8222143501858
 20
285.3345137633626
 30
0.0
 11
285.8222143501858
 21
285.3345137633627
 31
0.0
  0
LINE
  5
11F
330
75
100
AcDbEntity
  8
Visible (ISO)
100
AcDbLine
 10
285.8222143501858
 20
285.3345137633627
 30
0.0
 11
283.8222143501858
 21
283.3345137633626
 31
0.0
  0
LINE
  5
120
330
75
100
AcDbEntity
  8
Visible (ISO)
100
AcDbLine
 10
283.8222143501858
 20
283.3345137633626
 30
0.0
 11
283.8222143501858
 21
270.3345137633627
 31
0.0
  0
LINE
  5
121
330
75
100
AcDbEntity
  8
Visible (ISO)
100
AcDbLine
 10
283.8222143501858
 20
270.3345137633627
 30
0.0
 11
280.3222143501858
 21
270.3345137633627
 31
0.0
  0
LINE
  5
122
330
75
100
AcDbEntity
  8
Visible (ISO)
100
AcDbLine
 10
280.3222143501858
 20
155.3345137633626
 30
0.0
 11
283.8222143501858
 21
155.3345137633626
 31
0.0
  0
LINE
  5
123
330
75
100
AcDbEntity
  8
Visible (ISO)
100
AcDbLine
 10
283.8222143501858
 20
155.3345137633626
 30
0.0
 11
283.8222143501858
 21
142.3345137633626
 31
0.0
  0
LINE
  5
124
330
75
100
AcDbEntity
  8
Visible (ISO)
100
AcDbLine
 10
283.8222143501858
 20
142.3345137633626
 30
0.0
 11
285.8222143501857
 21
140.3345137633627
 31
0.0
  0
LINE
  5
125
330
75
100
AcDbEntity
  8
Visible (ISO)
100
AcDbLine
 10
285.8222143501857
 20
140.3345137633627
 30
0.0
 11
297.8222143501857
 21
140.3345137633627
 31
0.0
  0
LINE
  5
126
330
75
100
AcDbEntity
  8
Visible (ISO)
100
AcDbLine
 10
297.8222143501857
 20
140.3345137633627
 30
0.0
 11
299.8222143501858
 21
142.3345137633626
 31
0.0
  0
LINE
  5
127
330
75
100
AcDbEntity
  8
Visible (ISO)
100
AcDbLine
 10
299.8222143501858
 20
142.3345137633626
 30
0.0
 11
299.8222143501858
 21
150.8345137633626
 31
0.0
  0
LINE
  5
128
330
75
100
AcDbEntity
  8
Visible (ISO)
100
AcDbLine
 10
299.8222143501858
 20
150.8345137633626
 30
0.0
 11
326.8222143501857
 21
150.8345137633626
 31
0.0
  0
CIRCLE
  5
129
330
75
100
AcDbEntity
  8
Visible (ISO)
100
AcDbCircle
 10
291.8222143501858
 20
280.3345137633627
 30
0.0
 40
2.600000000000004
  0
CIRCLE
  5
12A
330
75
100
AcDbEntity
  8
Visible (ISO)
100
AcDbCircle
 10
334.8222143501858
 20
280.3345137633627
 30
0.0
 40
2.600000000000004
  0
CIRCLE
  5
12B
330
75
100
AcDbEntity
  8
Visible (ISO)
100
AcDbCircle
 10
334.8222143501858
 20
145.3345137633627
 30
0.0
 40
2.600000000000004
  0
LINE
  5
12C
330
75
100
AcDbEntity
  8
Visible (ISO)
100
AcDbLine
 10
290.8222143501859
 20
193.4645137633626
 30
0.0
 11
290.8222143501859
 21
195.2645137633626
 31
0.0
  0
LINE
  5
12D
330
75
100
AcDbEntity
  8
Visible (ISO)
100
AcDbLine
 10
290.8222143501859
 20
195.2645137633626
 30
0.0
 11
298.8222143501858
 21
195.2645137633626
 31
0.0
  0
LINE
  5
12E
330
75
100
AcDbEntity
  8
Visible (ISO)
100
AcDbLine
 10
298.8222143501858
 20
195.2645137633626
 30
0.0
 11
298.8222143501858
 21
193.4645137633626
 31
0.0
  0
LINE
  5
12F
330
75
100
AcDbEntity
  8
Visible (ISO)
100
AcDbLine
 10
298.8222143501858
 20
193.4645137633626
 30
0.0
 11
290.8222143501859
 21
193.4645137633626
 31
0.0
  0
LINE
  5
130
330
75
100
AcDbEntity
  8
Visible (ISO)
100
AcDbLine
 10
330.8222143501859
 20
193.4645137633626
 30
0.0
 11
330.8222143501859
 21
195.2645137633626
 31
0.0
  0
LINE
  5
131
330
75
100
AcDbEntity
  8
Visible (ISO)
100
AcDbLine
 10
330.8222143501859
 20
195.2645137633626
 30
0.0
 11
338.8222143501858
 21
195.2645137633626
 31
0.0
  0
LINE
  5
132
330
75
100
AcDbEntity
  8
Visible (ISO)
100
AcDbLine
 10
338.8222143501858
 20
195.2645137633626
 30
0.0
 11
338.8222143501858
 21
193.4645137633626
 31
0.0
  0
LINE
  5
133
330
75
100
AcDbEntity
  8
Visible (ISO)
100
AcDbLine
 10
338.8222143501858
 20
193.4645137633626
 30
0.0
 11
330.8222143501859
 21
193.4645137633626
 31
0.0
  0
CIRCLE
  5
134
330
75
100
AcDbEntity
  8
Visible (ISO)
100
AcDbCircle
 10
294.8222143501858
 20
237.2345137633626
 30
0.0
 40
1.349999999999997
  0
CIRCLE
  5
135
330
75
100
AcDbEntity
  8
Visible (ISO)
100
AcDbCircle
 10
294.8222143501858
 20
188.6345137633626
 30
0.0
 40
1.35
  0
CIRCLE
  5
136
330
75
100
AcDbEntity
  8
Visible (ISO)
100
AcDbCircle
 10
334.8222143501858
 20
237.2345137633626
 30
0.0
 40
1.349999999999997
  0
CIRCLE
  5
137
330
75
100
AcDbEntity
  8
Visible (ISO)
100
AcDbCircle
 10
334.8222143501858
 20
188.6345137633626
 30
0.0
 40
1.35
  0
CIRCLE
  5
138
330
75
100
AcDbEntity
  8
Visible (ISO)
100
AcDbCircle
 10
312.8222143501858
 20
208.2345137633626
 30
0.0
 40
2.25
  0
LINE
  5
139
330
75
100
AcDbEntity
  8
Visible (ISO)
100
AcDbLine
 10
310.6222143501858
 20
178.0345137633626
 30
0.0
 11
315.0222143501858
 21
178.0345137633626
 31
0.0
  0
LINE
  5
13A
330
75
100
AcDbEntity
  8
Visible (ISO)
100
AcDbLine
 10
310.6222143501858
 20
182.4345137633626
 30
0.0
 11
310.6222143501858
 21
178.0345137633626
 31
0.0
  0
LINE
  5
13B
330
75
100
AcDbEntity
  8
Visible (ISO)
100
AcDbLine
 10
315.0222143501858
 20
182.4345137633626
 30
0.0
 11
310.6222143501858
 21
182.4345137633626
 31
0.0
  0
LINE
  5
13C
330
75
100
AcDbEntity
  8
Visible (ISO)
100
AcDbLine
 10
315.0222143501858
 20
178.0345137633626
 30
0.0
 11
315.0222143501858
 21
182.4345137633626
 31
0.0
  0
LINE
  5
13D
330
75
100
AcDbEntity
  8
Visible (ISO)
100
AcDbLine
 10
308.6222143501858
 20
198.6345137633626
 30
0.0
 11
308.6222143501858
 21
193.2345137633626
 31
0.0
  0
LINE
  5
13E
330
75
100
AcDbEntity
  8
Visible (ISO)
100
AcDbLine
 10
317.0222143501858
 20
198.6345137633626
 30
0.0
 11
308.6222143501858
 21
198.6345137633626
 31
0.0
  0
LINE
  5
13F
330
75
100
AcDbEntity
  8
Visible (ISO)
100
AcDbLine
 10
317.0222143501858
 20
193.2345137633626
 30
0.0
 11
317.0222143501858
 21
198.6345137633626
 31
0.0
  0
LINE
  5
140
330
75
100
AcDbEntity
  8
Visible (ISO)
100
AcDbLine
 10
315.0222143501858
 20
191.2345137633626
 30
0.0
 11
317.0222143501858
 21
193.2345137633626
 31
0.0
  0
LINE
  5
141
330
75
100
AcDbEntity
  8
Visible (ISO)
100
AcDbLine
 10
315.0222143501858
 20
184.4345137633626
 30
0.0
 11
315.0222143501858
 21
191.2345137633626
 31
0.0
  0
LINE
  5
142
330
75
100
AcDbEntity
  8
Visible (ISO)
100
AcDbLine
 10
310.6222143501858
 20
184.4345137633626
 30
0.0
 11
315.0222143501858
 21
184.4345137633626
 31
0.0
  0
LINE
  5
143
330
75
100
AcDbEntity
  8
Visible (ISO)
100
AcDbLine
 10
310.6222143501858
 20
191.2345137633626
 30
0.0
 11
310.6222143501858
 21
184.4345137633626
 31
0.0
  0
LINE
  5
144
330
75
100
AcDbEntity
  8
Visible (ISO)
100
AcDbLine
 10
308.6222143501858
 20
193.2345137633626
 30
0.0
 11
310.6222143501858
 21
191.2345137633626
 31
0.0
  0
LINE
  5
145
330
75
100
AcDbEntity
  8
Visible (ISO)
100
AcDbLine
 10
308.6222143501858
 20
265.6345137633626
 30
0.0
 11
308.6222143501858
 21
260.2345137633626
 31
0.0
  0
LINE
  5
146
330
75
100
AcDbEntity
  8
Visible (ISO)
100
AcDbLine
 10
317.0222143501858
 20
265.6345137633626
 30
0.0
 11
308.6222143501858
 21
265.6345137633626
 31
0.0
  0
LINE
  5
147
330
75
100
AcDbEntity
  8
Visible (ISO)
100
AcDbLine
 10
317.0222143501858
 20
260.2345137633626
 30
0.0
 11
317.0222143501858
 21
265.6345137633626
 31
0.0
  0
LINE
  5
148
330
75
100
AcDbEntity
  8
Visible (ISO)
100
AcDbLine
 10
315.0222143501858
 20
258.2345137633627
 30
0.0
 11
317.0222143501858
 21
260.2345137633626
 31
0.0
  0
LINE
  5
149
330
75
100
AcDbEntity
  8
Visible (ISO)
100
AcDbLine
 10
315.0222143501858
 20
251.4345137633626
 30
0.0
 11
315.0222143501858
 21
258.2345137633627
 31
0.0
  0
LINE
  5
14A
330
75
100
AcDbEntity
  8
Visible (ISO)
100
AcDbLine
 10
310.6222143501858
 20
251.4345137633626
 30
0.0
 11
315.0222143501858
 21
251.4345137633626
 31
0.0
  0
LINE
  5
14B
330
75
100
AcDbEntity
  8
Visible (ISO)
100
AcDbLine
 10
310.6222143501858
 20
258.2345137633627
 30
0.0
 11
310.6222143501858
 21
251.4345137633626
 31
0.0
  0
LINE
  5
14C
330
75
100
AcDbEntity
  8
Visible (ISO)
100
AcDbLine
 10
308.6222143501858
 20
260.2345137633626
 30
0.0
 11
310.6222143501858
 21
258.2345137633627
 31
0.0
  0
LINE
  5
14D
330
75
100
AcDbEntity
  8
Visible (ISO)
100
AcDbLine
 10
280.3222143501858
 20
155.3345137633626
 30
0.0
 11
279.3222143501858
 21
155.3345137633626
 31
0.0
  0
LINE
  5
14E
330
75
100
AcDbEntity
  8
Visible (ISO)
100
AcDbLine
 10
280.3222143501858
 20
270.3345137633627
 30
0.0
 11
279.3222143501858
 21
270.3345137633627
 31
0.0
  0
LINE
  5
14F
330
75
100
AcDbEntity
  8
Visible (ISO)
100
AcDbLine
 10
279.3222143501856
 20
155.3345137633626
 30
0.0
 11
279.3222143501856
 21
270.3345137633627
 31
0.0
  0
LINE
  5
150
330
75
100
AcDbEntity
  8
Visible (ISO)
100
AcDbLine
 10
277.8222143501855
 20
155.3345137633626
 30
0.0
 11
277.8222143501855
 21
270.3345137633627
 31
0.0
  0
ARC
  5
151
330
75
100
AcDbEntity
  8
Visible (ISO)
100
AcDbCircle
 10
280.3222143501857
 20
176.6739798574298
 30
0.0
 40
1.000000000000048
100
AcDbArc
 50
135.0
 51
180.0
  0
LINE
  5
152
330
75
100
AcDbEntity
  8
Visible (ISO)
100
AcDbLine
 10
283.0899813031521
 20
180.8559603727693
 30
0.0
 11
279.6151075689991
 21
177.3810866386164
 31
0.0
  0
ARC
  5
153
330
75
100
AcDbEntity
  8
Visible (ISO)
100
AcDbCircle
 10
281.3222143501857
 20
182.6237273257356
 30
0.0
 40
2.499999999999968
100
AcDbArc
 50
315.0000000000006
 51
0.0
  0
LINE
  5
154
330
75
100
AcDbEntity
  8
Visible (ISO)
100
AcDbLine
 10
283.8222143501857
 20
194.2095137633626
 30
0.0
 11
283.8222143501857
 21
182.6237273257357
 31
0.0
  0
LINE
  5
155
330
75
100
AcDbEntity
  8
Visible (ISO)
100
AcDbLine
 10
282.3222143501857
 20
194.2095137633626
 30
0.0
 11
283.8222143501857
 21
194.2095137633626
 31
0.0
  0
LINE
  5
156
330
75
100
AcDbEntity
  8
Visible (ISO)
100
AcDbLine
 10
282.3222143501857
 20
182.6237273257357
 30
0.0
 11
282.3222143501857
 21
194.2095137633626
 31
0.0
  0
ARC
  5
157
330
75
100
AcDbEntity
  8
Visible (ISO)
100
AcDbCircle
 10
281.3222143501857
 20
182.6237273257356
 30
0.0
 40
1.000000000000001
100
AcDbArc
 50
315.0000000000029
 51
0.0
  0
LINE
  5
158
330
75
100
AcDbEntity
  8
Visible (ISO)
100
AcDbLine
 10
279.3222143501856
 20
179.2095137633624
 30
0.0
 11
282.0293211313722
 21
181.9166205445491
 31
0.0
  0
ARC
  5
159
330
75
100
AcDbEntity
  8
Visible (ISO)
100
AcDbCircle
 10
280.3222143501857
 20
249.1950476692954
 30
0.0
 40
1.000000000000032
100
AcDbArc
 50
180.0
 51
225.0000000000015
  0
LINE
  5
15A
330
75
100
AcDbEntity
  8
Visible (ISO)
100
AcDbLine
 10
279.3222143501856
 20
246.6595137633628
 30
0.0
 11
282.0293211313722
 21
243.9524069821761
 31
0.0
  0
ARC
  5
15B
330
75
100
AcDbEntity
  8
Visible (ISO)
100
AcDbCircle
 10
281.3222143501857
 20
243.2453002009896
 30
0.0
 40
0.9999999999999918
100
AcDbArc
 50
0.0
 51
44.99999999999711
  0
LINE
  5
15C
330
75
100
AcDbEntity
  8
Visible (ISO)
100
AcDbLine
 10
282.3222143501857
 20
243.2453002009896
 30
0.0
 11
282.3222143501857
 21
231.6595137633627
 31
0.0
  0
LINE
  5
15D
330
75
100
AcDbEntity
  8
Visible (ISO)
100
AcDbLine
 10
282.3222143501857
 20
231.6595137633627
 30
0.0
 11
283.8222143501857
 21
231.6595137633627
 31
0.0
  0
LINE
  5
15E
330
75
100
AcDbEntity
  8
Visible (ISO)
100
AcDbLine
 10
283.8222143501857
 20
231.6595137633627
 30
0.0
 11
283.8222143501857
 21
243.2453002009896
 31
0.0
  0
ARC
  5
15F
330
75
100
AcDbEntity
  8
Visible (ISO)
100
AcDbCircle
 10
281.3222143501857
 20
243.2453002009896
 30
0.0
 40
2.499999999999968
100
AcDbArc
 50
0.0
 51
44.99999999999942
  0
LINE
  5
160
330
75
100
AcDbEntity
  8
Visible (ISO)
100
AcDbLine
 10
283.0899813031521
 20
245.013067153956
 30
0.0
 11
279.6151075689991
 21
248.4879408881088
 31
0.0
  0
LINE
  5
161
330
75
100
AcDbEntity
  8
Visible (ISO)
100
AcDbLine
 10
279.3222143501856
 20
270.3345137633627
 30
0.0
 11
277.8222143501855
 21
270.3345137633627
 31
0.0
  0
LINE
  5
162
330
75
100
AcDbEntity
  8
Visible (ISO)
100
AcDbLine
 10
277.8222143501855
 20
155.3345137633626
 30
0.0
 11
279.3222143501856
 21
155.3345137633626
 31
0.0
  0
LINE
  5
163
330
75
100
AcDbEntity
  8
Visible (ISO)
100
AcDbLine
 10
282.3222143501857
 20
234.9845137633626
 30
0.0
 11
281.1222143501857
 21
234.9845137633626
 31
0.0
  0
LINE
  5
164
330
75
100
AcDbEntity
  8
Visible (ISO)
100
AcDbLine
 10
282.3222143501857
 20
239.4845137633627
 30
0.0
 11
281.1222143501857
 21
239.4845137633627
 31
0.0
  0
LINE
  5
165
330
75
100
AcDbEntity
  8
Visible (ISO)
100
AcDbLine
 10
282.3222143501857
 20
186.3845137633626
 30
0.0
 11
281.1222143501857
 21
186.3845137633626
 31
0.0
  0
LINE
  5
166
330
75
100
AcDbEntity
  8
Visible (ISO)
100
AcDbLine
 10
282.3222143501857
 20
190.8845137633625
 30
0.0
 11
281.1222143501857
 21
190.8845137633625
 31
0.0
  0
LINE
  5
167
330
75
100
AcDbEntity
  8
Hidden (ISO)
100
AcDbLine
 10
278.5544473972194
 20
178.4417468103962
 30
0.0
 11
279.3222143501856
 21
179.2095137633624
 31
0.0
  0
ARC
  5
168
330
75
100
AcDbEntity
  8
Hidden (ISO)
100
AcDbCircle
 10
280.3222143501857
 20
176.6739798574298
 30
0.0
 40
2.500000000000022
100
AcDbArc
 50
134.9999999999988
 51
180.0
  0
ARC
  5
169
330
75
100
AcDbEntity
  8
Hidden (ISO)
100
AcDbCircle
 10
280.3222143501857
 20
249.1950476692954
 30
0.0
 40
2.500000000000035
100
AcDbArc
 50
180.0
 51
225.0000000000006
  0
LINE
  5
16A
330
75
100
AcDbEntity
  8
Hidden (ISO)
100
AcDbLine
 10
278.5544473972194
 20
247.427280716329
 30
0.0
 11
279.3222143501856
 21
246.6595137633628
 31
0.0
  0
LINE
  5
16B
330
75
100
AcDbEntity
  8
Hidden (ISO)
100
AcDbLine
 10
279.3222143501856
 20
226.6595137633626
 30
0.0
 11
277.8222143501856
 21
226.6595137633626
 31
0.0
  0
LINE
  5
16C
330
75
100
AcDbEntity
  8
Hidden (ISO)
100
AcDbLine
 10
279.3222143501856
 20
173.7095137633626
 30
0.0
 11
277.8222143501856
 21
173.7095137633626
 31
0.0
  0
LINE
  5
16D
330
75
100
AcDbEntity
  8
Hidden (ISO)
100
AcDbLine
 10
279.3222143501856
 20
199.2095137633626
 30
0.0
 11
277.8222143501856
 21
199.2095137633626
 31
0.0
  0
LINE
  5
16E
330
75
100
AcDbEntity
  8
Hidden (ISO)
100
AcDbLine
 10
279.3222143501856
 20
252.1595137633626
 30
0.0
 11
277.8222143501856
 21
252.1595137633626
 31
0.0
  0
ARC
  5
16F
330
75
100
AcDbEntity
  8
Hidden (ISO)
100
AcDbCircle
 10
282.3222143501857
 20
191.6845137633626
 30
0.0
 40
1.5
100
AcDbArc
 50
291.0394697813185
 51
0.0
  0
ARC
  5
170
330
75
100
AcDbEntity
  8
Hidden (ISO)
100
AcDbCircle
 10
282.3222143501857
 20
185.5845137633625
 30
0.0
 40
1.5
100
AcDbArc
 50
0.0
 51
68.9605302186832
  0
ARC
  5
171
330
75
100
AcDbEntity
  8
Hidden (ISO)
100
AcDbCircle
 10
282.3222143501857
 20
234.1845137633626
 30
0.0
 40
1.5
100
AcDbArc
 50
0.0
 51
68.9605302186832
  0
ARC
  5
172
330
75
100
AcDbEntity
  8
Hidden (ISO)
100
AcDbCircle
 10
282.3222143501857
 20
240.2845137633626
 30
0.0
 40
1.5
100
AcDbArc
 50
291.0394697813168
 51
0.0
  0
CIRCLE
  5
173
330
75
100
AcDbEntity
  8
Visible (ISO)
100
AcDbCircle
 10
453.8534702262484
 20
188.6345137633625
 30
0.0
 40
1.65
  0
CIRCLE
  5
174
330
75
100
AcDbEntity
  8
Visible (ISO)
100
AcDbCircle
 10
453.8534702262484
 20
237.2345137633626
 30
0.0
 40
1.65
  0
CIRCLE
  5
175
330
75
100
AcDbEntity
  8
Visible (ISO)
100
AcDbCircle
 10
413.8534702262484
 20
237.2345137633626
 30
0.0
 40
1.65
  0
CIRCLE
  5
176
330
75
100
AcDbEntity
  8
Visible (ISO)
100
AcDbCircle
 10
413.8534702262484
 20
188.6345137633625
 30
0.0
 40
1.65
  0
CIRCLE
  5
177
330
75
100
AcDbEntity
  8
Visible (ISO)
100
AcDbCircle
 10
453.8534702262484
 20
237.2345137633626
 30
0.0
 40
2.250000000000001
  0
CIRCLE
  5
178
330
75
100
AcDbEntity
  8
Visible (ISO)
100
AcDbCircle
 10
413.8534702262484
 20
237.2345137633626
 30
0.0
 40
2.249999999999999
  0
CIRCLE
  5
179
330
75
100
AcDbEntity
  8
Visible (ISO)
100
AcDbCircle
 10
413.8534702262484
 20
188.6345137633626
 30
0.0
 40
2.249999999999999
  0
CIRCLE
  5
17A
330
75
100
AcDbEntity
  8
Visible (ISO)
100
AcDbCircle
 10
453.8534702262484
 20
188.6345137633626
 30
0.0
 40
2.250000000000001
  0
LINE
  5
17B
330
75
100
AcDbEntity
  8
Visible (ISO)
100
AcDbLine
 10
389.1534702262498
 20
285.3345137633627
 30
0.0
 11
389.1534702262493
 21
283.3345137633626
 31
0.0
  0
LINE
  5
17C
330
75
100
AcDbEntity
  8
Visible (ISO)
100
AcDbLine
 10
389.1534702262493
 20
283.3345137633626
 30
0.0
 11
389.1534702262493
 21
270.3345137633627
 31
0.0
  0
LINE
  5
17D
330
75
100
AcDbEntity
  8
Visible (ISO)
100
AcDbLine
 10
389.1534702262493
 20
155.3345137633626
 30
0.0
 11
389.1534702262493
 21
142.3345137633626
 31
0.0
  0
LINE
  5
17E
330
75
100
AcDbEntity
  8
Visible (ISO)
100
AcDbLine
 10
389.1534702262493
 20
142.3345137633626
 30
0.0
 11
389.1534702262498
 21
140.3345137633627
 31
0.0
  0
LINE
  5
17F
330
75
100
AcDbEntity
  8
Visible (ISO)
100
AcDbLine
 10
387.6534702262499
 20
140.3345137633627
 30
0.0
 11
387.6534702262492
 21
142.3345137633626
 31
0.0
  0
LINE
  5
180
330
75
100
AcDbEntity
  8
Visible (ISO)
100
AcDbLine
 10
387.6534702262492
 20
155.3345137633626
 30
0.0
 11
387.6534702262492
 21
142.3345137633626
 31
0.0
  0
LINE
  5
181
330
75
100
AcDbEntity
  8
Visible (ISO)
100
AcDbLine
 10
387.6534702262483
 20
155.3345137633626
 30
0.0
 11
387.6534702262483
 21
270.3345137633627
 31
0.0
  0
LINE
  5
182
330
75
100
AcDbEntity
  8
Visible (ISO)
100
AcDbLine
 10
387.6534702262492
 20
283.3345137633626
 30
0.0
 11
387.6534702262492
 21
270.3345137633627
 31
0.0
  0
LINE
  5
183
330
75
100
AcDbEntity
  8
Visible (ISO)
100
AcDbLine
 10
387.6534702262492
 20
283.3345137633626
 30
0.0
 11
387.6534702262499
 21
285.3345137633627
 31
0.0
  0
LINE
  5
184
330
75
100
AcDbEntity
  8
Visible (ISO)
100
AcDbLine
 10
389.1534702262498
 20
140.3345137633627
 30
0.0
 11
387.6534702262499
 21
140.3345137633627
 31
0.0
  0
LINE
  5
185
330
75
100
AcDbEntity
  8
Visible (ISO)
100
AcDbLine
 10
389.1534702262493
 20
283.3345137633626
 30
0.0
 11
387.6534702262492
 21
283.3345137633626
 31
0.0
  0
LINE
  5
186
330
75
100
AcDbEntity
  8
Visible (ISO)
100
AcDbLine
 10
387.6534702262492
 20
142.3345137633626
 30
0.0
 11
389.1534702262493
 21
142.3345137633626
 31
0.0
  0
LINE
  5
187
330
75
100
AcDbEntity
  8
Visible (ISO)
100
AcDbLine
 10
387.6534702262499
 20
285.3345137633627
 30
0.0
 11
389.1534702262498
 21
285.3345137633627
 31
0.0
  0
LINE
  5
188
330
75
100
AcDbEntity
  8
Visible (ISO)
100
AcDbLine
 10
390.1534702262475
 20
155.3345137633626
 30
0.0
 11
387.6534702262483
 21
155.3345137633626
 31
0.0
  0
LINE
  5
189
330
75
100
AcDbEntity
  8
Visible (ISO)
100
AcDbLine
 10
390.1534702262475
 20
270.3345137633627
 30
0.0
 11
387.6534702262483
 21
270.3345137633627
 31
0.0
  0
LINE
  5
18A
330
75
100
AcDbEntity
  8
Visible (ISO)
100
AcDbLine
 10
463.1534702262475
 20
155.3345137633626
 30
0.0
 11
390.1534702262475
 21
155.3345137633626
 31
0.0
  0
LINE
  5
18B
330
75
100
AcDbEntity
  8
Visible (ISO)
100
AcDbLine
 10
463.1534702262475
 20
155.3345137633626
 30
0.0
 11
463.1534702262475
 21
270.3345137633627
 31
0.0
  0
LINE
  5
18C
330
75
100
AcDbEntity
  8
Visible (ISO)
100
AcDbLine
 10
463.1534702262475
 20
270.3345137633627
 30
0.0
 11
390.1534702262475
 21
270.3345137633627
 31
0.0
  0
LINE
  5
18D
330
75
100
AcDbEntity
  8
Visible (ISO)
100
AcDbLine
 10
408.1034702262474
 20
199.2095137633626
 30
0.0
 11
408.1034702262474
 21
173.7095137633626
 31
0.0
  0
LINE
  5
18E
330
75
100
AcDbEntity
  8
Visible (ISO)
100
AcDbLine
 10
419.6034702262474
 20
199.2095137633626
 30
0.0
 11
408.1034702262474
 21
199.2095137633626
 31
0.0
  0
LINE
  5
18F
330
75
100
AcDbEntity
  8
Visible (ISO)
100
AcDbLine
 10
419.6034702262474
 20
173.7095137633626
 30
0.0
 11
419.6034702262474
 21
199.2095137633626
 31
0.0
  0
LINE
  5
190
330
75
100
AcDbEntity
  8
Visible (ISO)
100
AcDbLine
 10
417.6034702262474
 20
173.7095137633626
 30
0.0
 11
419.6034702262474
 21
173.7095137633626
 31
0.0
  0
LINE
  5
191
330
75
100
AcDbEntity
  8
Visible (ISO)
100
AcDbLine
 10
417.6034702262474
 20
173.7095137633626
 30
0.0
 11
417.6034702262474
 21
176.6739798574298
 31
0.0
  0
LINE
  5
192
330
75
100
AcDbEntity
  8
Visible (ISO)
100
AcDbLine
 10
410.1034702262474
 20
173.7095137633626
 30
0.0
 11
410.1034702262474
 21
176.6739798574298
 31
0.0
  0
LINE
  5
193
330
75
100
AcDbEntity
  8
Visible (ISO)
100
AcDbLine
 10
408.1034702262474
 20
173.7095137633626
 30
0.0
 11
410.1034702262474
 21
173.7095137633626
 31
0.0
  0
LINE
  5
194
330
75
100
AcDbEntity
  8
Visible (ISO)
100
AcDbLine
 10
419.6034702262474
 20
252.1595137633626
 30
0.0
 11
417.6034702262474
 21
252.1595137633627
 31
0.0
  0
LINE
  5
195
330
75
100
AcDbEntity
  8
Visible (ISO)
100
AcDbLine
 10
419.6034702262474
 20
226.6595137633626
 30
0.0
 11
419.6034702262474
 21
252.1595137633626
 31
0.0
  0
LINE
  5
196
330
75
100
AcDbEntity
  8
Visible (ISO)
100
AcDbLine
 10
408.1034702262474
 20
226.6595137633626
 30
0.0
 11
419.6034702262474
 21
226.6595137633626
 31
0.0
  0
LINE
  5
197
330
75
100
AcDbEntity
  8
Visible (ISO)
100
AcDbLine
 10
408.1034702262474
 20
252.1595137633626
 30
0.0
 11
408.1034702262474
 21
226.6595137633626
 31
0.0
  0
LINE
  5
198
330
75
100
AcDbEntity
  8
Visible (ISO)
100
AcDbLine
 10
410.1034702262474
 20
252.1595137633626
 30
0.0
 11
408.1034702262474
 21
252.1595137633626
 31
0.0
  0
LINE
  5
199
330
75
100
AcDbEntity
  8
Visible (ISO)
100
AcDbLine
 10
410.1034702262474
 20
252.1595137633626
 30
0.0
 11
410.1034702262474
 21
249.1950476692954
 31
0.0
  0
LINE
  5
19A
330
75
100
AcDbEntity
  8
Visible (ISO)
100
AcDbLine
 10
417.6034702262474
 20
252.1595137633627
 30
0.0
 11
417.6034702262474
 21
249.1950476692954
 31
0.0
  0
LINE
  5
19B
330
75
100
AcDbEntity
  8
Visible (ISO)
100
AcDbLine
 10
459.6034702262474
 20
252.1595137633626
 30
0.0
 11
457.6034702262473
 21
252.1595137633627
 31
0.0
  0
LINE
  5
19C
330
75
100
AcDbEntity
  8
Visible (ISO)
100
AcDbLine
 10
459.6034702262474
 20
226.6595137633626
 30
0.0
 11
459.6034702262474
 21
252.1595137633626
 31
0.0
  0
LINE
  5
19D
330
75
100
AcDbEntity
  8
Visible (ISO)
100
AcDbLine
 10
448.1034702262475
 20
226.6595137633626
 30
0.0
 11
459.6034702262474
 21
226.6595137633626
 31
0.0
  0
LINE
  5
19E
330
75
100
AcDbEntity
  8
Visible (ISO)
100
AcDbLine
 10
448.1034702262475
 20
252.1595137633626
 30
0.0
 11
448.1034702262475
 21
226.6595137633626
 31
0.0
  0
LINE
  5
19F
330
75
100
AcDbEntity
  8
Visible (ISO)
100
AcDbLine
 10
450.1034702262473
 20
252.1595137633626
 30
0.0
 11
448.1034702262475
 21
252.1595137633626
 31
0.0
  0
LINE
  5
1A0
330
75
100
AcDbEntity
  8
Visible (ISO)
100
AcDbLine
 10
450.1034702262473
 20
252.1595137633626
 30
0.0
 11
450.1034702262473
 21
249.1950476692954
 31
0.0
  0
LINE
  5
1A1
330
75
100
AcDbEntity
  8
Visible (ISO)
100
AcDbLine
 10
457.6034702262473
 20
252.1595137633627
 30
0.0
 11
457.6034702262473
 21
249.1950476692954
 31
0.0
  0
LINE
  5
1A2
330
75
100
AcDbEntity
  8
Visible (ISO)
100
AcDbLine
 10
448.1034702262475
 20
199.2095137633626
 30
0.0
 11
448.1034702262475
 21
173.7095137633626
 31
0.0
  0
LINE
  5
1A3
330
75
100
AcDbEntity
  8
Visible (ISO)
100
AcDbLine
 10
459.6034702262474
 20
199.2095137633626
 30
0.0
 11
448.1034702262475
 21
199.2095137633626
 31
0.0
  0
LINE
  5
1A4
330
75
100
AcDbEntity
  8
Visible (ISO)
100
AcDbLine
 10
459.6034702262474
 20
173.7095137633626
 30
0.0
 11
459.6034702262474
 21
199.2095137633626
 31
0.0
  0
LINE
  5
1A5
330
75
100
AcDbEntity
  8
Visible (ISO)
100
AcDbLine
 10
457.6034702262473
 20
173.7095137633626
 30
0.0
 11
459.6034702262474
 21
173.7095137633626
 31
0.0
  0
LINE
  5
1A6
330
75
100
AcDbEntity
  8
Visible (ISO)
100
AcDbLine
 10
457.6034702262473
 20
173.7095137633626
 30
0.0
 11
457.6034702262473
 21
176.6739798574298
 31
0.0
  0
LINE
  5
1A7
330
75
100
AcDbEntity
  8
Visible (ISO)
100
AcDbLine
 10
450.1034702262473
 20
173.7095137633626
 30
0.0
 11
450.1034702262473
 21
176.6739798574298
 31
0.0
  0
LINE
  5
1A8
330
75
100
AcDbEntity
  8
Visible (ISO)
100
AcDbLine
 10
448.1034702262475
 20
173.7095137633626
 30
0.0
 11
450.1034702262473
 21
173.7095137633626
 31
0.0
  0
LINE
  5
1A9
330
75
100
AcDbEntity
  8
Visible (ISO)
100
AcDbLine
 10
417.6034702262487
 20
182.6237273257357
 30
0.0
 11
417.6034702262487
 21
194.2095137633626
 31
0.0
  0
LINE
  5
1AA
330
75
100
AcDbEntity
  8
Visible (ISO)
100
AcDbLine
 10
417.6034702262486
 20
181.9166205445491
 30
0.0
 11
417.6034702262487
 21
182.6237273257356
 31
0.0
  0
LINE
  5
1AB
330
75
100
AcDbEntity
  8
Visible (ISO)
100
AcDbLine
 10
417.6034702262476
 20
178.4417468103962
 30
0.0
 11
417.6034702262486
 21
181.9166205445491
 31
0.0
  0
LINE
  5
1AC
330
75
100
AcDbEntity
  8
Visible (ISO)
100
AcDbLine
 10
417.6034702262477
 20
178.4417468103962
 30
0.0
 11
417.6034702262475
 21
176.6739798574298
 31
0.0
  0
LINE
  5
1AD
330
75
100
AcDbEntity
  8
Visible (ISO)
100
AcDbLine
 10
457.6034702262488
 20
182.6237273257357
 30
0.0
 11
457.6034702262488
 21
194.2095137633626
 31
0.0
  0
LINE
  5
1AE
330
75
100
AcDbEntity
  8
Visible (ISO)
100
AcDbLine
 10
457.6034702262487
 20
181.9166205445491
 30
0.0
 11
457.6034702262488
 21
182.6237273257356
 31
0.0
  0
LINE
  5
1AF
330
75
100
AcDbEntity
  8
Visible (ISO)
100
AcDbLine
 10
457.6034702262476
 20
178.4417468103962
 30
0.0
 11
457.6034702262487
 21
181.9166205445491
 31
0.0
  0
LINE
  5
1B0
330
75
100
AcDbEntity
  8
Visible (ISO)
100
AcDbLine
 10
457.6034702262477
 20
178.4417468103962
 30
0.0
 11
457.6034702262474
 21
176.6739798574298
 31
0.0
  0
LINE
  5
1B1
330
75
100
AcDbEntity
  8
Visible (ISO)
100
AcDbLine
 10
457.6034702262477
 20
247.427280716329
 30
0.0
 11
457.6034702262474
 21
249.1950476692954
 31
0.0
  0
LINE
  5
1B2
330
75
100
AcDbEntity
  8
Visible (ISO)
100
AcDbLine
 10
457.6034702262476
 20
247.427280716329
 30
0.0
 11
457.6034702262487
 21
243.9524069821761
 31
0.0
  0
LINE
  5
1B3
330
75
100
AcDbEntity
  8
Visible (ISO)
100
AcDbLine
 10
457.6034702262487
 20
243.9524069821761
 30
0.0
 11
457.6034702262488
 21
243.2453002009896
 31
0.0
  0
LINE
  5
1B4
330
75
100
AcDbEntity
  8
Visible (ISO)
100
AcDbLine
 10
457.6034702262488
 20
243.2453002009896
 30
0.0
 11
457.6034702262488
 21
231.6595137633627
 31
0.0
  0
LINE
  5
1B5
330
75
100
AcDbEntity
  8
Visible (ISO)
100
AcDbLine
 10
450.1034702262487
 20
243.2453002009896
 30
0.0
 11
450.1034702262487
 21
231.6595137633627
 31
0.0
  0
LINE
  5
1B6
330
75
100
AcDbEntity
  8
Visible (ISO)
100
AcDbLine
 10
450.1034702262487
 20
243.9524069821761
 30
0.0
 11
450.1034702262487
 21
243.2453002009896
 31
0.0
  0
LINE
  5
1B7
330
75
100
AcDbEntity
  8
Visible (ISO)
100
AcDbLine
 10
450.1034702262476
 20
247.427280716329
 30
0.0
 11
450.1034702262487
 21
243.9524069821761
 31
0.0
  0
LINE
  5
1B8
330
75
100
AcDbEntity
  8
Visible (ISO)
100
AcDbLine
 10
450.1034702262477
 20
247.427280716329
 30
0.0
 11
450.1034702262475
 21
249.1950476692954
 31
0.0
  0
LINE
  5
1B9
330
75
100
AcDbEntity
  8
Visible (ISO)
100
AcDbLine
 10
410.1034702262487
 20
243.2453002009896
 30
0.0
 11
410.1034702262487
 21
231.6595137633627
 31
0.0
  0
LINE
  5
1BA
330
75
100
AcDbEntity
  8
Visible (ISO)
100
AcDbLine
 10
410.1034702262486
 20
243.9524069821761
 30
0.0
 11
410.1034702262487
 21
243.2453002009896
 31
0.0
  0
LINE
  5
1BB
330
75
100
AcDbEntity
  8
Visible (ISO)
100
AcDbLine
 10
410.1034702262476
 20
247.427280716329
 30
0.0
 11
410.1034702262486
 21
243.9524069821761
 31
0.0
  0
LINE
  5
1BC
330
75
100
AcDbEntity
  8
Visible (ISO)
100
AcDbLine
 10
410.1034702262477
 20
247.427280716329
 30
0.0
 11
410.1034702262475
 21
249.1950476692954
 31
0.0
  0
LINE
  5
1BD
330
75
100
AcDbEntity
  8
Visible (ISO)
100
AcDbLine
 10
450.1034702262477
 20
178.4417468103962
 30
0.0
 11
450.1034702262475
 21
176.6739798574298
 31
0.0
  0
LINE
  5
1BE
330
75
100
AcDbEntity
  8
Visible (ISO)
100
AcDbLine
 10
450.1034702262476
 20
178.4417468103962
 30
0.0
 11
450.1034702262487
 21
181.9166205445491
 31
0.0
  0
LINE
  5
1BF
330
75
100
AcDbEntity
  8
Visible (ISO)
100
AcDbLine
 10
450.1034702262487
 20
181.9166205445491
 30
0.0
 11
450.1034702262487
 21
182.6237273257356
 31
0.0
  0
LINE
  5
1C0
330
75
100
AcDbEntity
  8
Visible (ISO)
100
AcDbLine
 10
450.1034702262487
 20
182.6237273257357
 30
0.0
 11
450.1034702262487
 21
194.2095137633626
 31
0.0
  0
LINE
  5
1C1
330
75
100
AcDbEntity
  8
Visible (ISO)
100
AcDbLine
 10
410.1034702262477
 20
178.4417468103962
 30
0.0
 11
410.1034702262475
 21
176.6739798574298
 31
0.0
  0
LINE
  5
1C2
330
75
100
AcDbEntity
  8
Visible (ISO)
100
AcDbLine
 10
410.1034702262476
 20
178.4417468103962
 30
0.0
 11
410.1034702262486
 21
181.9166205445491
 31
0.0
  0
LINE
  5
1C3
330
75
100
AcDbEntity
  8
Visible (ISO)
100
AcDbLine
 10
410.1034702262486
 20
181.9166205445491
 30
0.0
 11
410.1034702262487
 21
182.6237273257356
 31
0.0
  0
LINE
  5
1C4
330
75
100
AcDbEntity
  8
Visible (ISO)
100
AcDbLine
 10
410.1034702262487
 20
182.6237273257357
 30
0.0
 11
410.1034702262487
 21
194.2095137633626
 31
0.0
  0
LINE
  5
1C5
330
75
100
AcDbEntity
  8
Visible (ISO)
100
AcDbLine
 10
417.6034702262477
 20
247.427280716329
 30
0.0
 11
417.6034702262475
 21
249.1950476692954
 31
0.0
  0
LINE
  5
1C6
330
75
100
AcDbEntity
  8
Visible (ISO)
100
AcDbLine
 10
417.6034702262476
 20
247.427280716329
 30
0.0
 11
417.6034702262486
 21
243.9524069821761
 31
0.0
  0
LINE
  5
1C7
330
75
100
AcDbEntity
  8
Visible (ISO)
100
AcDbLine
 10
417.6034702262486
 20
243.9524069821761
 30
0.0
 11
417.6034702262487
 21
243.2453002009896
 31
0.0
  0
LINE
  5
1C8
330
75
100
AcDbEntity
  8
Visible (ISO)
100
AcDbLine
 10
417.6034702262487
 20
243.2453002009896
 30
0.0
 11
417.6034702262487
 21
231.6595137633627
 31
0.0
  0
LINE
  5
1C9
330
75
100
AcDbEntity
  8
Visible (ISO)
100
AcDbLine
 10
410.1034702262487
 20
194.2095137633626
 30
0.0
 11
417.6034702262487
 21
194.2095137633626
 31
0.0
  0
LINE
  5
1CA
330
75
100
AcDbEntity
  8
Visible (ISO)
100
AcDbLine
 10
450.1034702262487
 20
194.2095137633626
 30
0.0
 11
457.6034702262488
 21
194.2095137633626
 31
0.0
  0
LINE
  5
1CB
330
75
100
AcDbEntity
  8
Visible (ISO)
100
AcDbLine
 10
450.1034702262487
 20
231.6595137633627
 30
0.0
 11
457.6034702262488
 21
231.6595137633627
 31
0.0
  0
LINE
  5
1CC
330
75
100
AcDbEntity
  8
Visible (ISO)
100
AcDbLine
 10
410.1034702262487
 20
231.6595137633627
 30
0.0
 11
417.6034702262487
 21
231.6595137633627
 31
0.0
  0
LINE
  5
1CD
330
75
100
AcDbEntity
  8
Hidden (ISO)
100
AcDbLine
 10
389.1534702262482
 20
155.3345137633626
 30
0.0
 11
389.1534702262482
 21
270.3345137633627
 31
0.0
  0
LINE
  5
1CE
330
75
100
AcDbEntity
  8
Hidden (ISO)
100
AcDbLine
 10
389.1534702262572
 20
182.4345137633626
 30
0.0
 11
387.6534702262572
 21
182.4345137633626
 31
0.0
  0
LINE
  5
1CF
330
75
100
AcDbEntity
  8
Hidden (ISO)
100
AcDbLine
 10
389.1534702262572
 20
251.4345137633626
 30
0.0
 11
387.6534702262572
 21
251.4345137633626
 31
0.0
  0
LINE
  5
1D0
330
75
100
AcDbEntity
  8
Hidden (ISO)
100
AcDbLine
 10
389.1534702262572
 20
258.2345137633627
 30
0.0
 11
387.6534702262572
 21
258.2345137633627
 31
0.0
  0
LINE
  5
1D1
330
75
100
AcDbEntity
  8
Hidden (ISO)
100
AcDbLine
 10
389.1534702262572
 20
178.0345137633626
 30
0.0
 11
387.6534702262572
 21
178.0345137633626
 31
0.0
  0
LINE
  5
1D2
330
75
100
AcDbEntity
  8
Hidden (ISO)
100
AcDbLine
 10
389.1534702262513
 20
193.4645137633626
 30
0.0
 11
387.6534702262513
 21
193.4645137633626
 31
0.0
  0
LINE
  5
1D3
330
75
100
AcDbEntity
  8
Hidden (ISO)
100
AcDbLine
 10
389.153470226254
 20
274.8345137633627
 30
0.0
 11
387.653470226254
 21
274.8345137633627
 31
0.0
  0
LINE
  5
1D4
330
75
100
AcDbEntity
  8
Hidden (ISO)
100
AcDbLine
 10
389.1534702262566
 20
265.6345137633626
 30
0.0
 11
387.6534702262566
 21
265.6345137633626
 31
0.0
  0
LINE
  5
1D5
330
75
100
AcDbEntity
  8
Hidden (ISO)
100
AcDbLine
 10
389.1534702262572
 20
184.4345137633626
 30
0.0
 11
387.6534702262572
 21
184.4345137633626
 31
0.0
  0
LINE
  5
1D6
330
75
100
AcDbEntity
  8
Hidden (ISO)
100
AcDbLine
 10
389.1534702262513
 20
195.2645137633626
 30
0.0
 11
387.6534702262513
 21
195.2645137633626
 31
0.0
  0
LINE
  5
1D7
330
75
100
AcDbEntity
  8
Hidden (ISO)
100
AcDbLine
 10
389.1534702262566
 20
260.2345137633626
 30
0.0
 11
387.6534702262566
 21
260.2345137633626
 31
0.0
  0
LINE
  5
1D8
330
75
100
AcDbEntity
  8
Hidden (ISO)
100
AcDbLine
 10
389.1534702262572
 20
191.2345137633626
 30
0.0
 11
387.6534702262572
 21
191.2345137633626
 31
0.0
  0
LINE
  5
1D9
330
75
100
AcDbEntity
  8
Hidden (ISO)
100
AcDbLine
 10
389.1534702262566
 20
193.2345137633626
 30
0.0
 11
387.6534702262566
 21
193.2345137633626
 31
0.0
  0
LINE
  5
1DA
330
75
100
AcDbEntity
  8
Hidden (ISO)
100
AcDbLine
 10
389.153470226254
 20
150.8345137633626
 30
0.0
 11
387.653470226254
 21
150.8345137633626
 31
0.0
  0
LINE
  5
1DB
330
75
100
AcDbEntity
  8
Hidden (ISO)
100
AcDbLine
 10
389.1534702262566
 20
198.6345137633626
 30
0.0
 11
387.6534702262566
 21
198.6345137633626
 31
0.0
  0
LINE
  5
1DC
330
75
100
AcDbEntity
  8
Hidden (ISO)
100
AcDbLine
 10
389.1534702262516
 20
142.9345137633626
 30
0.0
 11
387.6534702262517
 21
142.9345137633626
 31
0.0
  0
LINE
  5
1DD
330
75
100
AcDbEntity
  8
Hidden (ISO)
100
AcDbLine
 10
389.1534702262516
 20
148.1345137633626
 30
0.0
 11
387.6534702262517
 21
148.1345137633626
 31
0.0
  0
LINE
  5
1DE
330
75
100
AcDbEntity
  8
Hidden (ISO)
100
AcDbLine
 10
389.1534702262516
 20
277.7345137633626
 30
0.0
 11
387.6534702262517
 21
277.7345137633626
 31
0.0
  0
LINE
  5
1DF
330
75
100
AcDbEntity
  8
Hidden (ISO)
100
AcDbLine
 10
389.1534702262516
 20
282.9345137633627
 30
0.0
 11
387.6534702262517
 21
282.9345137633627
 31
0.0
  0
LINE
  5
1E0
330
75
100
AcDbEntity
  8
Hidden (ISO)
100
AcDbLine
 10
389.1534702262525
 20
187.2845137633626
 30
0.0
 11
387.6534702262525
 21
187.2845137633626
 31
0.0
  0
LINE
  5
1E1
330
75
100
AcDbEntity
  8
Hidden (ISO)
100
AcDbLine
 10
389.1534702262525
 20
189.9845137633626
 30
0.0
 11
387.6534702262525
 21
189.9845137633626
 31
0.0
  0
LINE
  5
1E2
330
75
100
AcDbEntity
  8
Hidden (ISO)
100
AcDbLine
 10
389.1534702262525
 20
235.8845137633626
 30
0.0
 11
387.6534702262525
 21
235.8845137633626
 31
0.0
  0
LINE
  5
1E3
330
75
100
AcDbEntity
  8
Hidden (ISO)
100
AcDbLine
 10
389.1534702262525
 20
238.5845137633626
 30
0.0
 11
387.6534702262525
 21
238.5845137633626
 31
0.0
  0
LINE
  5
1E4
330
75
100
AcDbEntity
  8
Hidden (ISO)
100
AcDbLine
 10
389.1534702262644
 20
142.7345137633626
 30
0.0
 11
387.6534702262643
 21
142.7345137633626
 31
0.0
  0
LINE
  5
1E5
330
75
100
AcDbEntity
  8
Hidden (ISO)
100
AcDbLine
 10
389.1534702262644
 20
147.9345137633627
 30
0.0
 11
387.6534702262643
 21
147.9345137633627
 31
0.0
  0
LINE
  5
1E6
330
75
100
AcDbEntity
  8
Hidden (ISO)
100
AcDbLine
 10
389.1534702262579
 20
205.9845137633626
 30
0.0
 11
387.6534702262578
 21
205.9845137633626
 31
0.0
  0
LINE
  5
1E7
330
75
100
AcDbEntity
  8
Hidden (ISO)
100
AcDbLine
 10
389.1534702262579
 20
210.4845137633626
 30
0.0
 11
387.6534702262578
 21
210.4845137633626
 31
0.0
  0
CIRCLE
  5
1E8
330
75
100
AcDbEntity
  8
Visible (ISO)
100
AcDbCircle
 10
169.6254721656349
 20
188.6345137633626
 30
0.0
 40
1.65
  0
CIRCLE
  5
1E9
330
75
100
AcDbEntity
  8
Visible (ISO)
100
AcDbCircle
 10
169.6254721656349
 20
237.2345137633626
 30
0.0
 40
1.65
  0
CIRCLE
  5
1EA
330
75
100
AcDbEntity
  8
Visible (ISO)
100
AcDbCircle
 10
209.6254721656348
 20
237.2345137633626
 30
0.0
 40
1.65
  0
CIRCLE
  5
1EB
330
75
100
AcDbEntity
  8
Visible (ISO)
100
AcDbCircle
 10
209.6254721656348
 20
188.6345137633626
 30
0.0
 40
1.65
  0
CIRCLE
  5
1EC
330
75
100
AcDbEntity
  8
Hidden (ISO)
100
AcDbCircle
 10
169.6254721656347
 20
237.2345137633626
 30
0.0
 40
2.250000000000001
  0
CIRCLE
  5
1ED
330
75
100
AcDbEntity
  8
Hidden (ISO)
100
AcDbCircle
 10
209.6254721656347
 20
237.2345137633626
 30
0.0
 40
2.249999999999999
  0
CIRCLE
  5
1EE
330
75
100
AcDbEntity
  8
Hidden (ISO)
100
AcDbCircle
 10
209.6254721656347
 20
188.6345137633626
 30
0.0
 40
2.249999999999999
  0
CIRCLE
  5
1EF
330
75
100
AcDbEntity
  8
Hidden (ISO)
100
AcDbCircle
 10
169.6254721656347
 20
188.6345137633626
 30
0.0
 40
2.250000000000001
  0
LINE
  5
1F0
330
75
100
AcDbEntity
  8
Hidden (ISO)
100
AcDbLine
 10
234.3254721656444
 20
182.4345137633626
 30
0.0
 11
235.8254721656444
 21
182.4345137633626
 31
0.0
  0
LINE
  5
1F1
330
75
100
AcDbEntity
  8
Hidden (ISO)
100
AcDbLine
 10
234.325472165645
 20
193.2345137633626
 30
0.0
 11
235.825472165645
 21
193.2345137633626
 31
0.0
  0
LINE
  5
1F2
330
75
100
AcDbEntity
  8
Hidden (ISO)
100
AcDbLine
 10
234.3254721656444
 20
191.2345137633626
 30
0.0
 11
235.8254721656444
 21
191.2345137633626
 31
0.0
  0
LINE
  5
1F3
330
75
100
AcDbEntity
  8
Hidden (ISO)
100
AcDbLine
 10
234.3254721656444
 20
178.0345137633626
 30
0.0
 11
235.8254721656444
 21
178.0345137633626
 31
0.0
  0
LINE
  5
1F4
330
75
100
AcDbEntity
  8
Hidden (ISO)
100
AcDbLine
 10
234.3254721656479
 20
150.8345137633626
 30
0.0
 11
235.8254721656479
 21
150.8345137633626
 31
0.0
  0
LINE
  5
1F5
330
75
100
AcDbEntity
  8
Hidden (ISO)
100
AcDbLine
 10
234.325472165645
 20
265.6345137633626
 30
0.0
 11
235.825472165645
 21
265.6345137633626
 31
0.0
  0
LINE
  5
1F6
330
75
100
AcDbEntity
  8
Hidden (ISO)
100
AcDbLine
 10
234.325472165645
 20
260.2345137633626
 30
0.0
 11
235.825472165645
 21
260.2345137633626
 31
0.0
  0
LINE
  5
1F7
330
75
100
AcDbEntity
  8
Hidden (ISO)
100
AcDbLine
 10
234.3254721656515
 20
193.4645137633626
 30
0.0
 11
235.8254721656515
 21
193.4645137633626
 31
0.0
  0
LINE
  5
1F8
330
75
100
AcDbEntity
  8
Hidden (ISO)
100
AcDbLine
 10
235.8254721656352
 20
270.3345137633627
 30
0.0
 11
234.3254721656351
 21
270.3345137633627
 31
0.0
  0
LINE
  5
1F9
330
75
100
AcDbEntity
  8
Hidden (ISO)
100
AcDbLine
 10
234.3254721656479
 20
274.8345137633627
 30
0.0
 11
235.8254721656479
 21
274.8345137633627
 31
0.0
  0
LINE
  5
1FA
330
75
100
AcDbEntity
  8
Hidden (ISO)
100
AcDbLine
 10
234.3254721656444
 20
184.4345137633626
 30
0.0
 11
235.8254721656444
 21
184.4345137633626
 31
0.0
  0
LINE
  5
1FB
330
75
100
AcDbEntity
  8
Hidden (ISO)
100
AcDbLine
 10
234.3254721656351
 20
155.3345137633626
 30
0.0
 11
235.8254721656352
 21
155.3345137633626
 31
0.0
  0
LINE
  5
1FC
330
75
100
AcDbEntity
  8
Hidden (ISO)
100
AcDbLine
 10
234.3254721656444
 20
258.2345137633627
 30
0.0
 11
235.8254721656444
 21
258.2345137633627
 31
0.0
  0
LINE
  5
1FD
330
75
100
AcDbEntity
  8
Hidden (ISO)
100
AcDbLine
 10
234.3254721656444
 20
251.4345137633626
 30
0.0
 11
235.8254721656444
 21
251.4345137633626
 31
0.0
  0
LINE
  5
1FE
330
75
100
AcDbEntity
  8
Hidden (ISO)
100
AcDbLine
 10
234.3254721656515
 20
195.2645137633626
 30
0.0
 11
235.8254721656515
 21
195.2645137633626
 31
0.0
  0
LINE
  5
1FF
330
75
100
AcDbEntity
  8
Hidden (ISO)
100
AcDbLine
 10
234.325472165645
 20
198.6345137633626
 30
0.0
 11
235.825472165645
 21
198.6345137633626
 31
0.0
  0
LINE
  5
200
330
75
100
AcDbEntity
  8
Hidden (ISO)
100
AcDbLine
 10
234.3254721656375
 20
148.1345137633626
 30
0.0
 11
235.8254721656376
 21
148.1345137633626
 31
0.0
  0
LINE
  5
201
330
75
100
AcDbEntity
  8
Hidden (ISO)
100
AcDbLine
 10
234.3254721656375
 20
142.9345137633626
 30
0.0
 11
235.8254721656376
 21
142.9345137633626
 31
0.0
  0
LINE
  5
202
330
75
100
AcDbEntity
  8
Hidden (ISO)
100
AcDbLine
 10
234.3254721656503
 20
189.9845137633626
 30
0.0
 11
235.8254721656503
 21
189.9845137633626
 31
0.0
  0
LINE
  5
203
330
75
100
AcDbEntity
  8
Hidden (ISO)
100
AcDbLine
 10
234.3254721656503
 20
187.2845137633626
 30
0.0
 11
235.8254721656503
 21
187.2845137633626
 31
0.0
  0
LINE
  5
204
330
75
100
AcDbEntity
  8
Hidden (ISO)
100
AcDbLine
 10
234.3254721656503
 20
238.5845137633626
 30
0.0
 11
235.8254721656503
 21
238.5845137633626
 31
0.0
  0
LINE
  5
205
330
75
100
AcDbEntity
  8
Hidden (ISO)
100
AcDbLine
 10
234.3254721656503
 20
235.8845137633626
 30
0.0
 11
235.8254721656503
 21
235.8845137633626
 31
0.0
  0
LINE
  5
206
330
75
100
AcDbEntity
  8
Hidden (ISO)
100
AcDbLine
 10
234.3254721656503
 20
147.9345137633627
 30
0.0
 11
235.8254721656503
 21
147.9345137633627
 31
0.0
  0
LINE
  5
207
330
75
100
AcDbEntity
  8
Hidden (ISO)
100
AcDbLine
 10
234.3254721656503
 20
142.7345137633626
 30
0.0
 11
235.8254721656503
 21
142.7345137633626
 31
0.0
  0
LINE
  5
208
330
75
100
AcDbEntity
  8
Hidden (ISO)
100
AcDbLine
 10
234.3254721656503
 20
282.9345137633627
 30
0.0
 11
235.8254721656503
 21
282.9345137633627
 31
0.0
  0
LINE
  5
209
330
75
100
AcDbEntity
  8
Hidden (ISO)
100
AcDbLine
 10
234.3254721656503
 20
277.7345137633626
 30
0.0
 11
235.8254721656503
 21
277.7345137633626
 31
0.0
  0
LINE
  5
20A
330
75
100
AcDbEntity
  8
Hidden (ISO)
100
AcDbLine
 10
234.3254721656437
 20
210.4845137633626
 30
0.0
 11
235.8254721656438
 21
210.4845137633626
 31
0.0
  0
LINE
  5
20B
330
75
100
AcDbEntity
  8
Hidden (ISO)
100
AcDbLine
 10
234.3254721656437
 20
205.9845137633626
 30
0.0
 11
235.8254721656438
 21
205.9845137633626
 31
0.0
  0
LINE
  5
20C
330
75
100
AcDbEntity
  8
Visible (ISO)
100
AcDbLine
 10
234.3254721656521
 20
140.3345137633627
 30
0.0
 11
234.3254721656526
 21
142.3345137633627
 31
0.0
  0
LINE
  5
20D
330
75
100
AcDbEntity
  8
Visible (ISO)
100
AcDbLine
 10
234.3254721656526
 20
142.3345137633627
 30
0.0
 11
234.3254721656526
 21
283.3345137633626
 31
0.0
  0
LINE
  5
20E
330
75
100
AcDbEntity
  8
Visible (ISO)
100
AcDbLine
 10
234.3254721656526
 20
283.3345137633626
 30
0.0
 11
234.3254721656521
 21
285.3345137633626
 31
0.0
  0
LINE
  5
20F
330
75
100
AcDbEntity
  8
Visible (ISO)
100
AcDbLine
 10
235.8254721656521
 20
285.3345137633627
 30
0.0
 11
235.8254721656526
 21
283.3345137633626
 31
0.0
  0
LINE
  5
210
330
75
100
AcDbEntity
  8
Visible (ISO)
100
AcDbLine
 10
235.8254721656526
 20
142.3345137633627
 30
0.0
 11
235.8254721656526
 21
283.3345137633626
 31
0.0
  0
LINE
  5
211
330
75
100
AcDbEntity
  8
Visible (ISO)
100
AcDbLine
 10
235.8254721656526
 20
142.3345137633627
 30
0.0
 11
235.8254721656521
 21
140.3345137633627
 31
0.0
  0
LINE
  5
212
330
75
100
AcDbEntity
  8
Visible (ISO)
100
AcDbLine
 10
235.8254721656526
 20
283.3345137633626
 30
0.0
 11
234.3254721656526
 21
283.3345137633626
 31
0.0
  0
LINE
  5
213
330
75
100
AcDbEntity
  8
Visible (ISO)
100
AcDbLine
 10
234.3254721656521
 20
285.3345137633626
 30
0.0
 11
235.8254721656521
 21
285.3345137633627
 31
0.0
  0
LINE
  5
214
330
75
100
AcDbEntity
  8
Visible (ISO)
100
AcDbLine
 10
235.8254721656521
 20
140.3345137633627
 30
0.0
 11
234.3254721656521
 21
140.3345137633627
 31
0.0
  0
LINE
  5
215
330
75
100
AcDbEntity
  8
Visible (ISO)
100
AcDbLine
 10
234.3254721656526
 20
142.3345137633627
 30
0.0
 11
235.8254721656526
 21
142.3345137633627
 31
0.0
  0
LINE
  5
216
330
75
100
AcDbEntity
  8
Visible (ISO)
100
AcDbLine
 10
234.3254721656341
 20
155.3345137633626
 30
0.0
 11
233.3254721656338
 21
155.3345137633626
 31
0.0
  0
LINE
  5
217
330
75
100
AcDbEntity
  8
Visible (ISO)
100
AcDbLine
 10
234.3254721656341
 20
270.3345137633627
 30
0.0
 11
233.3254721656338
 21
270.3345137633627
 31
0.0
  0
LINE
  5
218
330
75
100
AcDbEntity
  8
Visible (ISO)
100
AcDbLine
 10
160.3254721656338
 20
155.3345137633626
 30
0.0
 11
160.3254721656338
 21
270.3345137633627
 31
0.0
  0
LINE
  5
219
330
75
100
AcDbEntity
  8
Visible (ISO)
100
AcDbLine
 10
160.3254721656338
 20
155.3345137633626
 30
0.0
 11
233.3254721656338
 21
155.3345137633626
 31
0.0
  0
LINE
  5
21A
330
75
100
AcDbEntity
  8
Visible (ISO)
100
AcDbLine
 10
160.3254721656338
 20
270.3345137633627
 30
0.0
 11
233.3254721656338
 21
270.3345137633627
 31
0.0
  0
LINE
  5
21B
330
75
100
AcDbEntity
  8
Visible (ISO)
100
AcDbLine
 10
203.8754721656338
 20
199.2095137633626
 30
0.0
 11
215.3754721656338
 21
199.2095137633626
 31
0.0
  0
LINE
  5
21C
330
75
100
AcDbEntity
  8
Visible (ISO)
100
AcDbLine
 10
215.3754721656338
 20
199.2095137633626
 30
0.0
 11
215.3754721656338
 21
173.7095137633626
 31
0.0
  0
LINE
  5
21D
330
75
100
AcDbEntity
  8
Visible (ISO)
100
AcDbLine
 10
215.3754721656338
 20
173.7095137633626
 30
0.0
 11
213.3754721656338
 21
173.7095137633626
 31
0.0
  0
LINE
  5
21E
330
75
100
AcDbEntity
  8
Visible (ISO)
100
AcDbLine
 10
213.3754721656338
 20
176.6739798574298
 30
0.0
 11
213.3754721656338
 21
173.7095137633626
 31
0.0
  0
LINE
  5
21F
330
75
100
AcDbEntity
  8
Visible (ISO)
100
AcDbLine
 10
205.8754721656338
 20
176.6739798574298
 30
0.0
 11
205.8754721656338
 21
173.7095137633625
 31
0.0
  0
LINE
  5
220
330
75
100
AcDbEntity
  8
Visible (ISO)
100
AcDbLine
 10
205.8754721656338
 20
173.7095137633625
 30
0.0
 11
203.8754721656336
 21
173.7095137633626
 31
0.0
  0
LINE
  5
221
330
75
100
AcDbEntity
  8
Visible (ISO)
100
AcDbLine
 10
203.8754721656336
 20
173.7095137633626
 30
0.0
 11
203.8754721656338
 21
199.2095137633626
 31
0.0
  0
LINE
  5
222
330
75
100
AcDbEntity
  8
Visible (ISO)
100
AcDbLine
 10
203.8754721656338
 20
252.1595137633626
 30
0.0
 11
205.8754721656338
 21
252.1595137633626
 31
0.0
  0
LINE
  5
223
330
75
100
AcDbEntity
  8
Visible (ISO)
100
AcDbLine
 10
205.8754721656338
 20
249.1950476692954
 30
0.0
 11
205.8754721656338
 21
252.1595137633626
 31
0.0
  0
LINE
  5
224
330
75
100
AcDbEntity
  8
Visible (ISO)
100
AcDbLine
 10
213.3754721656338
 20
249.1950476692954
 30
0.0
 11
213.3754721656338
 21
252.1595137633626
 31
0.0
  0
LINE
  5
225
330
75
100
AcDbEntity
  8
Visible (ISO)
100
AcDbLine
 10
213.3754721656338
 20
252.1595137633626
 30
0.0
 11
215.3754721656338
 21
252.1595137633626
 31
0.0
  0
LINE
  5
226
330
75
100
AcDbEntity
  8
Visible (ISO)
100
AcDbLine
 10
215.3754721656338
 20
252.1595137633626
 30
0.0
 11
215.3754721656338
 21
226.6595137633626
 31
0.0
  0
LINE
  5
227
330
75
100
AcDbEntity
  8
Visible (ISO)
100
AcDbLine
 10
215.3754721656338
 20
226.6595137633626
 30
0.0
 11
203.8754721656336
 21
226.6595137633626
 31
0.0
  0
LINE
  5
228
330
75
100
AcDbEntity
  8
Visible (ISO)
100
AcDbLine
 10
203.8754721656336
 20
226.6595137633626
 30
0.0
 11
203.8754721656338
 21
252.1595137633626
 31
0.0
  0
LINE
  5
229
330
75
100
AcDbEntity
  8
Visible (ISO)
100
AcDbLine
 10
163.8754721656338
 20
252.1595137633626
 30
0.0
 11
165.8754721656338
 21
252.1595137633626
 31
0.0
  0
LINE
  5
22A
330
75
100
AcDbEntity
  8
Visible (ISO)
100
AcDbLine
 10
165.8754721656338
 20
249.1950476692954
 30
0.0
 11
165.8754721656338
 21
252.1595137633626
 31
0.0
  0
LINE
  5
22B
330
75
100
AcDbEntity
  8
Visible (ISO)
100
AcDbLine
 10
173.3754721656338
 20
249.1950476692954
 30
0.0
 11
173.3754721656338
 21
252.1595137633626
 31
0.0
  0
LINE
  5
22C
330
75
100
AcDbEntity
  8
Visible (ISO)
100
AcDbLine
 10
173.3754721656338
 20
252.1595137633626
 30
0.0
 11
175.3754721656338
 21
252.1595137633626
 31
0.0
  0
LINE
  5
22D
330
75
100
AcDbEntity
  8
Visible (ISO)
100
AcDbLine
 10
175.3754721656338
 20
252.1595137633626
 30
0.0
 11
175.3754721656338
 21
226.6595137633626
 31
0.0
  0
LINE
  5
22E
330
75
100
AcDbEntity
  8
Visible (ISO)
100
AcDbLine
 10
175.3754721656338
 20
226.6595137633626
 30
0.0
 11
163.8754721656336
 21
226.6595137633626
 31
0.0
  0
LINE
  5
22F
330
75
100
AcDbEntity
  8
Visible (ISO)
100
AcDbLine
 10
163.8754721656336
 20
226.6595137633626
 30
0.0
 11
163.8754721656338
 21
252.1595137633626
 31
0.0
  0
LINE
  5
230
330
75
100
AcDbEntity
  8
Visible (ISO)
100
AcDbLine
 10
163.8754721656338
 20
199.2095137633626
 30
0.0
 11
175.3754721656338
 21
199.2095137633626
 31
0.0
  0
LINE
  5
231
330
75
100
AcDbEntity
  8
Visible (ISO)
100
AcDbLine
 10
175.3754721656338
 20
199.2095137633626
 30
0.0
 11
175.3754721656338
 21
173.7095137633626
 31
0.0
  0
LINE
  5
232
330
75
100
AcDbEntity
  8
Visible (ISO)
100
AcDbLine
 10
175.3754721656338
 20
173.7095137633626
 30
0.0
 11
173.3754721656338
 21
173.7095137633626
 31
0.0
  0
LINE
  5
233
330
75
100
AcDbEntity
  8
Visible (ISO)
100
AcDbLine
 10
173.3754721656338
 20
176.6739798574298
 30
0.0
 11
173.3754721656338
 21
173.7095137633626
 31
0.0
  0
LINE
  5
234
330
75
100
AcDbEntity
  8
Visible (ISO)
100
AcDbLine
 10
165.8754721656338
 20
176.6739798574298
 30
0.0
 11
165.8754721656338
 21
173.7095137633625
 31
0.0
  0
LINE
  5
235
330
75
100
AcDbEntity
  8
Visible (ISO)
100
AcDbLine
 10
165.8754721656338
 20
173.7095137633625
 30
0.0
 11
163.8754721656336
 21
173.7095137633626
 31
0.0
  0
LINE
  5
236
330
75
100
AcDbEntity
  8
Visible (ISO)
100
AcDbLine
 10
163.8754721656336
 20
173.7095137633626
 30
0.0
 11
163.8754721656338
 21
199.2095137633626
 31
0.0
  0
LINE
  5
237
330
75
100
AcDbEntity
  8
Visible (ISO)
100
AcDbLine
 10
205.8754721656339
 20
177.3810866386163
 30
0.0
 11
205.8754721656338
 21
176.6739798574298
 31
0.0
  0
LINE
  5
238
330
75
100
AcDbEntity
  8
Visible (ISO)
100
AcDbLine
 10
205.8754721656349
 20
180.8559603727693
 30
0.0
 11
205.8754721656339
 21
177.3810866386164
 31
0.0
  0
LINE
  5
239
330
75
100
AcDbEntity
  8
Visible (ISO)
100
AcDbLine
 10
205.875472165635
 20
180.8559603727693
 30
0.0
 11
205.8754721656352
 21
182.6237273257356
 31
0.0
  0
LINE
  5
23A
330
75
100
AcDbEntity
  8
Visible (ISO)
100
AcDbLine
 10
205.8754721656351
 20
194.2095137633626
 30
0.0
 11
205.8754721656351
 21
182.6237273257357
 31
0.0
  0
LINE
  5
23B
330
75
100
AcDbEntity
  8
Visible (ISO)
100
AcDbLine
 10
165.8754721656339
 20
177.3810866386163
 30
0.0
 11
165.8754721656339
 21
176.6739798574298
 31
0.0
  0
LINE
  5
23C
330
75
100
AcDbEntity
  8
Visible (ISO)
100
AcDbLine
 10
165.8754721656349
 20
180.8559603727693
 30
0.0
 11
165.8754721656339
 21
177.3810866386164
 31
0.0
  0
LINE
  5
23D
330
75
100
AcDbEntity
  8
Visible (ISO)
100
AcDbLine
 10
165.8754721656349
 20
180.8559603727693
 30
0.0
 11
165.8754721656352
 21
182.6237273257356
 31
0.0
  0
LINE
  5
23E
330
75
100
AcDbEntity
  8
Visible (ISO)
100
AcDbLine
 10
165.8754721656352
 20
194.2095137633626
 30
0.0
 11
165.8754721656352
 21
182.6237273257357
 31
0.0
  0
LINE
  5
23F
330
75
100
AcDbEntity
  8
Visible (ISO)
100
AcDbLine
 10
165.8754721656339
 20
248.4879408881089
 30
0.0
 11
165.8754721656339
 21
249.1950476692954
 31
0.0
  0
LINE
  5
240
330
75
100
AcDbEntity
  8
Visible (ISO)
100
AcDbLine
 10
173.3754721656339
 20
248.4879408881088
 30
0.0
 11
173.3754721656339
 21
249.1950476692954
 31
0.0
  0
LINE
  5
241
330
75
100
AcDbEntity
  8
Visible (ISO)
100
AcDbLine
 10
165.8754721656352
 20
231.6595137633627
 30
0.0
 11
165.8754721656352
 21
243.2453002009896
 31
0.0
  0
LINE
  5
242
330
75
100
AcDbEntity
  8
Visible (ISO)
100
AcDbLine
 10
165.8754721656349
 20
245.013067153956
 30
0.0
 11
165.8754721656352
 21
243.2453002009896
 31
0.0
  0
LINE
  5
243
330
75
100
AcDbEntity
  8
Visible (ISO)
100
AcDbLine
 10
165.8754721656349
 20
245.013067153956
 30
0.0
 11
165.8754721656339
 21
248.4879408881088
 31
0.0
  0
LINE
  5
244
330
75
100
AcDbEntity
  8
Visible (ISO)
100
AcDbLine
 10
173.3754721656349
 20
245.013067153956
 30
0.0
 11
173.3754721656339
 21
248.4879408881088
 31
0.0
  0
LINE
  5
245
330
75
100
AcDbEntity
  8
Visible (ISO)
100
AcDbLine
 10
173.3754721656349
 20
245.013067153956
 30
0.0
 11
173.3754721656351
 21
243.2453002009896
 31
0.0
  0
LINE
  5
246
330
75
100
AcDbEntity
  8
Visible (ISO)
100
AcDbLine
 10
173.3754721656351
 20
231.6595137633627
 30
0.0
 11
173.3754721656351
 21
243.2453002009896
 31
0.0
  0
LINE
  5
247
330
75
100
AcDbEntity
  8
Visible (ISO)
100
AcDbLine
 10
205.8754721656339
 20
248.4879408881089
 30
0.0
 11
205.8754721656338
 21
249.1950476692954
 31
0.0
  0
LINE
  5
248
330
75
100
AcDbEntity
  8
Visible (ISO)
100
AcDbLine
 10
213.3754721656339
 20
248.4879408881088
 30
0.0
 11
213.3754721656339
 21
249.1950476692954
 31
0.0
  0
LINE
  5
249
330
75
100
AcDbEntity
  8
Visible (ISO)
100
AcDbLine
 10
213.3754721656349
 20
245.013067153956
 30
0.0
 11
213.3754721656339
 21
248.4879408881088
 31
0.0
  0
LINE
  5
24A
330
75
100
AcDbEntity
  8
Visible (ISO)
100
AcDbLine
 10
213.3754721656349
 20
245.013067153956
 30
0.0
 11
213.3754721656352
 21
243.2453002009896
 31
0.0
  0
LINE
  5
24B
330
75
100
AcDbEntity
  8
Visible (ISO)
100
AcDbLine
 10
213.3754721656351
 20
231.6595137633627
 30
0.0
 11
213.3754721656351
 21
243.2453002009896
 31
0.0
  0
LINE
  5
24C
330
75
100
AcDbEntity
  8
Visible (ISO)
100
AcDbLine
 10
213.3754721656339
 20
177.3810866386164
 30
0.0
 11
213.3754721656339
 21
176.6739798574298
 31
0.0
  0
LINE
  5
24D
330
75
100
AcDbEntity
  8
Visible (ISO)
100
AcDbLine
 10
173.3754721656351
 20
194.2095137633626
 30
0.0
 11
173.3754721656351
 21
182.6237273257357
 31
0.0
  0
LINE
  5
24E
330
75
100
AcDbEntity
  8
Visible (ISO)
100
AcDbLine
 10
173.3754721656349
 20
180.8559603727693
 30
0.0
 11
173.3754721656351
 21
182.6237273257356
 31
0.0
  0
LINE
  5
24F
330
75
100
AcDbEntity
  8
Visible (ISO)
100
AcDbLine
 10
173.3754721656349
 20
180.8559603727693
 30
0.0
 11
173.3754721656339
 21
177.3810866386164
 31
0.0
  0
LINE
  5
250
330
75
100
AcDbEntity
  8
Visible (ISO)
100
AcDbLine
 10
173.3754721656339
 20
177.3810866386164
 30
0.0
 11
173.3754721656339
 21
176.6739798574298
 31
0.0
  0
LINE
  5
251
330
75
100
AcDbEntity
  8
Visible (ISO)
100
AcDbLine
 10
213.3754721656351
 20
194.2095137633626
 30
0.0
 11
213.3754721656351
 21
182.6237273257357
 31
0.0
  0
LINE
  5
252
330
75
100
AcDbEntity
  8
Visible (ISO)
100
AcDbLine
 10
213.3754721656349
 20
180.8559603727693
 30
0.0
 11
213.3754721656352
 21
182.6237273257356
 31
0.0
  0
LINE
  5
253
330
75
100
AcDbEntity
  8
Visible (ISO)
100
AcDbLine
 10
213.3754721656349
 20
180.8559603727693
 30
0.0
 11
213.3754721656339
 21
177.3810866386164
 31
0.0
  0
LINE
  5
254
330
75
100
AcDbEntity
  8
Visible (ISO)
100
AcDbLine
 10
205.8754721656351
 20
231.6595137633627
 30
0.0
 11
205.8754721656351
 21
243.2453002009896
 31
0.0
  0
LINE
  5
255
330
75
100
AcDbEntity
  8
Visible (ISO)
100
AcDbLine
 10
205.875472165635
 20
245.013067153956
 30
0.0
 11
205.8754721656352
 21
243.2453002009896
 31
0.0
  0
LINE
  5
256
330
75
100
AcDbEntity
  8
Visible (ISO)
100
AcDbLine
 10
205.8754721656349
 20
245.013067153956
 30
0.0
 11
205.8754721656339
 21
248.4879408881088
 31
0.0
  0
LINE
  5
257
330
75
100
AcDbEntity
  8
Visible (ISO)
100
AcDbLine
 10
213.3754721656351
 20
194.2095137633626
 30
0.0
 11
205.8754721656351
 21
194.2095137633626
 31
0.0
  0
LINE
  5
258
330
75
100
AcDbEntity
  8
Visible (ISO)
100
AcDbLine
 10
173.3754721656351
 20
194.2095137633626
 30
0.0
 11
165.8754721656352
 21
194.2095137633626
 31
0.0
  0
LINE
  5
259
330
75
100
AcDbEntity
  8
Visible (ISO)
100
AcDbLine
 10
173.3754721656351
 20
231.6595137633627
 30
0.0
 11
165.8754721656352
 21
231.6595137633627
 31
0.0
  0
LINE
  5
25A
330
75
100
AcDbEntity
  8
Visible (ISO)
100
AcDbLine
 10
213.3754721656351
 20
231.6595137633627
 30
0.0
 11
205.8754721656351
 21
231.6595137633627
 31
0.0
  0
LINE
  5
25B
330
75
100
AcDbEntity
  8
Hidden (ISO)
100
AcDbLine
 10
282.8607308307517
 20
40.90740907920511
 30
0.0
 11
282.8607308307517
 21
37.6074090792051
 31
0.0
  0
LINE
  5
25C
330
75
100
AcDbEntity
  8
Hidden (ISO)
100
AcDbLine
 10
282.8607308307517
 20
80.90740907920508
 30
0.0
 11
282.8607308307517
 21
77.60740907920508
 31
0.0
  0
LINE
  5
25D
330
75
100
AcDbEntity
  8
Hidden (ISO)
100
AcDbLine
 10
281.1222143500383
 20
40.90740907920511
 30
0.0
 11
282.8607308307517
 21
40.90740907920511
 31
0.0
  0
LINE
  5
25E
330
75
100
AcDbEntity
  8
Hidden (ISO)
100
AcDbLine
 10
281.1222143500383
 20
37.6074090792051
 30
0.0
 11
282.8607308307517
 21
37.6074090792051
 31
0.0
  0
LINE
  5
25F
330
75
100
AcDbEntity
  8
Hidden (ISO)
100
AcDbLine
 10
281.1222143500383
 20
80.9074090792051
 30
0.0
 11
282.8607308307517
 21
80.9074090792051
 31
0.0
  0
LINE
  5
260
330
75
100
AcDbEntity
  8
Hidden (ISO)
100
AcDbLine
 10
281.1222143500383
 20
77.6074090792051
 30
0.0
 11
282.8607308307517
 21
77.6074090792051
 31
0.0
  0
LINE
  5
261
330
75
100
AcDbEntity
  8
Hidden (ISO)
100
AcDbLine
 10
281.1222143500383
 20
37.0074090792051
 30
0.0
 11
281.1222143500383
 21
41.50740907920511
 31
0.0
  0
LINE
  5
262
330
75
100
AcDbEntity
  8
Hidden (ISO)
100
AcDbLine
 10
281.1222143500383
 20
77.0074090792051
 30
0.0
 11
281.1222143500383
 21
81.50740907920511
 31
0.0
  0
LINE
  5
263
330
75
100
AcDbEntity
  8
Hidden (ISO)
100
AcDbLine
 10
298.8222143500383
 20
103.9574090791926
 30
0.0
 11
298.8222143500383
 21
105.4574090791926
 31
0.0
  0
LINE
  5
264
330
75
100
AcDbEntity
  8
Hidden (ISO)
100
AcDbLine
 10
310.6222143500383
 20
103.9574090792113
 30
0.0
 11
310.6222143500383
 21
105.4574090792113
 31
0.0
  0
LINE
  5
265
330
75
100
AcDbEntity
  8
Hidden (ISO)
100
AcDbLine
 10
317.0222143500383
 20
103.9574090792135
 30
0.0
 11
317.0222143500383
 21
105.4574090792135
 31
0.0
  0
LINE
  5
266
330
75
100
AcDbEntity
  8
Hidden (ISO)
100
AcDbLine
 10
308.6222143500383
 20
103.9574090792135
 30
0.0
 11
308.6222143500383
 21
105.4574090792135
 31
0.0
  0
LINE
  5
267
330
75
100
AcDbEntity
  8
Hidden (ISO)
100
AcDbLine
 10
290.8222143500383
 20
103.9574090791926
 30
0.0
 11
290.8222143500383
 21
105.4574090791926
 31
0.0
  0
LINE
  5
268
330
75
100
AcDbEntity
  8
Hidden (ISO)
100
AcDbLine
 10
315.0222143500383
 20
103.9574090792113
 30
0.0
 11
315.0222143500383
 21
105.4574090792113
 31
0.0
  0
LINE
  5
269
330
75
100
AcDbEntity
  8
Hidden (ISO)
100
AcDbLine
 10
330.8222143500383
 20
103.9574090791926
 30
0.0
 11
330.8222143500383
 21
105.4574090791926
 31
0.0
  0
LINE
  5
26A
330
75
100
AcDbEntity
  8
Hidden (ISO)
100
AcDbLine
 10
338.8222143500383
 20
103.9574090791926
 30
0.0
 11
338.8222143500383
 21
105.4574090791926
 31
0.0
  0
LINE
  5
26B
330
75
100
AcDbEntity
  8
Hidden (ISO)
100
AcDbLine
 10
279.3222143500381
 20
35.50740907920953
 30
0.0
 11
277.8222143500382
 21
35.50740907920953
 31
0.0
  0
LINE
  5
26C
330
75
100
AcDbEntity
  8
Hidden (ISO)
100
AcDbLine
 10
279.3222143500382
 20
73.50740907920952
 30
0.0
 11
277.8222143500382
 21
73.50740907920952
 31
0.0
  0
LINE
  5
26D
330
75
100
AcDbEntity
  8
Hidden (ISO)
100
AcDbLine
 10
279.3222143500383
 20
83.00740907920953
 30
0.0
 11
277.8222143500383
 21
83.00740907920953
 31
0.0
  0
LINE
  5
26E
330
75
100
AcDbEntity
  8
Hidden (ISO)
100
AcDbLine
 10
279.3222143500383
 20
85.00740907920951
 30
0.0
 11
277.8222143500383
 21
85.00740907920951
 31
0.0
  0
LINE
  5
26F
330
75
100
AcDbEntity
  8
Hidden (ISO)
100
AcDbLine
 10
279.3222143500381
 20
43.00740907920952
 30
0.0
 11
277.8222143500381
 21
43.00740907920952
 31
0.0
  0
LINE
  5
270
330
75
100
AcDbEntity
  8
Hidden (ISO)
100
AcDbLine
 10
279.3222143500381
 20
45.00740907920952
 30
0.0
 11
277.8222143500381
 21
45.00740907920952
 31
0.0
  0
LINE
  5
271
330
75
100
AcDbEntity
  8
Hidden (ISO)
100
AcDbLine
 10
279.3222143500382
 20
75.50740907920953
 30
0.0
 11
277.8222143500382
 21
75.50740907920955
 31
0.0
  0
LINE
  5
272
330
75
100
AcDbEntity
  8
Hidden (ISO)
100
AcDbLine
 10
279.3222143500381
 20
33.50740907920953
 30
0.0
 11
277.8222143500381
 21
33.50740907920953
 31
0.0
  0
LINE
  5
273
330
75
100
AcDbEntity
  8
Hidden (ISO)
100
AcDbLine
 10
282.3222143500382
 20
43.00740907920689
 30
0.0
 11
282.3222143500382
 21
35.50740907920689
 31
0.0
  0
LINE
  5
274
330
75
100
AcDbEntity
  8
Hidden (ISO)
100
AcDbLine
 10
282.3222143500382
 20
83.00740907920687
 30
0.0
 11
282.3222143500382
 21
75.50740907920687
 31
0.0
  0
LINE
  5
275
330
75
100
AcDbEntity
  8
Hidden (ISO)
100
AcDbLine
 10
282.3222143500383
 20
37.0074090792051
 30
0.0
 11
281.1222143500383
 21
37.0074090792051
 31
0.0
  0
LINE
  5
276
330
75
100
AcDbEntity
  8
Hidden (ISO)
100
AcDbLine
 10
282.3222143500383
 20
41.50740907920511
 30
0.0
 11
281.1222143500383
 21
41.50740907920511
 31
0.0
  0
LINE
  5
277
330
75
100
AcDbEntity
  8
Hidden (ISO)
100
AcDbLine
 10
282.3222143500383
 20
77.00740907920511
 30
0.0
 11
281.1222143500383
 21
77.00740907920511
 31
0.0
  0
LINE
  5
278
330
75
100
AcDbEntity
  8
Hidden (ISO)
100
AcDbLine
 10
282.3222143500383
 20
81.50740907920511
 30
0.0
 11
281.1222143500383
 21
81.50740907920511
 31
0.0
  0
LINE
  5
279
330
75
100
AcDbEntity
  8
Hidden (ISO)
100
AcDbLine
 10
289.2222143500383
 20
103.9574090792178
 30
0.0
 11
289.2222143500383
 21
105.4574090792178
 31
0.0
  0
LINE
  5
27A
330
75
100
AcDbEntity
  8
Hidden (ISO)
100
AcDbLine
 10
294.4222143500383
 20
103.9574090792178
 30
0.0
 11
294.4222143500383
 21
105.4574090792178
 31
0.0
  0
LINE
  5
27B
330
75
100
AcDbEntity
  8
Hidden (ISO)
100
AcDbLine
 10
293.4722143500384
 20
103.9574090792051
 30
0.0
 11
293.4722143500384
 21
105.457409079205
 31
0.0
  0
LINE
  5
27C
330
75
100
AcDbEntity
  8
Hidden (ISO)
100
AcDbLine
 10
296.1722143500383
 20
103.9574090792051
 30
0.0
 11
296.1722143500383
 21
105.457409079205
 31
0.0
  0
LINE
  5
27D
330
75
100
AcDbEntity
  8
Hidden (ISO)
100
AcDbLine
 10
333.4722143500383
 20
103.9574090792051
 30
0.0
 11
333.4722143500383
 21
105.457409079205
 31
0.0
  0
LINE
  5
27E
330
75
100
AcDbEntity
  8
Hidden (ISO)
100
AcDbLine
 10
336.1722143500383
 20
103.9574090792051
 30
0.0
 11
336.1722143500383
 21
105.457409079205
 31
0.0
  0
LINE
  5
27F
330
75
100
AcDbEntity
  8
Hidden (ISO)
100
AcDbLine
 10
332.2222143500383
 20
103.9574090792178
 30
0.0
 11
332.2222143500383
 21
105.4574090792178
 31
0.0
  0
LINE
  5
280
330
75
100
AcDbEntity
  8
Hidden (ISO)
100
AcDbLine
 10
337.4222143500384
 20
103.9574090792178
 30
0.0
 11
337.4222143500384
 21
105.4574090792178
 31
0.0
  0
LINE
  5
281
330
75
100
AcDbEntity
  8
Hidden (ISO)
100
AcDbLine
 10
310.5722143500383
 20
103.9574090791964
 30
0.0
 11
310.5722143500383
 21
105.4574090791964
 31
0.0
  0
LINE
  5
282
330
75
100
AcDbEntity
  8
Hidden (ISO)
100
AcDbLine
 10
315.0722143500384
 20
103.9574090791964
 30
0.0
 11
315.0722143500384
 21
105.4574090791964
 31
0.0
  0
ARC
  5
283
330
75
100
AcDbEntity
  8
Hidden (ISO)
100
AcDbCircle
 10
282.3222143500382
 20
36.20740907920511
 30
0.0
 40
1.5
100
AcDbArc
 50
0.0
 51
68.96053021868173
  0
ARC
  5
284
330
75
100
AcDbEntity
  8
Hidden (ISO)
100
AcDbCircle
 10
282.3222143500382
 20
42.3074090792051
 30
0.0
 40
1.5
100
AcDbArc
 50
291.0394697813182
 51
0.0
  0
ARC
  5
285
330
75
100
AcDbEntity
  8
Hidden (ISO)
100
AcDbCircle
 10
282.3222143500382
 20
76.20740907920509
 30
0.0
 40
1.5
100
AcDbArc
 50
0.0
 51
68.96053021868173
  0
ARC
  5
286
330
75
100
AcDbEntity
  8
Hidden (ISO)
100
AcDbCircle
 10
282.3222143500382
 20
82.30740907920509
 30
0.0
 40
1.5
100
AcDbArc
 50
291.0394697813168
 51
0.0
  0
LINE
  5
287
330
75
100
AcDbEntity
  8
Visible (ISO)
100
AcDbLine
 10
342.8222143500383
 20
103.9574090792187
 30
0.0
 11
340.8222143500383
 21
103.9574090792193
 31
0.0
  0
LINE
  5
288
330
75
100
AcDbEntity
  8
Visible (ISO)
100
AcDbLine
 10
340.8222143500383
 20
103.9574090792193
 30
0.0
 11
328.8222143500383
 21
103.9574090792193
 31
0.0
  0
LINE
  5
289
330
75
100
AcDbEntity
  8
Visible (ISO)
100
AcDbLine
 10
328.8222143500383
 20
103.9574090792193
 30
0.0
 11
326.8222143500383
 21
103.9574090792187
 31
0.0
  0
LINE
  5
28A
330
75
100
AcDbEntity
  8
Visible (ISO)
100
AcDbLine
 10
326.8222143500383
 20
103.9574090792162
 30
0.0
 11
299.8222143500383
 21
103.9574090792162
 31
0.0
  0
LINE
  5
28B
330
75
100
AcDbEntity
  8
Visible (ISO)
100
AcDbLine
 10
299.8222143500383
 20
103.9574090792187
 30
0.0
 11
297.8222143500383
 21
103.9574090792193
 31
0.0
  0
LINE
  5
28C
330
75
100
AcDbEntity
  8
Visible (ISO)
100
AcDbLine
 10
297.8222143500383
 20
103.9574090792193
 30
0.0
 11
285.8222143500383
 21
103.9574090792193
 31
0.0
  0
LINE
  5
28D
330
75
100
AcDbEntity
  8
Visible (ISO)
100
AcDbLine
 10
285.8222143500383
 20
103.9574090792193
 30
0.0
 11
283.8222143500384
 21
103.9574090792187
 31
0.0
  0
LINE
  5
28E
330
75
100
AcDbEntity
  8
Visible (ISO)
100
AcDbLine
 10
283.8222143500384
 20
103.9574090792149
 30
0.0
 11
280.3222143500383
 21
103.9574090792149
 31
0.0
  0
LINE
  5
28F
330
75
100
AcDbEntity
  8
Visible (ISO)
100
AcDbLine
 10
283.8222143500384
 20
105.4574090792149
 30
0.0
 11
280.3222143500383
 21
105.4574090792149
 31
0.0
  0
LINE
  5
290
330
75
100
AcDbEntity
  8
Visible (ISO)
100
AcDbLine
 10
283.8222143500384
 20
105.4574090792187
 30
0.0
 11
285.8222143500383
 21
105.4574090792193
 31
0.0
  0
LINE
  5
291
330
75
100
AcDbEntity
  8
Visible (ISO)
100
AcDbLine
 10
297.8222143500383
 20
105.4574090792193
 30
0.0
 11
285.8222143500383
 21
105.4574090792193
 31
0.0
  0
LINE
  5
292
330
75
100
AcDbEntity
  8
Visible (ISO)
100
AcDbLine
 10
297.8222143500383
 20
105.4574090792193
 30
0.0
 11
299.8222143500383
 21
105.4574090792187
 31
0.0
  0
LINE
  5
293
330
75
100
AcDbEntity
  8
Visible (ISO)
100
AcDbLine
 10
326.8222143500383
 20
105.4574090792162
 30
0.0
 11
299.8222143500383
 21
105.4574090792162
 31
0.0
  0
LINE
  5
294
330
75
100
AcDbEntity
  8
Visible (ISO)
100
AcDbLine
 10
326.8222143500383
 20
105.4574090792187
 30
0.0
 11
328.8222143500383
 21
105.4574090792193
 31
0.0
  0
LINE
  5
295
330
75
100
AcDbEntity
  8
Visible (ISO)
100
AcDbLine
 10
340.8222143500383
 20
105.4574090792193
 30
0.0
 11
328.8222143500383
 21
105.4574090792193
 31
0.0
  0
LINE
  5
296
330
75
100
AcDbEntity
  8
Visible (ISO)
100
AcDbLine
 10
340.8222143500383
 20
105.4574090792193
 30
0.0
 11
342.8222143500383
 21
105.4574090792187
 31
0.0
  0
LINE
  5
297
330
75
100
AcDbEntity
  8
Visible (ISO)
100
AcDbLine
 10
342.8222143500383
 20
105.4574090792187
 30
0.0
 11
342.8222143500383
 21
103.9574090792187
 31
0.0
  0
LINE
  5
298
330
75
100
AcDbEntity
  8
Visible (ISO)
100
AcDbLine
 10
340.8222143500383
 20
103.9574090792193
 30
0.0
 11
340.8222143500383
 21
105.4574090792193
 31
0.0
  0
LINE
  5
299
330
75
100
AcDbEntity
  8
Visible (ISO)
100
AcDbLine
 10
283.8222143500384
 20
103.9574090792187
 30
0.0
 11
283.8222143500384
 21
105.4574090792187
 31
0.0
  0
LINE
  5
29A
330
75
100
AcDbEntity
  8
Visible (ISO)
100
AcDbLine
 10
328.8222143500383
 20
105.4574090792193
 30
0.0
 11
328.8222143500383
 21
103.9574090792193
 31
0.0
  0
LINE
  5
29B
330
75
100
AcDbEntity
  8
Visible (ISO)
100
AcDbLine
 10
326.8222143500383
 20
103.9574090792187
 30
0.0
 11
326.8222143500383
 21
105.4574090792187
 31
0.0
  0
LINE
  5
29C
330
75
100
AcDbEntity
  8
Visible (ISO)
100
AcDbLine
 10
285.8222143500383
 20
105.4574090792193
 30
0.0
 11
285.8222143500383
 21
103.9574090792193
 31
0.0
  0
LINE
  5
29D
330
75
100
AcDbEntity
  8
Visible (ISO)
100
AcDbLine
 10
299.8222143500383
 20
105.4574090792187
 30
0.0
 11
299.8222143500383
 21
103.9574090792187
 31
0.0
  0
LINE
  5
29E
330
75
100
AcDbEntity
  8
Visible (ISO)
100
AcDbLine
 10
297.8222143500383
 20
103.9574090792193
 30
0.0
 11
297.8222143500383
 21
105.4574090792193
 31
0.0
  0
ARC
  5
29F
330
75
100
AcDbEntity
  8
Visible (ISO)
100
AcDbCircle
 10
280.3222143500383
 20
102.9574090792149
 30
0.0
 40
1.000000000000001
100
AcDbArc
 50
90.0
 51
180.0
  0
ARC
  5
2A0
330
75
100
AcDbEntity
  8
Visible (ISO)
100
AcDbCircle
 10
280.3222143500383
 20
102.9574090792149
 30
0.0
 40
2.499999999999999
100
AcDbArc
 50
90.0
 51
180.0
  0
LINE
  5
2A1
330
75
100
AcDbEntity
  8
Visible (ISO)
100
AcDbLine
 10
279.3222143500381
 20
29.9574090792149
 30
0.0
 11
279.3222143500383
 21
102.9574090792149
 31
0.0
  0
LINE
  5
2A2
330
75
100
AcDbEntity
  8
Visible (ISO)
100
AcDbLine
 10
277.822214350038
 20
29.9574090792149
 30
0.0
 11
277.8222143500383
 21
102.9574090792149
 31
0.0
  0
LINE
  5
2A3
330
75
100
AcDbEntity
  8
Visible (ISO)
100
AcDbLine
 10
279.6151075688517
 20
35.50740907920844
 30
0.0
 11
279.3222143500382
 21
35.50740907920865
 31
0.0
  0
LINE
  5
2A4
330
75
100
AcDbEntity
  8
Visible (ISO)
100
AcDbLine
 10
279.6151075688517
 20
43.00740907920843
 30
0.0
 11
279.3222143500382
 21
43.00740907920864
 31
0.0
  0
LINE
  5
2A5
330
75
100
AcDbEntity
  8
Visible (ISO)
100
AcDbLine
 10
283.0899813030045
 20
35.50740907920741
 30
0.0
 11
283.8222143500382
 21
35.50740907920689
 31
0.0
  0
LINE
  5
2A6
330
75
100
AcDbEntity
  8
Visible (ISO)
100
AcDbLine
 10
283.0899813030046
 20
35.50740907920741
 30
0.0
 11
279.6151075688517
 21
35.50740907920844
 31
0.0
  0
LINE
  5
2A7
330
75
100
AcDbEntity
  8
Visible (ISO)
100
AcDbLine
 10
279.3222143500381
 20
29.9574090792149
 30
0.0
 11
277.822214350038
 21
29.9574090792149
 31
0.0
  0
LINE
  5
2A8
330
75
100
AcDbEntity
  8
Visible (ISO)
100
AcDbLine
 10
283.0899813030046
 20
43.00740907920741
 30
0.0
 11
279.6151075688517
 21
43.00740907920844
 31
0.0
  0
LINE
  5
2A9
330
75
100
AcDbEntity
  8
Visible (ISO)
100
AcDbLine
 10
283.0899813030046
 20
43.00740907920741
 30
0.0
 11
283.8222143500382
 21
43.00740907920689
 31
0.0
  0
LINE
  5
2AA
330
75
100
AcDbEntity
  8
Visible (ISO)
100
AcDbLine
 10
279.6151075688517
 20
75.50740907920843
 30
0.0
 11
279.3222143500382
 21
75.50740907920865
 31
0.0
  0
LINE
  5
2AB
330
75
100
AcDbEntity
  8
Visible (ISO)
100
AcDbLine
 10
279.6151075688517
 20
83.00740907920843
 30
0.0
 11
279.3222143500382
 21
83.00740907920866
 31
0.0
  0
LINE
  5
2AC
330
75
100
AcDbEntity
  8
Visible (ISO)
100
AcDbLine
 10
283.0899813030046
 20
83.0074090792074
 30
0.0
 11
279.6151075688517
 21
83.00740907920845
 31
0.0
  0
LINE
  5
2AD
330
75
100
AcDbEntity
  8
Visible (ISO)
100
AcDbLine
 10
283.0899813030046
 20
83.00740907920742
 30
0.0
 11
283.8222143500382
 21
83.00740907920689
 31
0.0
  0
LINE
  5
2AE
330
75
100
AcDbEntity
  8
Visible (ISO)
100
AcDbLine
 10
283.0899813030045
 20
75.5074090792074
 30
0.0
 11
283.8222143500382
 21
75.50740907920688
 31
0.0
  0
LINE
  5
2AF
330
75
100
AcDbEntity
  8
Visible (ISO)
100
AcDbLine
 10
283.0899813030046
 20
75.50740907920739
 30
0.0
 11
279.6151075688517
 21
75.50740907920844
 31
0.0
  0
LINE
  5
2B0
330
75
100
AcDbEntity
  8
Visible (ISO)
100
AcDbLine
 10
283.8222143500382
 20
43.00740907920689
 30
0.0
 11
283.8222143500382
 21
35.50740907920689
 31
0.0
  0
LINE
  5
2B1
330
75
100
AcDbEntity
  8
Visible (ISO)
100
AcDbLine
 10
283.8222143500382
 20
83.00740907920687
 30
0.0
 11
283.8222143500382
 21
75.50740907920687
 31
0.0
  0
LINE
  5
2B2
330
75
100
AcDbEntity
  8
Hidden (ISO)
100
AcDbLine
 10
282.860730831046
 20
385.7940074368304
 30
0.0
 11
282.860730831046
 21
382.4940074368305
 31
0.0
  0
LINE
  5
2B3
330
75
100
AcDbEntity
  8
Hidden (ISO)
100
AcDbLine
 10
282.860730831046
 20
345.7940074368305
 30
0.0
 11
282.860730831046
 21
342.4940074368305
 31
0.0
  0
LINE
  5
2B4
330
75
100
AcDbEntity
  8
Hidden (ISO)
100
AcDbLine
 10
281.1222143503325
 20
385.7940074368304
 30
0.0
 11
282.860730831046
 21
385.7940074368304
 31
0.0
  0
LINE
  5
2B5
330
75
100
AcDbEntity
  8
Hidden (ISO)
100
AcDbLine
 10
281.1222143503325
 20
382.4940074368305
 30
0.0
 11
282.860730831046
 21
382.4940074368305
 31
0.0
  0
LINE
  5
2B6
330
75
100
AcDbEntity
  8
Hidden (ISO)
100
AcDbLine
 10
281.1222143503325
 20
345.7940074368305
 30
0.0
 11
282.860730831046
 21
345.7940074368305
 31
0.0
  0
LINE
  5
2B7
330
75
100
AcDbEntity
  8
Hidden (ISO)
100
AcDbLine
 10
281.1222143503325
 20
342.4940074368305
 30
0.0
 11
282.860730831046
 21
342.4940074368305
 31
0.0
  0
LINE
  5
2B8
330
75
100
AcDbEntity
  8
Hidden (ISO)
100
AcDbLine
 10
281.1222143503325
 20
346.3940074368305
 30
0.0
 11
281.1222143503325
 21
341.8940074368304
 31
0.0
  0
LINE
  5
2B9
330
75
100
AcDbEntity
  8
Hidden (ISO)
100
AcDbLine
 10
281.1222143503325
 20
386.3940074368305
 30
0.0
 11
281.1222143503325
 21
381.8940074368305
 31
0.0
  0
LINE
  5
2BA
330
75
100
AcDbEntity
  8
Hidden (ISO)
100
AcDbLine
 10
298.8222143503326
 20
319.444007436832
 30
0.0
 11
298.8222143503326
 21
317.9440074368319
 31
0.0
  0
LINE
  5
2BB
330
75
100
AcDbEntity
  8
Hidden (ISO)
100
AcDbLine
 10
317.0222143503326
 20
319.4440074368318
 30
0.0
 11
317.0222143503326
 21
317.9440074368319
 31
0.0
  0
LINE
  5
2BC
330
75
100
AcDbEntity
  8
Hidden (ISO)
100
AcDbLine
 10
315.0222143503326
 20
319.4440074368273
 30
0.0
 11
315.0222143503326
 21
317.9440074368273
 31
0.0
  0
LINE
  5
2BD
330
75
100
AcDbEntity
  8
Hidden (ISO)
100
AcDbLine
 10
310.6222143503326
 20
319.4440074368273
 30
0.0
 11
310.6222143503326
 21
317.9440074368273
 31
0.0
  0
LINE
  5
2BE
330
75
100
AcDbEntity
  8
Hidden (ISO)
100
AcDbLine
 10
290.8222143503326
 20
319.444007436832
 30
0.0
 11
290.8222143503326
 21
317.9440074368319
 31
0.0
  0
LINE
  5
2BF
330
75
100
AcDbEntity
  8
Hidden (ISO)
100
AcDbLine
 10
338.8222143503326
 20
319.444007436832
 30
0.0
 11
338.8222143503326
 21
317.9440074368319
 31
0.0
  0
LINE
  5
2C0
330
75
100
AcDbEntity
  8
Hidden (ISO)
100
AcDbLine
 10
330.8222143503326
 20
319.444007436832
 30
0.0
 11
330.8222143503326
 21
317.9440074368319
 31
0.0
  0
LINE
  5
2C1
330
75
100
AcDbEntity
  8
Hidden (ISO)
100
AcDbLine
 10
308.6222143503326
 20
319.4440074368318
 30
0.0
 11
308.6222143503326
 21
317.9440074368319
 31
0.0
  0
LINE
  5
2C2
330
75
100
AcDbEntity
  8
Hidden (ISO)
100
AcDbLine
 10
279.3222143503325
 20
347.8940074368261
 30
0.0
 11
277.8222143503325
 21
347.8940074368261
 31
0.0
  0
LINE
  5
2C3
330
75
100
AcDbEntity
  8
Hidden (ISO)
100
AcDbLine
 10
279.3222143503325
 20
349.8940074368262
 30
0.0
 11
277.8222143503324
 21
349.894007436826
 31
0.0
  0
LINE
  5
2C4
330
75
100
AcDbEntity
  8
Hidden (ISO)
100
AcDbLine
 10
279.3222143503325
 20
387.8940074368261
 30
0.0
 11
277.8222143503324
 21
387.8940074368261
 31
0.0
  0
LINE
  5
2C5
330
75
100
AcDbEntity
  8
Hidden (ISO)
100
AcDbLine
 10
279.3222143503325
 20
340.3940074368261
 30
0.0
 11
277.8222143503326
 21
340.3940074368261
 31
0.0
  0
LINE
  5
2C6
330
75
100
AcDbEntity
  8
Hidden (ISO)
100
AcDbLine
 10
279.3222143503325
 20
338.394007436826
 30
0.0
 11
277.8222143503326
 21
338.394007436826
 31
0.0
  0
LINE
  5
2C7
330
75
100
AcDbEntity
  8
Hidden (ISO)
100
AcDbLine
 10
279.3222143503324
 20
378.394007436826
 30
0.0
 11
277.8222143503324
 21
378.394007436826
 31
0.0
  0
LINE
  5
2C8
330
75
100
AcDbEntity
  8
Hidden (ISO)
100
AcDbLine
 10
279.3222143503323
 20
389.8940074368262
 30
0.0
 11
277.8222143503324
 21
389.894007436826
 31
0.0
  0
LINE
  5
2C9
330
75
100
AcDbEntity
  8
Hidden (ISO)
100
AcDbLine
 10
279.3222143503323
 20
380.3940074368261
 30
0.0
 11
277.8222143503324
 21
380.3940074368261
 31
0.0
  0
LINE
  5
2CA
330
75
100
AcDbEntity
  8
Hidden (ISO)
100
AcDbLine
 10
282.3222143503325
 20
340.3940074368287
 30
0.0
 11
282.3222143503325
 21
347.8940074368287
 31
0.0
  0
LINE
  5
2CB
330
75
100
AcDbEntity
  8
Hidden (ISO)
100
AcDbLine
 10
282.3222143503325
 20
380.3940074368287
 30
0.0
 11
282.3222143503325
 21
387.8940074368287
 31
0.0
  0
LINE
  5
2CC
330
75
100
AcDbEntity
  8
Hidden (ISO)
100
AcDbLine
 10
282.3222143503325
 20
341.8940074368304
 30
0.0
 11
281.1222143503325
 21
341.8940074368304
 31
0.0
  0
LINE
  5
2CD
330
75
100
AcDbEntity
  8
Hidden (ISO)
100
AcDbLine
 10
282.3222143503325
 20
346.3940074368305
 30
0.0
 11
281.1222143503325
 21
346.3940074368305
 31
0.0
  0
LINE
  5
2CE
330
75
100
AcDbEntity
  8
Hidden (ISO)
100
AcDbLine
 10
282.3222143503325
 20
381.8940074368305
 30
0.0
 11
281.1222143503325
 21
381.8940074368305
 31
0.0
  0
LINE
  5
2CF
330
75
100
AcDbEntity
  8
Hidden (ISO)
100
AcDbLine
 10
282.3222143503325
 20
386.3940074368305
 30
0.0
 11
281.1222143503325
 21
386.3940074368305
 31
0.0
  0
LINE
  5
2D0
330
75
100
AcDbEntity
  8
Hidden (ISO)
100
AcDbLine
 10
294.4222143503326
 20
319.4440074368178
 30
0.0
 11
294.4222143503326
 21
317.9440074368177
 31
0.0
  0
LINE
  5
2D1
330
75
100
AcDbEntity
  8
Hidden (ISO)
100
AcDbLine
 10
289.2222143503326
 20
319.4440074368178
 30
0.0
 11
289.2222143503326
 21
317.9440074368177
 31
0.0
  0
LINE
  5
2D2
330
75
100
AcDbEntity
  8
Hidden (ISO)
100
AcDbLine
 10
296.1722143503326
 20
319.4440074368305
 30
0.0
 11
296.1722143503326
 21
317.9440074368305
 31
0.0
  0
LINE
  5
2D3
330
75
100
AcDbEntity
  8
Hidden (ISO)
100
AcDbLine
 10
293.4722143503326
 20
319.4440074368305
 30
0.0
 11
293.4722143503326
 21
317.9440074368305
 31
0.0
  0
LINE
  5
2D4
330
75
100
AcDbEntity
  8
Hidden (ISO)
100
AcDbLine
 10
336.1722143503326
 20
319.4440074368305
 30
0.0
 11
336.1722143503326
 21
317.9440074368305
 31
0.0
  0
LINE
  5
2D5
330
75
100
AcDbEntity
  8
Hidden (ISO)
100
AcDbLine
 10
333.4722143503326
 20
319.4440074368305
 30
0.0
 11
333.4722143503326
 21
317.9440074368305
 31
0.0
  0
LINE
  5
2D6
330
75
100
AcDbEntity
  8
Hidden (ISO)
100
AcDbLine
 10
337.4222143503326
 20
319.4440074368176
 30
0.0
 11
337.4222143503326
 21
317.9440074368176
 31
0.0
  0
LINE
  5
2D7
330
75
100
AcDbEntity
  8
Hidden (ISO)
100
AcDbLine
 10
332.2222143503325
 20
319.4440074368176
 30
0.0
 11
332.2222143503325
 21
317.9440074368176
 31
0.0
  0
LINE
  5
2D8
330
75
100
AcDbEntity
  8
Hidden (ISO)
100
AcDbLine
 10
315.0722143503326
 20
319.4440074368363
 30
0.0
 11
315.0722143503326
 21
317.9440074368363
 31
0.0
  0
LINE
  5
2D9
330
75
100
AcDbEntity
  8
Hidden (ISO)
100
AcDbLine
 10
310.5722143503326
 20
319.4440074368363
 30
0.0
 11
310.5722143503326
 21
317.9440074368363
 31
0.0
  0
ARC
  5
2DA
330
75
100
AcDbEntity
  8
Hidden (ISO)
100
AcDbCircle
 10
282.3222143503325
 20
347.1940074368305
 30
0.0
 40
1.5
100
AcDbArc
 50
291.0394697813168
 51
0.0
  0
ARC
  5
2DB
330
75
100
AcDbEntity
  8
Hidden (ISO)
100
AcDbCircle
 10
282.3222143503325
 20
341.0940074368304
 30
0.0
 40
1.5
100
AcDbArc
 50
0.0
 51
68.96053021868197
  0
ARC
  5
2DC
330
75
100
AcDbEntity
  8
Hidden (ISO)
100
AcDbCircle
 10
282.3222143503325
 20
387.1940074368305
 30
0.0
 40
1.5
100
AcDbArc
 50
291.039469781318
 51
0.0
  0
ARC
  5
2DD
330
75
100
AcDbEntity
  8
Hidden (ISO)
100
AcDbCircle
 10
282.3222143503325
 20
381.0940074368304
 30
0.0
 40
1.5
100
AcDbArc
 50
0.0
 51
68.96053021868197
  0
LINE
  5
2DE
330
75
100
AcDbEntity
  8
Visible (ISO)
100
AcDbLine
 10
326.8222143503326
 20
319.4440074368168
 30
0.0
 11
328.8222143503326
 21
319.4440074368162
 31
0.0
  0
LINE
  5
2DF
330
75
100
AcDbEntity
  8
Visible (ISO)
100
AcDbLine
 10
328.8222143503326
 20
319.4440074368162
 30
0.0
 11
340.8222143503325
 21
319.4440074368162
 31
0.0
  0
LINE
  5
2E0
330
75
100
AcDbEntity
  8
Visible (ISO)
100
AcDbLine
 10
340.8222143503325
 20
319.4440074368162
 30
0.0
 11
342.8222143503325
 21
319.4440074368168
 31
0.0
  0
LINE
  5
2E1
330
75
100
AcDbEntity
  8
Visible (ISO)
100
AcDbLine
 10
280.3222143503326
 20
319.4440074368206
 30
0.0
 11
283.8222143503326
 21
319.4440074368206
 31
0.0
  0
LINE
  5
2E2
330
75
100
AcDbEntity
  8
Visible (ISO)
100
AcDbLine
 10
283.8222143503326
 20
319.4440074368168
 30
0.0
 11
285.8222143503326
 21
319.4440074368162
 31
0.0
  0
LINE
  5
2E3
330
75
100
AcDbEntity
  8
Visible (ISO)
100
AcDbLine
 10
285.8222143503326
 20
319.4440074368162
 30
0.0
 11
297.8222143503326
 21
319.4440074368162
 31
0.0
  0
LINE
  5
2E4
330
75
100
AcDbEntity
  8
Visible (ISO)
100
AcDbLine
 10
297.8222143503326
 20
319.4440074368162
 30
0.0
 11
299.8222143503326
 21
319.4440074368168
 31
0.0
  0
LINE
  5
2E5
330
75
100
AcDbEntity
  8
Visible (ISO)
100
AcDbLine
 10
299.8222143503326
 20
319.4440074368193
 30
0.0
 11
326.8222143503326
 21
319.4440074368193
 31
0.0
  0
LINE
  5
2E6
330
75
100
AcDbEntity
  8
Visible (ISO)
100
AcDbLine
 10
328.8222143503326
 20
317.9440074368161
 30
0.0
 11
340.8222143503326
 21
317.9440074368161
 31
0.0
  0
LINE
  5
2E7
330
75
100
AcDbEntity
  8
Visible (ISO)
100
AcDbLine
 10
328.8222143503326
 20
317.9440074368161
 30
0.0
 11
326.8222143503326
 21
317.9440074368167
 31
0.0
  0
LINE
  5
2E8
330
75
100
AcDbEntity
  8
Visible (ISO)
100
AcDbLine
 10
299.8222143503326
 20
317.9440074368193
 30
0.0
 11
326.8222143503326
 21
317.9440074368193
 31
0.0
  0
LINE
  5
2E9
330
75
100
AcDbEntity
  8
Visible (ISO)
100
AcDbLine
 10
299.8222143503326
 20
317.9440074368167
 30
0.0
 11
297.8222143503326
 21
317.9440074368161
 31
0.0
  0
LINE
  5
2EA
330
75
100
AcDbEntity
  8
Visible (ISO)
100
AcDbLine
 10
285.8222143503326
 20
317.9440074368161
 30
0.0
 11
297.8222143503326
 21
317.9440074368161
 31
0.0
  0
LINE
  5
2EB
330
75
100
AcDbEntity
  8
Visible (ISO)
100
AcDbLine
 10
285.8222143503326
 20
317.9440074368161
 30
0.0
 11
283.8222143503326
 21
317.9440074368167
 31
0.0
  0
LINE
  5
2EC
330
75
100
AcDbEntity
  8
Visible (ISO)
100
AcDbLine
 10
280.3222143503326
 20
317.9440074368206
 30
0.0
 11
283.8222143503326
 21
317.9440074368206
 31
0.0
  0
LINE
  5
2ED
330
75
100
AcDbEntity
  8
Visible (ISO)
100
AcDbLine
 10
342.8222143503326
 20
317.9440074368167
 30
0.0
 11
340.8222143503326
 21
317.9440074368161
 31
0.0
  0
LINE
  5
2EE
330
75
100
AcDbEntity
  8
Visible (ISO)
100
AcDbLine
 10
326.8222143503326
 20
317.9440074368167
 30
0.0
 11
326.8222143503326
 21
319.4440074368168
 31
0.0
  0
LINE
  5
2EF
330
75
100
AcDbEntity
  8
Visible (ISO)
100
AcDbLine
 10
328.8222143503326
 20
319.4440074368162
 30
0.0
 11
328.8222143503326
 21
317.9440074368161
 31
0.0
  0
LINE
  5
2F0
330
75
100
AcDbEntity
  8
Visible (ISO)
100
AcDbLine
 10
297.8222143503326
 20
317.9440074368161
 30
0.0
 11
297.8222143503326
 21
319.4440074368162
 31
0.0
  0
LINE
  5
2F1
330
75
100
AcDbEntity
  8
Visible (ISO)
100
AcDbLine
 10
299.8222143503326
 20
319.4440074368168
 30
0.0
 11
299.8222143503326
 21
317.9440074368167
 31
0.0
  0
LINE
  5
2F2
330
75
100
AcDbEntity
  8
Visible (ISO)
100
AcDbLine
 10
285.8222143503326
 20
319.4440074368162
 30
0.0
 11
285.8222143503326
 21
317.9440074368161
 31
0.0
  0
LINE
  5
2F3
330
75
100
AcDbEntity
  8
Visible (ISO)
100
AcDbLine
 10
340.8222143503326
 20
317.9440074368161
 30
0.0
 11
340.8222143503325
 21
319.4440074368162
 31
0.0
  0
LINE
  5
2F4
330
75
100
AcDbEntity
  8
Visible (ISO)
100
AcDbLine
 10
342.8222143503325
 20
319.4440074368168
 30
0.0
 11
342.8222143503326
 21
317.9440074368167
 31
0.0
  0
LINE
  5
2F5
330
75
100
AcDbEntity
  8
Visible (ISO)
100
AcDbLine
 10
283.8222143503326
 20
317.9440074368167
 30
0.0
 11
283.8222143503326
 21
319.4440074368168
 31
0.0
  0
ARC
  5
2F6
330
75
100
AcDbEntity
  8
Visible (ISO)
100
AcDbCircle
 10
280.3222143503326
 20
320.4440074368206
 30
0.0
 40
1.0
100
AcDbArc
 50
180.0
 51
270.0
  0
ARC
  5
2F7
330
75
100
AcDbEntity
  8
Visible (ISO)
100
AcDbCircle
 10
280.3222143503326
 20
320.4440074368206
 30
0.0
 40
2.499999999999998
100
AcDbArc
 50
180.0
 51
270.0
  0
LINE
  5
2F8
330
75
100
AcDbEntity
  8
Visible (ISO)
100
AcDbLine
 10
279.3222143503323
 20
393.4440074368206
 30
0.0
 11
279.3222143503326
 21
320.4440074368206
 31
0.0
  0
LINE
  5
2F9
330
75
100
AcDbEntity
  8
Visible (ISO)
100
AcDbLine
 10
277.8222143503323
 20
393.4440074368206
 30
0.0
 11
277.8222143503323
 21
320.4440074368206
 31
0.0
  0
LINE
  5
2FA
330
75
100
AcDbEntity
  8
Visible (ISO)
100
AcDbLine
 10
279.6151075691459
 20
347.8940074368271
 30
0.0
 11
279.3222143503324
 21
347.8940074368269
 31
0.0
  0
LINE
  5
2FB
330
75
100
AcDbEntity
  8
Visible (ISO)
100
AcDbLine
 10
283.0899813032989
 20
347.8940074368282
 30
0.0
 11
279.6151075691459
 21
347.8940074368271
 31
0.0
  0
LINE
  5
2FC
330
75
100
AcDbEntity
  8
Visible (ISO)
100
AcDbLine
 10
283.0899813032989
 20
347.8940074368282
 30
0.0
 11
283.8222143503325
 21
347.8940074368287
 31
0.0
  0
LINE
  5
2FD
330
75
100
AcDbEntity
  8
Visible (ISO)
100
AcDbLine
 10
279.6151075691459
 20
387.8940074368271
 30
0.0
 11
279.3222143503324
 21
387.8940074368269
 31
0.0
  0
LINE
  5
2FE
330
75
100
AcDbEntity
  8
Visible (ISO)
100
AcDbLine
 10
283.0899813032989
 20
387.8940074368282
 30
0.0
 11
279.6151075691459
 21
387.8940074368271
 31
0.0
  0
LINE
  5
2FF
330
75
100
AcDbEntity
  8
Visible (ISO)
100
AcDbLine
 10
283.0899813032989
 20
387.8940074368282
 30
0.0
 11
283.8222143503325
 21
387.8940074368287
 31
0.0
  0
LINE
  5
300
330
75
100
AcDbEntity
  8
Visible (ISO)
100
AcDbLine
 10
277.8222143503323
 20
393.4440074368206
 30
0.0
 11
279.3222143503323
 21
393.4440074368206
 31
0.0
  0
LINE
  5
301
330
75
100
AcDbEntity
  8
Visible (ISO)
100
AcDbLine
 10
279.6151075691459
 20
340.3940074368271
 30
0.0
 11
279.3222143503325
 21
340.3940074368269
 31
0.0
  0
LINE
  5
302
330
75
100
AcDbEntity
  8
Visible (ISO)
100
AcDbLine
 10
283.0899813032989
 20
380.3940074368282
 30
0.0
 11
283.8222143503325
 21
380.3940074368287
 31
0.0
  0
LINE
  5
303
330
75
100
AcDbEntity
  8
Visible (ISO)
100
AcDbLine
 10
283.0899813032989
 20
380.3940074368282
 30
0.0
 11
279.615107569146
 21
380.3940074368271
 31
0.0
  0
LINE
  5
304
330
75
100
AcDbEntity
  8
Visible (ISO)
100
AcDbLine
 10
279.6151075691459
 20
380.3940074368271
 30
0.0
 11
279.3222143503325
 21
380.3940074368269
 31
0.0
  0
LINE
  5
305
330
75
100
AcDbEntity
  8
Visible (ISO)
100
AcDbLine
 10
283.0899813032989
 20
340.3940074368282
 30
0.0
 11
283.8222143503325
 21
340.3940074368287
 31
0.0
  0
LINE
  5
306
330
75
100
AcDbEntity
  8
Visible (ISO)
100
AcDbLine
 10
283.0899813032989
 20
340.3940074368282
 30
0.0
 11
279.615107569146
 21
340.3940074368271
 31
0.0
  0
LINE
  5
307
330
75
100
AcDbEntity
  8
Visible (ISO)
100
AcDbLine
 10
283.8222143503325
 20
340.3940074368287
 30
0.0
 11
283.8222143503325
 21
347.8940074368287
 31
0.0
  0
LINE
  5
308
330
75
100
AcDbEntity
  8
Visible (ISO)
100
AcDbLine
 10
283.8222143503325
 20
380.3940074368287
 30
0.0
 11
283.8222143503325
 21
387.8940074368287
 31
0.0
  0
ELLIPSE
  5
309
330
75
100
AcDbEntity
  8
Visible (ISO)
100
AcDbEllipse
 10
552.5217675752652
 20
221.4858173097224
 30
0.0
 11
-0.8234031491138182
 21
-1.429862669639805
 31
0.0
210
0.0
220
0.0
230
0.9999999999999996
 40
0.5780931159156389
 41
3.98003711955388
 42
5.444740841215089
  0
ELLIPSE
  5
30A
330
75
100
AcDbEntity
  8
Visible (ISO)
100
AcDbEllipse
 10
551.292450782548
 20
222.1937337690262
 30
0.0
 11
0.8234031491139003
 21
1.429862669639749
 31
0.0
210
0.0
220
0.0
230
0.9999999999999998
 40
0.578093115915639
 41
0.0
 42
6.283185307179586
  0
ELLIPSE
  5
30B
330
75
100
AcDbEntity
  8
Visible (ISO)
100
AcDbEllipse
 10
552.5217675752652
 20
261.2186075770699
 30
0.0
 11
-0.8234031491138139
 21
-1.429862669639796
 31
0.0
210
0.0
220
0.0
230
1.0
 40
0.5780931159156389
 41
3.98003711955388
 42
5.444740841215089
  0
ELLIPSE
  5
30C
330
75
100
AcDbEntity
  8
Visible (ISO)
100
AcDbEllipse
 10
551.292450782548
 20
261.9265240363737
 30
0.0
 11
0.8234031491139003
 21
1.429862669639749
 31
0.0
210
0.0
220
0.0
230
0.9999999999999998
 40
0.578093115915639
 41
0.0
 42
6.283185307179586
  0
ELLIPSE
  5
30D
330
75
100
AcDbEntity
  8
Visible (ISO)
100
AcDbEllipse
 10
524.2374963278076
 20
244.9307790253741
 30
0.0
 11
-0.8234031491138146
 21
-1.429862669639799
 31
0.0
210
0.0
220
0.0
230
1.0
 40
0.5780931159156389
 41
3.98003711955388
 42
5.444740841215063
  0
ELLIPSE
  5
30E
330
75
100
AcDbEntity
  8
Visible (ISO)
100
AcDbEllipse
 10
523.0081795350904
 20
245.6386954846779
 30
0.0
 11
0.8234031491139003
 21
1.429862669639749
 31
0.0
210
0.0
220
0.0
230
0.9999999999999998
 40
0.578093115915639
 41
0.0
 42
6.283185307179586
  0
ELLIPSE
  5
30F
330
75
100
AcDbEntity
  8
Visible (ISO)
100
AcDbEllipse
 10
524.2374963278075
 20
205.1979887580267
 30
0.0
 11
-0.8234031491138072
 21
-1.429862669639784
 31
0.0
210
0.0
220
0.0
230
1.0
 40
0.578093115915639
 41
3.98003711955388
 42
5.444740841215116
  0
ELLIPSE
  5
310
330
75
100
AcDbEntity
  8
Visible (ISO)
100
AcDbEllipse
 10
523.0081795350904
 20
205.9059052173304
 30
0.0
 11
0.8234031491139003
 21
1.429862669639749
 31
0.0
210
0.0
220
0.0
230
0.9999999999999998
 40
0.578093115915639
 41
0.0
 42
6.283185307179586
  0
ELLIPSE
  5
311
330
75
100
AcDbEntity
  8
Visible (ISO)
100
AcDbEllipse
 10
551.292450782548
 20
261.9265240363737
 30
0.0
 11
1.12282247606441
 21
1.949812731326933
 31
0.0
210
0.0
220
0.0
230
1.0
 40
0.5780931159156389
 41
0.0
 42
6.283185307179586
  0
ELLIPSE
  5
312
330
75
100
AcDbEntity
  8
Visible (ISO)
100
AcDbEllipse
 10
552.140978919972
 20
261.4378891798229
 30
0.0
 11
-1.122822476064407
 21
-1.949812731326925
 31
0.0
210
0.0
220
0.0
230
1.0
 40
0.578093115915639
 41
0.0
 42
1.372495425189878
  0
ELLIPSE
  5
313
330
75
100
AcDbEntity
  8
Visible (ISO)
100
AcDbEllipse
 10
523.0081795350904
 20
245.6386954846779
 30
0.0
 11
1.122822476064409
 21
1.949812731326931
 31
0.0
210
0.0
220
0.0
230
0.9999999999999998
 40
0.578093115915639
 41
0.0
 42
6.283185307179586
  0
ELLIPSE
  5
314
330
75
100
AcDbEntity
  8
Visible (ISO)
100
AcDbEllipse
 10
523.8567076725143
 20
245.1500606281272
 30
0.0
 11
-1.122822476064407
 21
-1.949812731326928
 31
0.0
210
0.0
220
0.0
230
0.9999999999999998
 40
0.5780931159156389
 41
0.0
 42
1.372495425189935
  0
ELLIPSE
  5
315
330
75
100
AcDbEntity
  8
Visible (ISO)
100
AcDbEllipse
 10
523.8567076725143
 20
205.4172703607797
 30
0.0
 11
-1.122822476064421
 21
-1.949812731326927
 31
0.0
210
0.0
220
0.0
230
0.9999999999999998
 40
0.5780931159156388
 41
0.0000000000000098
 42
1.37249542518994
  0
ELLIPSE
  5
316
330
75
100
AcDbEntity
  8
Visible (ISO)
100
AcDbEllipse
 10
523.0081795350904
 20
205.9059052173304
 30
0.0
 11
1.122822476064292
 21
1.949812731326998
 31
0.0
210
0.0
220
0.0
230
0.9999999999999996
 40
0.5780931159156389
 41
0.0
 42
6.283185307179586
  0
ELLIPSE
  5
317
330
75
100
AcDbEntity
  8
Visible (ISO)
100
AcDbEllipse
 10
551.292450782548
 20
222.1937337690262
 30
0.0
 11
1.122822476064293
 21
1.949812731327
 31
0.0
210
0.0
220
0.0
230
0.9999999999999996
 40
0.5780931159156389
 41
0.0
 42
6.283185307179586
  0
ELLIPSE
  5
318
330
75
100
AcDbEntity
  8
Visible (ISO)
100
AcDbEllipse
 10
552.140978919972
 20
221.7050989124755
 30
0.0
 11
-1.122822476064412
 21
-1.949812731326924
 31
0.0
210
0.0
220
0.0
230
1.0
 40
0.5780931159156389
 41
0.0
 42
1.37249542518988
  0
ELLIPSE
  5
319
330
75
100
AcDbEntity
  8
Visible (ISO)
100
AcDbEllipse
 10
512.0480244267027
 20
155.6441022976789
 30
0.0
 11
1.297483750119321
 21
-2.253116933977536
 31
0.0
210
0.0
220
0.0
230
1.0
 40
0.5780931159158105
 41
0.4193421108859266
 42
2.722250542704692
  0
ELLIPSE
  5
31A
330
75
100
AcDbEntity
  8
Visible (ISO)
100
AcDbEllipse
 10
513.1086845984824
 20
156.2548958683675
 30
0.0
 11
1.297483750119319
 21
-2.253116933977535
 31
0.0
210
0.0
220
0.0
230
1.0
 40
0.5780931159158106
 41
0.0
 42
6.283185307179586
  0
LINE
  5
31B
330
75
100
AcDbEntity
  8
Visible (ISO)
100
AcDbLine
 10
537.8574219400152
 20
146.3360456473034
 30
0.0
 11
537.8574219400153
 21
139.3868950861418
 31
0.0
  0
LINE
  5
31C
330
75
100
AcDbEntity
  8
Visible (ISO)
100
AcDbLine
 10
537.8574219400153
 20
139.3868950861418
 30
0.0
 11
539.2716355023886
 21
136.9374094088721
 31
0.0
  0
LINE
  5
31D
330
75
100
AcDbEntity
  8
Visible (ISO)
100
AcDbLine
 10
539.2716355023886
 20
136.9374094088721
 30
0.0
 11
547.7569168766284
 21
132.0510608433649
 31
0.0
  0
LINE
  5
31E
330
75
100
AcDbEntity
  8
Visible (ISO)
100
AcDbLine
 10
547.7569168766284
 20
132.0510608433649
 30
0.0
 11
549.1711304390016
 21
132.8717636654654
 31
0.0
  0
LINE
  5
31F
330
75
100
AcDbEntity
  8
Visible (ISO)
100
AcDbLine
 10
549.1711304390016
 20
132.8717636654654
 30
0.0
 11
549.1711304390016
 21
195.2137319400526
 31
0.0
  0
LINE
  5
320
330
75
100
AcDbEntity
  8
Visible (ISO)
100
AcDbLine
 10
549.1711304390016
 20
214.7407165736755
 30
0.0
 11
549.1711304390016
 21
231.0836120425192
 31
0.0
  0
LINE
  5
321
330
75
100
AcDbEntity
  8
Visible (ISO)
100
AcDbLine
 10
513.8568910558458
 20
270.1171204781291
 30
0.0
 11
508.8660439113625
 21
272.9911582041082
 31
0.0
  0
LINE
  5
322
330
75
100
AcDbEntity
  8
Visible (ISO)
100
AcDbLine
 10
508.8660439113625
 20
272.9911582041082
 30
0.0
 11
507.4518303489892
 21
272.1704553820076
 31
0.0
  0
LINE
  5
323
330
75
100
AcDbEntity
  8
Visible (ISO)
100
AcDbLine
 10
507.4518303489892
 20
272.1704553820076
 30
0.0
 11
507.4518303489892
 21
266.4286913245634
 31
0.0
  0
LINE
  5
324
330
75
100
AcDbEntity
  8
Visible Narrow (ISO)
100
AcDbLine
 10
504.9769566148359
 20
168.9496084004355
 30
0.0
 11
504.9769566148359
 21
169.7639998280201
 31
0.0
  0
LINE
  5
325
330
75
100
AcDbEntity
  8
Visible (ISO)
100
AcDbLine
 10
504.9769566148359
 20
168.9496084004355
 30
0.0
 11
507.4518303489893
 21
167.5244234021625
 31
0.0
  0
LINE
  5
326
330
75
100
AcDbEntity
  8
Visible (ISO)
100
AcDbLine
 10
507.4518303489893
 20
167.5244234021625
 30
0.0
 11
507.4518303489893
 21
156.8963107792095
 31
0.0
  0
LINE
  5
327
330
75
100
AcDbEntity
  8
Visible (ISO)
100
AcDbLine
 10
507.4518303489893
 20
156.8963107792095
 30
0.0
 11
508.8660439113625
 21
154.4468251019399
 31
0.0
  0
LINE
  5
328
330
75
100
AcDbEntity
  8
Visible (ISO)
100
AcDbLine
 10
508.8660439113625
 20
154.4468251019399
 30
0.0
 11
517.3513252856023
 21
149.5604765364326
 31
0.0
  0
LINE
  5
329
330
75
100
AcDbEntity
  8
Visible (ISO)
100
AcDbLine
 10
517.3513252856023
 20
149.5604765364326
 30
0.0
 11
518.7655388479757
 21
150.3811793585332
 31
0.0
  0
LINE
  5
32A
330
75
100
AcDbEntity
  8
Visible (ISO)
100
AcDbLine
 10
518.7655388479757
 20
150.3811793585332
 30
0.0
 11
518.7655388479757
 21
157.3303299196948
 31
0.0
  0
LINE
  5
32B
330
75
100
AcDbEntity
  8
Visible (ISO)
100
AcDbLine
 10
518.7655388479757
 20
157.3303299196948
 30
0.0
 11
537.8574219400152
 21
146.3360456473034
 31
0.0
  0
ELLIPSE
  5
32C
330
75
100
AcDbEntity
  8
Visible (ISO)
100
AcDbEllipse
 10
543.5142761895085
 20
138.5819707503312
 30
0.0
 11
1.297483750119319
 21
-2.253116933977535
 31
0.0
210
0.0
220
0.0
230
1.0
 40
0.5780931159158106
 41
0.0
 42
6.283185307179586
  0
LINE
  5
32D
330
75
100
AcDbEntity
  8
Visible (ISO)
100
AcDbLine
 10
517.6695233371323
 20
194.2851020328291
 30
0.0
 11
518.0230767277252
 21
194.0815041759332
 31
0.0
  0
LINE
  5
32E
330
75
100
AcDbEntity
  8
Visible (ISO)
100
AcDbLine
 10
540.685849064762
 20
179.5592967241717
 30
0.0
 11
540.685849064762
 21
181.0308815488883
 31
0.0
  0
LINE
  5
32F
330
75
100
AcDbEntity
  8
Visible (ISO)
100
AcDbLine
 10
540.685849064762
 20
181.0308815488883
 30
0.0
 11
546.3427033142552
 21
177.7733158385501
 31
0.0
  0
LINE
  5
330
330
75
100
AcDbEntity
  8
Visible (ISO)
100
AcDbLine
 10
546.3427033142552
 20
177.7733158385501
 30
0.0
 11
546.3427033142552
 21
176.3017310138335
 31
0.0
  0
LINE
  5
331
330
75
100
AcDbEntity
  8
Visible (ISO)
100
AcDbLine
 10
546.3427033142552
 20
176.3017310138335
 30
0.0
 11
540.685849064762
 21
179.5592967241717
 31
0.0
  0
ELLIPSE
  5
332
330
75
100
AcDbEntity
  8
Visible (ISO)
100
AcDbEllipse
 10
543.5142761895085
 20
173.9817612560131
 30
0.0
 11
0.673693485638877
 21
-1.169887638796026
 31
0.0
210
0.0
220
0.0
230
1.0
 40
0.5780931159158107
 41
0.0
 42
6.283185307179586
  0
LINE
  5
333
330
75
100
AcDbEntity
  8
Visible (ISO)
100
AcDbLine
 10
526.4022920847915
 20
175.1698980064553
 30
0.0
 11
529.5135619220128
 21
173.3782368657692
 31
0.0
  0
LINE
  5
334
330
75
100
AcDbEntity
  8
Visible (ISO)
100
AcDbLine
 10
526.4022920847915
 20
178.7671053557625
 30
0.0
 11
526.4022920847915
 21
175.1698980064553
 31
0.0
  0
LINE
  5
335
330
75
100
AcDbEntity
  8
Visible (ISO)
100
AcDbLine
 10
529.5135619220128
 20
176.9754442150764
 30
0.0
 11
526.4022920847915
 21
178.7671053557625
 31
0.0
  0
LINE
  5
336
330
75
100
AcDbEntity
  8
Visible (ISO)
100
AcDbLine
 10
529.5135619220128
 20
173.3782368657692
 30
0.0
 11
529.5135619220128
 21
176.9754442150764
 31
0.0
  0
LINE
  5
337
330
75
100
AcDbEntity
  8
Visible (ISO)
100
AcDbLine
 10
529.5135619220128
 20
178.6105384647615
 30
0.0
 11
529.5135619220128
 21
183.8936910966207
 31
0.0
  0
LINE
  5
338
330
75
100
AcDbEntity
  8
Visible (ISO)
100
AcDbLine
 10
526.4022920847915
 20
180.4021996054475
 30
0.0
 11
529.5135619220128
 21
178.6105384647615
 31
0.0
  0
LINE
  5
339
330
75
100
AcDbEntity
  8
Visible (ISO)
100
AcDbLine
 10
526.4022920847915
 20
182.1020299559336
 30
0.0
 11
526.4022920847915
 21
180.4021996054475
 31
0.0
  0
LINE
  5
33A
330
75
100
AcDbEntity
  8
Visible (ISO)
100
AcDbLine
 10
538.2109753306089
 20
136.3266158381836
 30
0.0
 11
546.6962567048487
 21
131.4402672726763
 31
0.0
  0
LINE
  5
33B
330
75
100
AcDbEntity
  8
Visible (ISO)
100
AcDbLine
 10
538.2109753306089
 20
136.3266158381836
 30
0.0
 11
536.7967617682356
 21
138.7761015154532
 31
0.0
  0
LINE
  5
33C
330
75
100
AcDbEntity
  8
Visible (ISO)
100
AcDbLine
 10
536.7967617682356
 20
145.7252520766148
 30
0.0
 11
536.7967617682356
 21
138.7761015154532
 31
0.0
  0
LINE
  5
33D
330
75
100
AcDbEntity
  8
Visible (ISO)
100
AcDbLine
 10
518.7655388479757
 20
156.1087427783179
 30
0.0
 11
536.7967617682356
 21
145.7252520766148
 31
0.0
  0
LINE
  5
33E
330
75
100
AcDbEntity
  8
Visible (ISO)
100
AcDbLine
 10
507.8053837395828
 20
153.8360315312513
 30
0.0
 11
516.2906651138227
 21
148.949682965744
 31
0.0
  0
LINE
  5
33F
330
75
100
AcDbEntity
  8
Visible (ISO)
100
AcDbLine
 10
507.8053837395828
 20
153.8360315312513
 30
0.0
 11
506.3911701772096
 21
156.285517208521
 31
0.0
  0
LINE
  5
340
330
75
100
AcDbEntity
  8
Visible (ISO)
100
AcDbLine
 10
506.3911701772096
 20
166.9136298314739
 30
0.0
 11
506.3911701772096
 21
156.285517208521
 31
0.0
  0
LINE
  5
341
330
75
100
AcDbEntity
  8
Visible (ISO)
100
AcDbLine
 10
503.9162964430563
 20
168.3388148297469
 30
0.0
 11
506.3911701772096
 21
166.9136298314739
 31
0.0
  0
LINE
  5
342
330
75
100
AcDbEntity
  8
Visible (ISO)
100
AcDbLine
 10
506.3911701772095
 20
271.5596618113191
 30
0.0
 11
506.3911701772095
 21
265.8178977538748
 31
0.0
  0
LINE
  5
343
330
75
100
AcDbEntity
  8
Visible (ISO)
100
AcDbLine
 10
506.3911701772095
 20
271.5596618113191
 30
0.0
 11
507.8053837395828
 21
272.3803646334196
 31
0.0
  0
ELLIPSE
  5
344
330
75
100
AcDbEntity
  8
Visible (ISO)
100
AcDbEllipse
 10
542.4536160177288
 20
137.9711771796426
 30
0.0
 11
1.297483750119323
 21
-2.253116933977541
 31
0.0
210
0.0
220
0.0
230
1.0
 40
0.5780931159158106
 41
0.4193421108859346
 42
2.72225054270469
  0
LINE
  5
345
330
75
100
AcDbEntity
  8
Visible (ISO)
100
AcDbLine
 10
540.685849064762
 20
179.8092944075114
 30
0.0
 11
545.2820431424755
 21
177.1625222678615
 31
0.0
  0
LINE
  5
346
330
75
100
AcDbEntity
  8
Visible (ISO)
100
AcDbLine
 10
545.2820431424755
 20
177.1625222678615
 30
0.0
 11
545.2820431424755
 21
176.9125245845217
 31
0.0
  0
ELLIPSE
  5
347
330
75
100
AcDbEntity
  8
Visible (ISO)
100
AcDbEllipse
 10
542.4536160177289
 20
173.3709676853246
 30
0.0
 11
0.673693485638872
 21
-1.169887638796018
 31
0.0
210
0.0
220
0.0
230
1.0
 40
0.5780931159158105
 41
0.9013402729253305
 42
2.240252380664751
  0
LINE
  5
348
330
75
100
AcDbEntity
  8
Visible (ISO)
100
AcDbLine
 10
528.4529017502332
 20
176.3646506443879
 30
0.0
 11
528.4529017502332
 21
173.9890304364575
 31
0.0
  0
LINE
  5
349
330
75
100
AcDbEntity
  8
Visible (ISO)
100
AcDbLine
 10
526.4022920847915
 20
177.5455182143856
 30
0.0
 11
528.4529017502332
 21
176.3646506443879
 31
0.0
  0
LINE
  5
34A
330
75
100
AcDbEntity
  8
Visible (ISO)
100
AcDbLine
 10
528.4529017502332
 20
183.2828975259321
 30
0.0
 11
528.4529017502332
 21
179.2213320354497
 31
0.0
  0
LINE
  5
34B
330
75
100
AcDbEntity
  8
Visible (ISO)
100
AcDbLine
 10
529.5135619220128
 20
176.9754442150764
 30
0.0
 11
528.4529017502332
 21
176.3646506443879
 31
0.0
  0
LINE
  5
34C
330
75
100
AcDbEntity
  8
Visible (ISO)
100
AcDbLine
 10
518.0230767277253
 20
194.0407846045488
 30
0.0
 11
517.6695233371323
 21
193.8371867476528
 31
0.0
  0
LINE
  5
34D
330
75
100
AcDbEntity
  8
Visible (ISO)
100
AcDbLine
 10
536.7967617682356
 20
138.7761015154532
 30
0.0
 11
537.8574219400153
 21
139.3868950861418
 31
0.0
  0
LINE
  5
34E
330
75
100
AcDbEntity
  8
Visible (ISO)
100
AcDbLine
 10
539.2716355023886
 20
136.9374094088721
 30
0.0
 11
538.2109753306089
 21
136.3266158381836
 31
0.0
  0
LINE
  5
34F
330
75
100
AcDbEntity
  8
Visible (ISO)
100
AcDbLine
 10
516.2906651138227
 20
148.949682965744
 30
0.0
 11
517.3513252856023
 21
149.5604765364326
 31
0.0
  0
LINE
  5
350
330
75
100
AcDbEntity
  8
Visible (ISO)
100
AcDbLine
 10
508.8660439113625
 20
154.4468251019399
 30
0.0
 11
507.8053837395828
 21
153.8360315312513
 31
0.0
  0
LINE
  5
351
330
75
100
AcDbEntity
  8
Visible (ISO)
100
AcDbLine
 10
546.6962567048487
 20
131.4402672726763
 30
0.0
 11
547.7569168766284
 21
132.0510608433649
 31
0.0
  0
LINE
  5
352
330
75
100
AcDbEntity
  8
Visible (ISO)
100
AcDbLine
 10
537.8574219400152
 20
146.3360456473034
 30
0.0
 11
536.7967617682356
 21
145.7252520766148
 31
0.0
  0
LINE
  5
353
330
75
100
AcDbEntity
  8
Visible (ISO)
100
AcDbLine
 10
507.4518303489892
 20
272.1704553820076
 30
0.0
 11
506.3911701772095
 21
271.5596618113191
 31
0.0
  0
LINE
  5
354
330
75
100
AcDbEntity
  8
Visible (ISO)
100
AcDbLine
 10
506.3911701772096
 20
156.285517208521
 30
0.0
 11
507.4518303489893
 21
156.8963107792095
 31
0.0
  0
LINE
  5
355
330
75
100
AcDbEntity
  8
Visible (ISO)
100
AcDbLine
 10
507.4518303489893
 20
167.5244234021625
 30
0.0
 11
506.3911701772096
 21
166.9136298314739
 31
0.0
  0
LINE
  5
356
330
75
100
AcDbEntity
  8
Visible (ISO)
100
AcDbLine
 10
546.3427033142552
 20
177.7733158385501
 30
0.0
 11
545.2820431424755
 21
177.1625222678615
 31
0.0
  0
LINE
  5
357
330
75
100
AcDbEntity
  8
Visible (ISO)
100
AcDbLine
 10
507.8053837395828
 20
272.3803646334196
 30
0.0
 11
508.8660439113625
 21
272.9911582041082
 31
0.0
  0
ELLIPSE
  5
358
330
75
100
AcDbEntity
  8
Visible (ISO)
100
AcDbEllipse
 10
505.6840633960224
 20
169.3568041142279
 30
0.0
 11
-1.0
 21
0.0000000000000001
 31
0.0
210
0.0
220
0.0
230
1.0
 40
0.5758617009853121
 41
5.497787143782282
 42
7.068583470577171
  0
LINE
  5
359
330
75
100
AcDbEntity
  8
Visible Narrow (ISO)
100
AcDbLine
 10
504.9769566148359
 20
168.9496084004355
 30
0.0
 11
503.9162964430563
 21
168.3388148297469
 31
0.0
  0
ELLIPSE
  5
35A
330
75
100
AcDbEntity
  8
Visible (ISO)
100
AcDbEllipse
 10
505.6840633960224
 20
169.3568041142279
 30
0.0
 11
-2.499999999999998
 21
0.0
 31
0.0
210
0.0
220
0.0
230
1.0
 40
0.5758617009853119
 41
5.497787143782292
 42
7.06858347057718
  0
LINE
  5
35B
330
75
100
AcDbEntity
  8
Visible Narrow (ISO)
100
AcDbLine
 10
503.9162964430556
 20
170.3747933987086
 30
0.0
 11
503.9162964430557
 21
264.3927127556007
 31
0.0
  0
ELLIPSE
  5
35C
330
75
100
AcDbEntity
  8
Visible (ISO)
100
AcDbEllipse
 10
505.6840633960224
 20
263.37472347112
 30
0.0
 11
-2.499999999999995
 21
-0.0000000000000007
 31
0.0
210
0.0
220
0.0
230
1.0
 40
0.5758617009853121
 41
5.497787143782272
 42
6.283185307179584
  0
LINE
  5
35D
330
75
100
AcDbEntity
  8
Visible (ISO)
100
AcDbLine
 10
556.5957516414458
 20
199.489286934865
 30
0.0
 11
556.5957516414458
 21
293.5072062917572
 31
0.0
  0
LINE
  5
35E
330
75
100
AcDbEntity
  8
Visible (ISO)
100
AcDbLine
 10
556.5957516414458
 20
199.489286934865
 30
0.0
 11
504.9769566148357
 21
169.7639998280201
 31
0.0
  0
LINE
  5
35F
330
75
100
AcDbEntity
  8
Visible (ISO)
100
AcDbLine
 10
524.7405911489964
 20
217.0150001309839
 30
0.0
 11
517.6695233371323
 21
212.9430429930601
 31
0.0
  0
LINE
  5
360
330
75
100
AcDbEntity
  8
Visible (ISO)
100
AcDbLine
 10
517.6695233371323
 20
212.9430429930601
 30
0.0
 11
517.6695233371323
 21
193.3171784509525
 31
0.0
  0
LINE
  5
361
330
75
100
AcDbEntity
  8
Visible (ISO)
100
AcDbLine
 10
524.3870377584035
 20
198.387541322501
 30
0.0
 11
524.3870377584035
 21
197.1855377319803
 31
0.0
  0
LINE
  5
362
330
75
100
AcDbEntity
  8
Visible (ISO)
100
AcDbLine
 10
524.7405911489964
 20
260.3041203913964
 30
0.0
 11
524.3870377584035
 21
260.1005225345003
 31
0.0
  0
LINE
  5
363
330
75
100
AcDbEntity
  8
Visible (ISO)
100
AcDbLine
 10
524.3870377584035
 20
257.6769318026026
 30
0.0
 11
524.3870377584035
 21
260.1005225345003
 31
0.0
  0
LINE
  5
364
330
75
100
AcDbEntity
  8
Visible (ISO)
100
AcDbLine
 10
518.0230767277252
 20
256.4357611103686
 30
0.0
 11
517.6695233371323
 21
256.2321632534726
 31
0.0
  0
LINE
  5
365
330
75
100
AcDbEntity
  8
Visible (ISO)
100
AcDbLine
 10
517.6695233371323
 20
256.2321632534726
 30
0.0
 11
517.6695233371323
 21
236.606298711365
 31
0.0
  0
LINE
  5
366
330
75
100
AcDbEntity
  8
Visible (ISO)
100
AcDbLine
 10
553.024862396454
 20
276.5919489430922
 30
0.0
 11
552.6713090058611
 21
276.3883510861962
 31
0.0
  0
LINE
  5
367
330
75
100
AcDbEntity
  8
Visible (ISO)
100
AcDbLine
 10
552.6713090058612
 20
273.9647603542983
 30
0.0
 11
552.6713090058611
 21
276.3883510861962
 31
0.0
  0
LINE
  5
368
330
75
100
AcDbEntity
  8
Visible (ISO)
100
AcDbLine
 10
546.3073479751828
 20
272.7235896620645
 30
0.0
 11
545.9537945845899
 21
272.5199918051684
 31
0.0
  0
LINE
  5
369
330
75
100
AcDbEntity
  8
Visible (ISO)
100
AcDbLine
 10
545.9537945845899
 20
272.5199918051684
 30
0.0
 11
545.9537945845899
 21
252.8941272630608
 31
0.0
  0
LINE
  5
36A
330
75
100
AcDbEntity
  8
Visible (ISO)
100
AcDbLine
 10
553.024862396454
 20
233.3028286826797
 30
0.0
 11
545.9537945845899
 21
229.230871544756
 31
0.0
  0
LINE
  5
36B
330
75
100
AcDbEntity
  8
Visible (ISO)
100
AcDbLine
 10
545.9537945845899
 20
229.230871544756
 30
0.0
 11
545.9537945845899
 21
209.6050070026483
 31
0.0
  0
LINE
  5
36C
330
75
100
AcDbEntity
  8
Visible (ISO)
100
AcDbLine
 10
552.6713090058612
 20
214.6753698741968
 30
0.0
 11
552.6713090058612
 21
213.4733662836762
 31
0.0
  0
LINE
  5
36D
330
75
100
AcDbEntity
  8
Visible Narrow (ISO)
100
AcDbLine
 10
503.9162964430556
 20
170.3747933987086
 30
0.0
 11
504.9769566148357
 21
169.7639998280201
 31
0.0
  0
LINE
  5
36E
330
75
100
AcDbEntity
  8
Visible (ISO)
100
AcDbLine
 10
555.5350914696658
 20
200.1000805055535
 30
0.0
 11
503.9162964430556
 21
170.3747933987086
 31
0.0
  0
LINE
  5
36F
330
75
100
AcDbEntity
  8
Visible (ISO)
100
AcDbLine
 10
555.5350914696658
 20
200.1000805055535
 30
0.0
 11
555.5350914696658
 21
294.1179998624456
 31
0.0
  0
LINE
  5
370
330
75
100
AcDbEntity
  8
Visible (ISO)
100
AcDbLine
 10
555.5350914696658
 20
294.1179998624456
 30
0.0
 11
503.9162964430557
 21
264.3927127556007
 31
0.0
  0
LINE
  5
371
330
75
100
AcDbEntity
  8
Visible (ISO)
100
AcDbLine
 10
516.6088631653524
 20
213.5538365637485
 30
0.0
 11
516.6088631653524
 21
192.7063848802638
 31
0.0
  0
LINE
  5
372
330
75
100
AcDbEntity
  8
Visible (ISO)
100
AcDbLine
 10
524.7405911489964
 20
218.2365872723611
 30
0.0
 11
516.6088631653524
 21
213.5538365637485
 31
0.0
  0
LINE
  5
373
330
75
100
AcDbEntity
  8
Visible (ISO)
100
AcDbLine
 10
524.7405911489964
 20
197.3891355888763
 30
0.0
 11
524.7405911489964
 21
218.2365872723611
 31
0.0
  0
LINE
  5
374
330
75
100
AcDbEntity
  8
Visible (ISO)
100
AcDbLine
 10
523.3263775866236
 20
196.5747441612915
 30
0.0
 11
524.7405911489964
 21
197.3891355888763
 31
0.0
  0
LINE
  5
375
330
75
100
AcDbEntity
  8
Visible (ISO)
100
AcDbLine
 10
523.3263775866236
 20
196.5747441612915
 30
0.0
 11
523.3263775866235
 21
198.9983348931894
 31
0.0
  0
LINE
  5
376
330
75
100
AcDbEntity
  8
Visible Narrow (ISO)
100
AcDbLine
 10
518.0230767277252
 20
195.9443670397464
 30
0.0
 11
523.3263775866235
 21
198.9983348931894
 31
0.0
  0
LINE
  5
377
330
75
100
AcDbEntity
  8
Visible (ISO)
100
AcDbLine
 10
518.0230767277252
 20
193.5207763078485
 30
0.0
 11
518.0230767277252
 21
195.9443670397464
 31
0.0
  0
LINE
  5
378
330
75
100
AcDbEntity
  8
Visible (ISO)
100
AcDbLine
 10
516.6088631653524
 20
192.7063848802638
 30
0.0
 11
518.0230767277252
 21
193.5207763078485
 31
0.0
  0
LINE
  5
379
330
75
100
AcDbEntity
  8
Visible (ISO)
100
AcDbLine
 10
524.7405911489964
 20
261.5257075327736
 30
0.0
 11
523.3263775866235
 21
260.7113161051888
 31
0.0
  0
LINE
  5
37A
330
75
100
AcDbEntity
  8
Visible (ISO)
100
AcDbLine
 10
524.7405911489964
 20
240.6782558492888
 30
0.0
 11
524.7405911489964
 21
261.5257075327736
 31
0.0
  0
LINE
  5
37B
330
75
100
AcDbEntity
  8
Visible (ISO)
100
AcDbLine
 10
516.6088631653524
 20
235.9955051406763
 30
0.0
 11
524.7405911489964
 21
240.6782558492888
 31
0.0
  0
LINE
  5
37C
330
75
100
AcDbEntity
  8
Visible (ISO)
100
AcDbLine
 10
516.6088631653524
 20
256.842956824161
 30
0.0
 11
516.6088631653524
 21
235.9955051406763
 31
0.0
  0
LINE
  5
37D
330
75
100
AcDbEntity
  8
Visible (ISO)
100
AcDbLine
 10
518.0230767277252
 20
257.6573482517458
 30
0.0
 11
516.6088631653524
 21
256.842956824161
 31
0.0
  0
LINE
  5
37E
330
75
100
AcDbEntity
  8
Visible (ISO)
100
AcDbLine
 10
518.0230767277252
 20
257.6573482517458
 30
0.0
 11
518.0230767277252
 21
255.2337575198479
 31
0.0
  0
LINE
  5
37F
330
75
100
AcDbEntity
  8
Visible Narrow (ISO)
100
AcDbLine
 10
518.0230767277252
 20
255.2337575198479
 30
0.0
 11
523.3263775866235
 21
258.2877253732909
 31
0.0
  0
LINE
  5
380
330
75
100
AcDbEntity
  8
Visible (ISO)
100
AcDbLine
 10
523.3263775866235
 20
260.7113161051888
 30
0.0
 11
523.3263775866235
 21
258.2877253732909
 31
0.0
  0
LINE
  5
381
330
75
100
AcDbEntity
  8
Visible (ISO)
100
AcDbLine
 10
553.024862396454
 20
277.8135360844694
 30
0.0
 11
551.6106488340811
 21
276.9991446568846
 31
0.0
  0
LINE
  5
382
330
75
100
AcDbEntity
  8
Visible (ISO)
100
AcDbLine
 10
553.024862396454
 20
256.9660844009846
 30
0.0
 11
553.024862396454
 21
277.8135360844694
 31
0.0
  0
LINE
  5
383
330
75
100
AcDbEntity
  8
Visible (ISO)
100
AcDbLine
 10
544.89313441281
 20
252.2833336923721
 30
0.0
 11
553.024862396454
 21
256.9660844009846
 31
0.0
  0
LINE
  5
384
330
75
100
AcDbEntity
  8
Visible (ISO)
100
AcDbLine
 10
544.89313441281
 20
273.1307853758568
 30
0.0
 11
544.89313441281
 21
252.2833336923721
 31
0.0
  0
LINE
  5
385
330
75
100
AcDbEntity
  8
Visible (ISO)
100
AcDbLine
 10
546.3073479751828
 20
273.9451768034416
 30
0.0
 11
544.89313441281
 21
273.1307853758568
 31
0.0
  0
LINE
  5
386
330
75
100
AcDbEntity
  8
Visible (ISO)
100
AcDbLine
 10
546.3073479751828
 20
273.9451768034416
 30
0.0
 11
546.3073479751828
 21
271.5215860715437
 31
0.0
  0
LINE
  5
387
330
75
100
AcDbEntity
  8
Visible Narrow (ISO)
100
AcDbLine
 10
546.3073479751828
 20
271.5215860715437
 30
0.0
 11
551.6106488340811
 21
274.5755539249867
 31
0.0
  0
LINE
  5
388
330
75
100
AcDbEntity
  8
Visible (ISO)
100
AcDbLine
 10
551.6106488340811
 20
276.9991446568846
 30
0.0
 11
551.6106488340811
 21
274.5755539249867
 31
0.0
  0
LINE
  5
389
330
75
100
AcDbEntity
  8
Visible (ISO)
100
AcDbLine
 10
544.89313441281
 20
229.8416651154444
 30
0.0
 11
544.89313441281
 21
208.9942134319596
 31
0.0
  0
LINE
  5
38A
330
75
100
AcDbEntity
  8
Visible (ISO)
100
AcDbLine
 10
553.024862396454
 20
234.5244158240569
 30
0.0
 11
544.89313441281
 21
229.8416651154444
 31
0.0
  0
LINE
  5
38B
330
75
100
AcDbEntity
  8
Visible (ISO)
100
AcDbLine
 10
553.024862396454
 20
213.6769641405721
 30
0.0
 11
553.024862396454
 21
234.5244158240569
 31
0.0
  0
LINE
  5
38C
330
75
100
AcDbEntity
  8
Visible (ISO)
100
AcDbLine
 10
551.6106488340811
 20
212.8625727129874
 30
0.0
 11
553.024862396454
 21
213.6769641405721
 31
0.0
  0
LINE
  5
38D
330
75
100
AcDbEntity
  8
Visible (ISO)
100
AcDbLine
 10
551.6106488340811
 20
212.8625727129874
 30
0.0
 11
551.6106488340811
 21
215.2861634448851
 31
0.0
  0
LINE
  5
38E
330
75
100
AcDbEntity
  8
Visible Narrow (ISO)
100
AcDbLine
 10
546.3073479751828
 20
212.2321955914422
 30
0.0
 11
551.6106488340811
 21
215.2861634448851
 31
0.0
  0
LINE
  5
38F
330
75
100
AcDbEntity
  8
Visible (ISO)
100
AcDbLine
 10
546.3073479751828
 20
209.8086048595444
 30
0.0
 11
546.3073479751828
 21
212.2321955914422
 31
0.0
  0
LINE
  5
390
330
75
100
AcDbEntity
  8
Visible (ISO)
100
AcDbLine
 10
544.89313441281
 20
208.9942134319596
 30
0.0
 11
546.3073479751828
 21
209.8086048595444
 31
0.0
  0
ELLIPSE
  5
391
330
75
100
AcDbEntity
  8
Visible (ISO)
100
AcDbEllipse
 10
525.0941445395901
 20
197.9803456087086
 30
0.0
 11
-0.4990322115844289
 21
0.8665834361452166
 31
0.0
210
0.0
220
0.0
230
1.0
 40
0.5780931159158106
 41
0.0019337084229035
 42
0.7873318718202862
  0
LINE
  5
392
330
75
100
AcDbEntity
  8
Visible (ISO)
100
AcDbLine
 10
524.7405911489964
 20
198.9313561350147
 30
0.0
 11
524.59414453959
 21
198.846369575117
 31
0.0
  0
LINE
  5
393
330
75
100
AcDbEntity
  8
Visible (ISO)
100
AcDbLine
 10
523.8441445395899
 20
200.1454055247295
 30
0.0
 11
524.7405911489964
 21
200.6656354827619
 31
0.0
  0
ELLIPSE
  5
394
330
75
100
AcDbEntity
  8
Visible (ISO)
100
AcDbEllipse
 10
525.0941445395901
 20
197.9803456087086
 30
0.0
 11
-1.247580528961023
 21
2.166458590362955
 31
0.0
210
0.0
220
0.0
230
1.0
 40
0.5780931159158106
 41
0.001933708422861
 42
0.7873318718203218
  0
ELLIPSE
  5
395
330
75
100
AcDbEntity
  8
Visible (ISO)
100
AcDbEllipse
 10
553.3784157870478
 20
214.2681741604044
 30
0.0
 11
-0.4990322115844289
 21
0.8665834361452166
 31
0.0
210
0.0
220
0.0
230
1.0
 40
0.5780931159158106
 41
0.0019337084229035
 42
0.7873318718202862
  0
LINE
  5
396
330
75
100
AcDbEntity
  8
Visible (ISO)
100
AcDbLine
 10
553.024862396454
 20
215.2191846867105
 30
0.0
 11
552.8784157870477
 21
215.1341981268128
 31
0.0
  0
LINE
  5
397
330
75
100
AcDbEntity
  8
Visible (ISO)
100
AcDbLine
 10
552.1284157870477
 20
216.4332340764253
 30
0.0
 11
553.024862396454
 21
216.9534640344576
 31
0.0
  0
ELLIPSE
  5
398
330
75
100
AcDbEntity
  8
Visible (ISO)
100
AcDbEllipse
 10
553.3784157870478
 20
214.2681741604045
 30
0.0
 11
-1.247580528961023
 21
2.166458590362955
 31
0.0
210
0.0
220
0.0
230
1.0
 40
0.5780931159158106
 41
0.001933708422861
 42
0.7873318718203218
  0
ELLIPSE
  5
399
330
75
100
AcDbEntity
  8
Visible (ISO)
100
AcDbEllipse
 10
553.3784157870478
 20
273.557564640506
 30
0.0
 11
-0.4990322115844211
 21
0.8665834361452031
 31
0.0
210
0.0
220
0.0
230
1.0
 40
0.5780931159158106
 41
0.7873318718203795
 42
1.572730035217787
  0
LINE
  5
39A
330
75
100
AcDbEntity
  8
Visible (ISO)
100
AcDbLine
 10
552.6713090058611
 20
276.3883510861962
 30
0.0
 11
551.6106488340811
 21
276.9991446568846
 31
0.0
  0
ELLIPSE
  5
39B
330
75
100
AcDbEntity
  8
Visible (ISO)
100
AcDbEllipse
 10
553.3784157870478
 20
273.557564640506
 30
0.0
 11
1.247580528961159
 21
-2.166458590362892
 31
0.0
210
0.0
220
0.0
230
0.9999999999999998
 40
0.5780931159158106
 41
3.928924525409925
 42
4.71432268880749
  0
LINE
  5
39C
330
75
100
AcDbEntity
  8
Visible (ISO)
100
AcDbLine
 10
552.1284157870477
 20
272.8321589769482
 30
0.0
 11
553.024862396454
 21
271.2794704802457
 31
0.0
  0
LINE
  5
39D
330
75
100
AcDbEntity
  8
Visible (ISO)
100
AcDbLine
 10
553.024862396454
 20
273.0137498279929
 30
0.0
 11
552.8784157870477
 21
273.2674023750829
 31
0.0
  0
LINE
  5
39E
330
75
100
AcDbEntity
  8
Visible (ISO)
100
AcDbLine
 10
517.6695233371323
 20
212.9430429930601
 30
0.0
 11
516.6088631653524
 21
213.5538365637485
 31
0.0
  0
LINE
  5
39F
330
75
100
AcDbEntity
  8
Visible (ISO)
100
AcDbLine
 10
556.5957516414458
 20
293.5072062917572
 30
0.0
 11
555.5350914696658
 21
294.1179998624456
 31
0.0
  0
LINE
  5
3A0
330
75
100
AcDbEntity
  8
Visible (ISO)
100
AcDbLine
 10
517.6695233371323
 20
256.2321632534726
 30
0.0
 11
516.6088631653524
 21
256.842956824161
 31
0.0
  0
LINE
  5
3A1
330
75
100
AcDbEntity
  8
Visible (ISO)
100
AcDbLine
 10
545.9537945845899
 20
229.230871544756
 30
0.0
 11
544.89313441281
 21
229.8416651154444
 31
0.0
  0
LINE
  5
3A2
330
75
100
AcDbEntity
  8
Visible (ISO)
100
AcDbLine
 10
549.4893284905229
 20
255.3530800321043
 30
0.0
 11
549.856581773175
 21
255.1415929320639
 31
0.0
  0
LINE
  5
3A3
330
75
100
AcDbEntity
  8
Visible (ISO)
100
AcDbLine
 10
549.4893284905229
 20
264.8250064232259
 30
0.0
 11
549.4893284905229
 21
255.3530800321043
 31
0.0
  0
ELLIPSE
  5
3A4
330
75
100
AcDbEntity
  8
Visible (ISO)
100
AcDbEllipse
 10
548.7822217093362
 20
265.2322021370182
 30
0.0
 11
0.4990322115844008
 21
-0.8665834361451679
 31
0.0
210
0.0
220
0.0
230
1.0
 40
0.5780931159158106
 41
0.7873318718203297
 42
1.57273003521773
  0
LINE
  5
3A5
330
75
100
AcDbEntity
  8
Visible (ISO)
100
AcDbLine
 10
546.8251149281493
 20
269.7781911235052
 30
0.0
 11
549.2822217093363
 21
265.5223644024413
 31
0.0
  0
ELLIPSE
  5
3A6
330
75
100
AcDbEntity
  8
Visible (ISO)
100
AcDbEllipse
 10
548.0751149281495
 20
270.5035967870631
 30
0.0
 11
1.247580528961139
 21
-2.166458590362858
 31
0.0
210
0.0
220
0.0
230
0.9999999999999998
 40
0.5780931159158107
 41
3.928924525409888
 42
4.714322688807492
  0
LINE
  5
3A7
330
75
100
AcDbEntity
  8
Visible (ISO)
100
AcDbLine
 10
555.5350914696658
 20
200.1000805055535
 30
0.0
 11
556.5957516414458
 21
199.489286934865
 31
0.0
  0
LINE
  5
3A8
330
75
100
AcDbEntity
  8
Visible (ISO)
100
AcDbLine
 10
545.9537945845899
 20
272.5199918051684
 30
0.0
 11
544.89313441281
 21
273.1307853758568
 31
0.0
  0
ELLIPSE
  5
3A9
330
75
100
AcDbEntity
  8
Visible (ISO)
100
AcDbEllipse
 10
525.0941445395901
 20
257.2697360888103
 30
0.0
 11
-0.4990322115844211
 21
0.8665834361452031
 31
0.0
210
0.0
220
0.0
230
1.0
 40
0.5780931159158106
 41
0.7873318718203795
 42
1.572730035217787
  0
LINE
  5
3AA
330
75
100
AcDbEntity
  8
Visible (ISO)
100
AcDbLine
 10
524.3870377584035
 20
260.1005225345003
 30
0.0
 11
523.3263775866235
 21
260.7113161051888
 31
0.0
  0
LINE
  5
3AB
330
75
100
AcDbEntity
  8
Visible (ISO)
100
AcDbLine
 10
521.2050572430651
 20
239.0652514804086
 30
0.0
 11
521.5723105257175
 21
238.853764380368
 31
0.0
  0
LINE
  5
3AC
330
75
100
AcDbEntity
  8
Visible (ISO)
100
AcDbLine
 10
521.2050572430651
 20
248.5371778715301
 30
0.0
 11
521.2050572430651
 21
239.0652514804086
 31
0.0
  0
ELLIPSE
  5
3AD
330
75
100
AcDbEntity
  8
Visible (ISO)
100
AcDbEllipse
 10
520.4979504618785
 20
248.9443735853225
 30
0.0
 11
0.4990322115844008
 21
-0.8665834361451679
 31
0.0
210
0.0
220
0.0
230
1.0
 40
0.5780931159158106
 41
0.7873318718203297
 42
1.57273003521773
  0
LINE
  5
3AE
330
75
100
AcDbEntity
  8
Visible (ISO)
100
AcDbLine
 10
518.5408436806916
 20
253.4903625718095
 30
0.0
 11
520.9979504618786
 21
249.2345358507455
 31
0.0
  0
ELLIPSE
  5
3AF
330
75
100
AcDbEntity
  8
Visible (ISO)
100
AcDbEllipse
 10
519.7908436806918
 20
254.2157682353673
 30
0.0
 11
1.247580528961139
 21
-2.166458590362858
 31
0.0
210
0.0
220
0.0
230
0.9999999999999998
 40
0.5780931159158107
 41
3.928924525409888
 42
4.714322688807492
  0
ELLIPSE
  5
3B0
330
75
100
AcDbEntity
  8
Visible (ISO)
100
AcDbEllipse
 10
548.0751149281495
 20
211.2142063069615
 30
0.0
 11
-1.247580528961031
 21
2.166458590362971
 31
0.0
210
0.0
220
0.0
230
0.9999999999999998
 40
0.5780931159158105
 41
0.0019337084228912
 42
0.7873318718203218
  0
LINE
  5
3B1
330
75
100
AcDbEntity
  8
Visible (ISO)
100
AcDbLine
 10
546.8251149281493
 20
213.3792662229823
 30
0.0
 11
549.2822217093363
 21
214.8051855630135
 31
0.0
  0
ELLIPSE
  5
3B2
330
75
100
AcDbEntity
  8
Visible (ISO)
100
AcDbEllipse
 10
548.7822217093362
 20
215.6712095294218
 30
0.0
 11
0.4990322115844054
 21
-0.8665834361451757
 31
0.0
210
0.0
220
0.0
230
1.0
 40
0.5780931159158106
 41
0.0019337084229649
 42
0.7873318718203297
  0
LINE
  5
3B3
330
75
100
AcDbEntity
  8
Visible (ISO)
100
AcDbLine
 10
549.4893284905229
 20
215.2640138156296
 30
0.0
 11
549.4893284905229
 21
224.7359402067511
 31
0.0
  0
ELLIPSE
  5
3B4
330
75
100
AcDbEntity
  8
Visible (ISO)
100
AcDbEllipse
 10
519.7908436806918
 20
194.9263777552656
 30
0.0
 11
-1.247580528961031
 21
2.166458590362971
 31
0.0
210
0.0
220
0.0
230
0.9999999999999998
 40
0.5780931159158105
 41
0.0019337084228912
 42
0.7873318718203218
  0
LINE
  5
3B5
330
75
100
AcDbEntity
  8
Visible (ISO)
100
AcDbLine
 10
518.5408436806916
 20
197.0914376712866
 30
0.0
 11
520.9979504618786
 21
198.5173570113177
 31
0.0
  0
ELLIPSE
  5
3B6
330
75
100
AcDbEntity
  8
Visible (ISO)
100
AcDbEllipse
 10
520.4979504618785
 20
199.383380977726
 30
0.0
 11
0.4990322115844054
 21
-0.8665834361451757
 31
0.0
210
0.0
220
0.0
230
1.0
 40
0.5780931159158106
 41
0.0019337084229649
 42
0.7873318718203297
  0
LINE
  5
3B7
330
75
100
AcDbEntity
  8
Visible (ISO)
100
AcDbLine
 10
521.2050572430651
 20
198.9761852639338
 30
0.0
 11
521.2050572430651
 21
208.4481116550553
 31
0.0
  0
ELLIPSE
  5
3B8
330
75
100
AcDbEntity
  8
Visible (ISO)
100
AcDbEllipse
 10
525.0941445395901
 20
257.2697360888103
 30
0.0
 11
1.247580528961159
 21
-2.166458590362892
 31
0.0
210
0.0
220
0.0
230
0.9999999999999998
 40
0.5780931159158106
 41
3.928924525409925
 42
4.71432268880749
  0
LINE
  5
3B9
330
75
100
AcDbEntity
  8
Visible (ISO)
100
AcDbLine
 10
523.8441445395899
 20
256.5443304252525
 30
0.0
 11
524.7405911489964
 21
254.9916419285498
 31
0.0
  0
LINE
  5
3BA
330
75
100
AcDbEntity
  8
Visible (ISO)
100
AcDbLine
 10
524.7405911489964
 20
256.7259212762969
 30
0.0
 11
524.59414453959
 21
256.9795738233871
 31
0.0
  0
LINE
  5
3BB
330
75
100
AcDbEntity
  8
Visible Narrow (ISO)
100
AcDbLine
 10
546.8251149281493
 20
213.3792662229823
 30
0.0
 11
552.1284157870477
 21
216.4332340764253
 31
0.0
  0
LINE
  5
3BC
330
75
100
AcDbEntity
  8
Visible Narrow (ISO)
100
AcDbLine
 10
518.5408436806916
 20
253.4903625718095
 30
0.0
 11
523.8441445395899
 21
256.5443304252525
 31
0.0
  0
LINE
  5
3BD
330
75
100
AcDbEntity
  8
Visible Narrow (ISO)
100
AcDbLine
 10
518.5408436806916
 20
197.0914376712866
 30
0.0
 11
523.8441445395899
 21
200.1454055247295
 31
0.0
  0
LINE
  5
3BE
330
75
100
AcDbEntity
  8
Visible Narrow (ISO)
100
AcDbLine
 10
546.8251149281493
 20
269.7781911235052
 30
0.0
 11
552.1284157870477
 21
272.8321589769482
 31
0.0
  0
LINE
  5
3BF
330
75
100
AcDbEntity
  8
Visible Narrow (ISO)
100
AcDbLine
 10
521.2050572430651
 20
198.9761852639338
 30
0.0
 11
524.7405911489964
 21
201.0121638328952
 31
0.0
  0
LINE
  5
3C0
330
75
100
AcDbEntity
  8
Visible (ISO)
100
AcDbLine
 10
521.2050572430651
 20
208.4481116550553
 30
0.0
 11
524.7405911489964
 21
210.4840902240167
 31
0.0
  0
LINE
  5
3C1
330
75
100
AcDbEntity
  8
Visible Narrow (ISO)
100
AcDbLine
 10
520.9979504618786
 20
198.5173570113177
 30
0.0
 11
524.7405911489964
 21
200.6726004435789
 31
0.0
  0
LINE
  5
3C2
330
75
100
AcDbEntity
  8
Visible Narrow (ISO)
100
AcDbLine
 10
549.2822217093363
 20
214.8051855630135
 30
0.0
 11
553.024862396454
 21
216.9604289952746
 31
0.0
  0
LINE
  5
3C3
330
75
100
AcDbEntity
  8
Visible Narrow (ISO)
100
AcDbLine
 10
549.4893284905229
 20
215.2640138156296
 30
0.0
 11
553.024862396454
 21
217.2999923845909
 31
0.0
  0
LINE
  5
3C4
330
75
100
AcDbEntity
  8
Visible (ISO)
100
AcDbLine
 10
549.4893284905229
 20
224.7359402067511
 30
0.0
 11
553.024862396454
 21
226.7719187757124
 31
0.0
  0
LINE
  5
3C5
330
75
100
AcDbEntity
  8
Visible Narrow (ISO)
100
AcDbLine
 10
549.2822217093363
 20
265.5223644024413
 30
0.0
 11
553.024862396454
 21
267.6776078347024
 31
0.0
  0
LINE
  5
3C6
330
75
100
AcDbEntity
  8
Visible (ISO)
100
AcDbLine
 10
549.4893284905229
 20
255.3530800321043
 30
0.0
 11
553.024862396454
 21
257.3890586010657
 31
0.0
  0
LINE
  5
3C7
330
75
100
AcDbEntity
  8
Visible Narrow (ISO)
100
AcDbLine
 10
549.4893284905229
 20
264.8250064232259
 30
0.0
 11
553.024862396454
 21
266.8609849921872
 31
0.0
  0
LINE
  5
3C8
330
75
100
AcDbEntity
  8
Visible Narrow (ISO)
100
AcDbLine
 10
521.2050572430651
 20
248.5371778715301
 30
0.0
 11
524.7405911489964
 21
250.5731564404916
 31
0.0
  0
LINE
  5
3C9
330
75
100
AcDbEntity
  8
Visible Narrow (ISO)
100
AcDbLine
 10
520.9979504618786
 20
249.2345358507455
 30
0.0
 11
524.7405911489964
 21
251.3897792830066
 31
0.0
  0
LINE
  5
3CA
330
75
100
AcDbEntity
  8
Visible (ISO)
100
AcDbLine
 10
521.2050572430651
 20
239.0652514804086
 30
0.0
 11
524.7405911489964
 21
241.10123004937
 31
0.0
  0
LINE
  5
3CB
330
75
100
AcDbEntity
  8
Visible (ISO)
100
AcDbLine
 10
551.0181564439076
 20
259.488076448496
 30
0.0
 11
550.1696283064837
 21
259.9767113050468
 31
0.0
  0
LINE
  5
3CC
330
75
100
AcDbEntity
  8
Visible (ISO)
100
AcDbLine
 10
553.024862396454
 20
263.5252977298811
 30
0.0
 11
552.4152732586125
 21
263.8763367677006
 31
0.0
  0
LINE
  5
3CD
330
75
100
AcDbEntity
  8
Visible (ISO)
100
AcDbLine
 10
522.7338851964499
 20
243.2002478968002
 30
0.0
 11
521.8853570590259
 21
243.6888827533509
 31
0.0
  0
LINE
  5
3CE
330
75
100
AcDbEntity
  8
Visible (ISO)
100
AcDbLine
 10
524.7405911489964
 20
247.2374691781852
 30
0.0
 11
524.1310020111548
 21
247.5885082160048
 31
0.0
  0
LINE
  5
3CF
330
75
100
AcDbEntity
  8
Visible (ISO)
100
AcDbLine
 10
522.7338851964499
 20
203.4674576294527
 30
0.0
 11
521.8853570590259
 21
203.9560924860035
 31
0.0
  0
LINE
  5
3D0
330
75
100
AcDbEntity
  8
Visible (ISO)
100
AcDbLine
 10
524.7405911489964
 20
207.5046789108378
 30
0.0
 11
524.1310020111548
 21
207.8557179486573
 31
0.0
  0
LINE
  5
3D1
330
75
100
AcDbEntity
  8
Visible (ISO)
100
AcDbLine
 10
551.0181564439076
 20
219.7552861811485
 30
0.0
 11
550.1696283064837
 21
220.2439210376993
 31
0.0
  0
LINE
  5
3D2
330
75
100
AcDbEntity
  8
Visible (ISO)
100
AcDbLine
 10
553.024862396454
 20
223.7925074625336
 30
0.0
 11
552.4152732586125
 21
224.1435465003531
 31
0.0
  0
LINE
  5
3D3
330
75
100
AcDbEntity
  8
Visible (ISO)
100
AcDbLine
 10
503.1840633960223
 20
263.37472347112
 30
0.0
 11
503.1840633960223
 21
169.3568041142279
 31
0.0
  0
POLYLINE
  5
3D4
330
75
100
AcDbEntity
  8
Visible (ISO)
100
AcDb2dPolyline
 66
     1
 10
0.0
 20
0.0
 30
0.0
 70
   128
  0
VERTEX
  5
3D5
330
3D4
100
AcDbEntity
  8
Visible (ISO)
100
AcDbVertex
100
AcDb2dVertex
 10
524.1410635580032
 20
206.2357532502051
 30
0.0
  0
VERTEX
  5
3D6
330
3D4
100
AcDbEntity
  8
Visible (ISO)
100
AcDbVertex
100
AcDb2dVertex
 10
524.0050000440184
 20
206.0854946044907
 30
0.0
  0
VERTEX
  5
3D8
330
3D4
100
AcDbEntity
  8
Visible (ISO)
100
AcDbVertex
100
AcDb2dVertex
 10
523.8721919526128
 20
205.9188744075476
 30
0.0
  0
VERTEX
  5
3D9
330
3D4
100
AcDbEntity
  8
Visible (ISO)
100
AcDbVertex
100
AcDb2dVertex
 10
523.7458357007771
 20
205.7388172273137
 30
0.0
  0
VERTEX
  5
3DA
330
3D4
100
AcDbEntity
  8
Visible (ISO)
100
AcDbVertex
100
AcDb2dVertex
 10
523.6286691477909
 20
205.5485868875936
 30
0.0
  0
VERTEX
  5
3DB
330
3D4
100
AcDbEntity
  8
Visible (ISO)
100
AcDbVertex
100
AcDb2dVertex
 10
523.5229361918685
 20
205.3517777757289
 30
0.0
  0
VERTEX
  5
3DC
330
3D4
100
AcDbEntity
  8
Visible (ISO)
100
AcDbVertex
100
AcDb2dVertex
 10
523.4306615676127
 20
205.152095502943
 30
0.0
  0
VERTEX
  5
3DD
330
3D4
100
AcDbEntity
  8
Visible (ISO)
100
AcDbVertex
100
AcDb2dVertex
 10
523.3531686860667
 20
204.95361441485
 30
0.0
  0
VERTEX
  5
3DE
330
3D4
100
AcDbEntity
  8
Visible (ISO)
100
AcDbVertex
100
AcDb2dVertex
 10
523.2915247054346
 20
204.7605044799482
 30
0.0
  0
SEQEND
  5
3D7
330
3D4
100
AcDbEntity
  8
Visible (ISO)
  0
POLYLINE
  5
3DF
330
75
100
AcDbEntity
  8
Visible (ISO)
100
AcDb2dPolyline
 66
     1
 10
0.0
 20
0.0
 30
0.0
 70
   128
  0
VERTEX
  5
3E0
330
3DF
100
AcDbEntity
  8
Visible (ISO)
100
AcDbVertex
100
AcDb2dVertex
 10
552.4253364913348
 20
222.5235827727311
 30
0.0
  0
VERTEX
  5
3E1
330
3DF
100
AcDbEntity
  8
Visible (ISO)
100
AcDbVertex
100
AcDb2dVertex
 10
552.2892712914763
 20
222.3733231561865
 30
0.0
  0
VERTEX
  5
3E3
330
3DF
100
AcDbEntity
  8
Visible (ISO)
100
AcDbVertex
100
AcDb2dVertex
 10
552.1564632000705
 20
222.2067029592433
 30
0.0
  0
VERTEX
  5
3E4
330
3DF
100
AcDbEntity
  8
Visible (ISO)
100
AcDbVertex
100
AcDb2dVertex
 10
552.0301086341088
 20
222.0266467498397
 30
0.0
  0
VERTEX
  5
3E5
330
3DF
100
AcDbEntity
  8
Visible (ISO)
100
AcDbVertex
100
AcDb2dVertex
 10
551.9129403952486
 20
221.8364154392894
 30
0.0
  0
VERTEX
  5
3E6
330
3DF
100
AcDbEntity
  8
Visible (ISO)
100
AcDbVertex
100
AcDb2dVertex
 10
551.8072074393264
 20
221.6396063274247
 30
0.0
  0
VERTEX
  5
3E7
330
3DF
100
AcDbEntity
  8
Visible (ISO)
100
AcDbVertex
100
AcDb2dVertex
 10
551.7149345009443
 20
221.439925025469
 30
0.0
  0
VERTEX
  5
3E8
330
3DF
100
AcDbEntity
  8
Visible (ISO)
100
AcDbVertex
100
AcDb2dVertex
 10
551.6374399335244
 20
221.2414429665458
 30
0.0
  0
VERTEX
  5
3E9
330
3DF
100
AcDbEntity
  8
Visible (ISO)
100
AcDbVertex
100
AcDb2dVertex
 10
551.5757942670185
 20
221.0483320608137
 30
0.0
  0
SEQEND
  5
3E2
330
3DF
100
AcDbEntity
  8
Visible (ISO)
  0
POLYLINE
  5
3EA
330
75
100
AcDbEntity
  8
Visible (ISO)
100
AcDb2dPolyline
 66
     1
 10
0.0
 20
0.0
 30
0.0
 70
   128
  0
VERTEX
  5
3EB
330
3EA
100
AcDbEntity
  8
Visible (ISO)
100
AcDbVertex
100
AcDb2dVertex
 10
551.5757942670184
 20
260.7811234197043
 30
0.0
  0
VERTEX
  5
3EC
330
3EA
100
AcDbEntity
  8
Visible (ISO)
100
AcDbVertex
100
AcDb2dVertex
 10
551.6374584781377
 20
260.9742255503454
 30
0.0
  0
VERTEX
  5
3EE
330
3EA
100
AcDbEntity
  8
Visible (ISO)
100
AcDbVertex
100
AcDb2dVertex
 10
551.7149092128353
 20
261.1727251744981
 30
0.0
  0
VERTEX
  5
3EF
330
3EA
100
AcDbEntity
  8
Visible (ISO)
100
AcDbVertex
100
AcDb2dVertex
 10
551.8072226121916
 20
261.3723889037006
 30
0.0
  0
VERTEX
  5
3F0
330
3EA
100
AcDbEntity
  8
Visible (ISO)
100
AcDbVertex
100
AcDb2dVertex
 10
551.9129403952486
 20
261.56920679818
 30
0.0
  0
VERTEX
  5
3F1
330
3EA
100
AcDbEntity
  8
Visible (ISO)
100
AcDbVertex
100
AcDb2dVertex
 10
552.0300934612434
 20
261.7594429929766
 30
0.0
  0
VERTEX
  5
3F2
330
3EA
100
AcDbEntity
  8
Visible (ISO)
100
AcDbVertex
100
AcDb2dVertex
 10
552.1564817446838
 20
261.939477746306
 30
0.0
  0
VERTEX
  5
3F3
330
3EA
100
AcDbEntity
  8
Visible (ISO)
100
AcDbVertex
100
AcDb2dVertex
 10
552.2892527468628
 20
262.1061271885366
 30
0.0
  0
VERTEX
  5
3F4
330
3EA
100
AcDbEntity
  8
Visible (ISO)
100
AcDbVertex
100
AcDb2dVertex
 10
552.4253364913348
 20
262.2563741316217
 30
0.0
  0
SEQEND
  5
3ED
330
3EA
100
AcDbEntity
  8
Visible (ISO)
  0
POLYLINE
  5
3F5
330
75
100
AcDbEntity
  8
Visible (ISO)
100
AcDb2dPolyline
 66
     1
 10
0.0
 20
0.0
 30
0.0
 70
   128
  0
VERTEX
  5
3F6
330
3F5
100
AcDbEntity
  8
Visible (ISO)
100
AcDbVertex
100
AcDb2dVertex
 10
523.2915247054346
 20
244.4932958388387
 30
0.0
  0
VERTEX
  5
3F7
330
3F5
100
AcDbEntity
  8
Visible (ISO)
100
AcDbVertex
100
AcDb2dVertex
 10
523.353188916554
 20
244.6863979694799
 30
0.0
  0
VERTEX
  5
3F9
330
3F5
100
AcDbEntity
  8
Visible (ISO)
100
AcDbVertex
100
AcDb2dVertex
 10
523.4306396512515
 20
244.8848975936326
 30
0.0
  0
VERTEX
  5
3FA
330
3F5
100
AcDbEntity
  8
Visible (ISO)
100
AcDbVertex
100
AcDb2dVertex
 10
523.52294967886
 20
245.0845593811746
 30
0.0
  0
VERTEX
  5
3FB
330
3F5
100
AcDbEntity
  8
Visible (ISO)
100
AcDbVertex
100
AcDb2dVertex
 10
523.6286708336648
 20
245.2813792173145
 30
0.0
  0
VERTEX
  5
3FC
330
3F5
100
AcDbEntity
  8
Visible (ISO)
100
AcDbVertex
100
AcDb2dVertex
 10
523.7458222137856
 20
245.4716144412808
 30
0.0
  0
VERTEX
  5
3FD
330
3F5
100
AcDbEntity
  8
Visible (ISO)
100
AcDbVertex
100
AcDb2dVertex
 10
523.8722121831001
 20
245.6516501654405
 30
0.0
  0
VERTEX
  5
3FE
330
3F5
100
AcDbEntity
  8
Visible (ISO)
100
AcDbVertex
100
AcDb2dVertex
 10
524.0049831852791
 20
245.818299607671
 30
0.0
  0
VERTEX
  5
3FF
330
3F5
100
AcDbEntity
  8
Visible (ISO)
100
AcDbVertex
100
AcDb2dVertex
 10
524.1410635580032
 20
245.9685446090957
 30
0.0
  0
SEQEND
  5
3F8
330
3F5
100
AcDbEntity
  8
Visible (ISO)
  0
ELLIPSE
  5
400
330
75
100
AcDbEntity
  8
Visible (ISO)
100
AcDbEllipse
 10
37.78979976382652
 20
208.7587673382942
 30
0.0
 11
-0.8234031491138999
 21
1.429862669639749
 31
0.0
210
0.0
220
0.0
230
1.0
 40
0.578093115915639
 41
2.881066455884202
 42
6.543711504885159
  0
ELLIPSE
  5
401
330
75
100
AcDbEntity
  8
Visible (ISO)
100
AcDbEllipse
 10
36.56048297110932
 20
208.0508508789904
 30
0.0
 11
-0.8234031491139736
 21
1.429862669639678
 31
0.0
210
0.0
220
0.0
230
1.0
 40
0.5780931159156389
 41
4.170364932779355
 42
5.254413027989807
  0
ELLIPSE
  5
402
330
75
100
AcDbEntity
  8
Visible (ISO)
100
AcDbEllipse
 10
37.78979976382653
 20
248.4915576056417
 30
0.0
 11
-0.8234031491139015
 21
1.429862669639751
 31
0.0
210
0.0
220
0.0
230
0.9999999999999998
 40
0.578093115915639
 41
2.881066455884187
 42
6.543711504885163
  0
ELLIPSE
  5
403
330
75
100
AcDbEntity
  8
Visible (ISO)
100
AcDbEllipse
 10
36.56048297110934
 20
247.783641146338
 30
0.0
 11
-0.8234031491139736
 21
1.429862669639678
 31
0.0
210
0.0
220
0.0
230
1.0
 40
0.5780931159156389
 41
4.170364932779355
 42
5.254413027989807
  0
ELLIPSE
  5
404
330
75
100
AcDbEntity
  8
Visible (ISO)
100
AcDbEllipse
 10
66.07407101128419
 20
232.2037290539459
 30
0.0
 11
-0.8234031491138994
 21
1.429862669639748
 31
0.0
210
0.0
220
0.0
230
1.0
 40
0.578093115915639
 41
2.881066455884202
 42
6.543711504885156
  0
ELLIPSE
  5
405
330
75
100
AcDbEntity
  8
Visible (ISO)
100
AcDbEllipse
 10
64.84475421856704
 20
231.4958125946422
 30
0.0
 11
-0.8234031491139754
 21
1.429862669639683
 31
0.0
210
0.0
220
0.0
230
1.0
 40
0.578093115915639
 41
4.170364932779357
 42
5.25441302798983
  0
ELLIPSE
  5
406
330
75
100
AcDbEntity
  8
Visible (ISO)
100
AcDbEllipse
 10
66.07407101128419
 20
192.4709387865984
 30
0.0
 11
-0.8234031491138999
 21
1.429862669639749
 31
0.0
210
0.0
220
0.0
230
1.0
 40
0.578093115915639
 41
2.881066455884193
 42
6.543711504885163
  0
ELLIPSE
  5
407
330
75
100
AcDbEntity
  8
Visible (ISO)
100
AcDbEllipse
 10
64.84475421856699
 20
191.7630223272946
 30
0.0
 11
-0.8234031491139884
 21
1.429862669639705
 31
0.0
210
0.0
220
0.0
230
1.0
 40
0.5780931159156389
 41
4.170364932779333
 42
5.254413027989791
  0
ELLIPSE
  5
408
330
75
100
AcDbEntity
  8
Visible (ISO)
100
AcDbEllipse
 10
90.93699444434896
 20
150.2152076827978
 30
0.0
 11
1.297483750119589
 21
2.25311693397738
 31
0.0
210
0.0
220
0.0
230
0.9999999999999998
 40
0.5780931159158107
 41
0.4193421108859372
 42
2.722250542704699
  0
ELLIPSE
  5
409
330
75
100
AcDbEntity
  8
Visible (ISO)
100
AcDbEllipse
 10
89.8763342725693
 20
150.8260012534864
 30
0.0
 11
1.297483750119455
 21
2.253116933977457
 31
0.0
210
0.0
220
0.0
230
1.0
 40
0.5780931159158107
 41
0.0
 42
6.283185307179586
  0
LINE
  5
40A
330
75
100
AcDbEntity
  8
Visible (ISO)
100
AcDbLine
 10
114.6250716141021
 20
169.4108509978815
 30
0.0
 11
114.6250716141022
 21
162.4617004367199
 31
0.0
  0
LINE
  5
40B
330
75
100
AcDbEntity
  8
Visible (ISO)
100
AcDbLine
 10
114.6250716141022
 20
162.4617004367199
 30
0.0
 11
116.0392851764755
 21
161.6409976146194
 31
0.0
  0
LINE
  5
40C
330
75
100
AcDbEntity
  8
Visible (ISO)
100
AcDbLine
 10
116.0392851764755
 20
161.6409976146194
 30
0.0
 11
124.5245665507152
 21
166.5273461801266
 31
0.0
  0
LINE
  5
40D
330
75
100
AcDbEntity
  8
Visible (ISO)
100
AcDbLine
 10
124.5245665507152
 20
166.5273461801266
 30
0.0
 11
125.9387801130886
 21
168.9768318573963
 31
0.0
  0
LINE
  5
40E
330
75
100
AcDbEntity
  8
Visible (ISO)
100
AcDbLine
 10
125.9387801130886
 20
168.9768318573963
 30
0.0
 11
125.9387801130886
 21
284.2509764601943
 31
0.0
  0
LINE
  5
40F
330
75
100
AcDbEntity
  8
Visible (ISO)
100
AcDbLine
 10
125.9387801130886
 20
284.2509764601944
 30
0.0
 11
124.5245665507153
 21
285.0716792822949
 31
0.0
  0
LINE
  5
410
330
75
100
AcDbEntity
  8
Visible (ISO)
100
AcDbLine
 10
124.5245665507153
 20
285.0716792822949
 30
0.0
 11
116.0392851764755
 21
280.1853307167876
 31
0.0
  0
LINE
  5
411
330
75
100
AcDbEntity
  8
Visible (ISO)
100
AcDbLine
 10
116.0392851764755
 20
280.1853307167876
 30
0.0
 11
114.6250716141022
 21
277.735845039518
 31
0.0
  0
LINE
  5
412
330
75
100
AcDbEntity
  8
Visible (ISO)
100
AcDbLine
 10
114.6250716141022
 20
277.735845039518
 30
0.0
 11
114.6250716141022
 21
270.7866944783564
 31
0.0
  0
LINE
  5
413
330
75
100
AcDbEntity
  8
Visible (ISO)
100
AcDbLine
 10
114.6250716141022
 20
270.7866944783564
 30
0.0
 11
95.53318852206258
 21
259.792410205965
 31
0.0
  0
LINE
  5
414
330
75
100
AcDbEntity
  8
Visible (ISO)
100
AcDbLine
 10
95.53318852206258
 20
259.792410205965
 30
0.0
 11
95.53318852206258
 21
266.7415607671267
 31
0.0
  0
LINE
  5
415
330
75
100
AcDbEntity
  8
Visible (ISO)
100
AcDbLine
 10
95.53318852206258
 20
266.7415607671267
 30
0.0
 11
94.11897495968927
 21
267.5622635892271
 31
0.0
  0
LINE
  5
416
330
75
100
AcDbEntity
  8
Visible (ISO)
100
AcDbLine
 10
94.11897495968927
 20
267.5622635892271
 30
0.0
 11
85.63369358544944
 21
262.6759150237199
 31
0.0
  0
LINE
  5
417
330
75
100
AcDbEntity
  8
Visible (ISO)
100
AcDbLine
 10
85.63369358544944
 20
262.6759150237199
 30
0.0
 11
84.21948002307614
 21
260.2264293464502
 31
0.0
  0
LINE
  5
418
330
75
100
AcDbEntity
  8
Visible (ISO)
100
AcDbLine
 10
84.21948002307614
 20
260.2264293464502
 30
0.0
 11
84.21948002307614
 21
249.5983167234972
 31
0.0
  0
LINE
  5
419
330
75
100
AcDbEntity
  8
Visible (ISO)
100
AcDbLine
 10
84.21948002307614
 20
249.5983167234972
 30
0.0
 11
81.74460628892283
 21
248.1731317252243
 31
0.0
  0
LINE
  5
41A
330
75
100
AcDbEntity
  8
Visible Narrow (ISO)
100
AcDbLine
 10
81.74460628892282
 20
154.1552123683321
 30
0.0
 11
81.74460628892283
 21
248.1731317252243
 31
0.0
  0
LINE
  5
41B
330
75
100
AcDbEntity
  8
Visible (ISO)
100
AcDbLine
 10
81.74460628892282
 20
154.1552123683321
 30
0.0
 11
84.2194800230761
 21
155.5803973666051
 31
0.0
  0
LINE
  5
41C
330
75
100
AcDbEntity
  8
Visible (ISO)
100
AcDbLine
 10
84.2194800230761
 20
155.5803973666051
 30
0.0
 11
84.2194800230761
 21
144.9522847436521
 31
0.0
  0
LINE
  5
41D
330
75
100
AcDbEntity
  8
Visible (ISO)
100
AcDbLine
 10
84.2194800230761
 20
144.9522847436521
 30
0.0
 11
85.63369358544939
 21
144.1315819215516
 31
0.0
  0
LINE
  5
41E
330
75
100
AcDbEntity
  8
Visible (ISO)
100
AcDbLine
 10
85.63369358544939
 20
144.1315819215516
 30
0.0
 11
94.11897495968919
 21
149.0179304870588
 31
0.0
  0
LINE
  5
41F
330
75
100
AcDbEntity
  8
Visible (ISO)
100
AcDbLine
 10
94.11897495968919
 20
149.0179304870588
 30
0.0
 11
95.53318852206254
 21
151.4674161643285
 31
0.0
  0
LINE
  5
420
330
75
100
AcDbEntity
  8
Visible (ISO)
100
AcDbLine
 10
95.53318852206254
 20
151.4674161643285
 30
0.0
 11
95.53318852206253
 21
158.4165667254901
 31
0.0
  0
LINE
  5
421
330
75
100
AcDbEntity
  8
Visible (ISO)
100
AcDbLine
 10
95.53318852206253
 20
158.4165667254901
 30
0.0
 11
114.6250716141021
 21
169.4108509978815
 31
0.0
  0
ELLIPSE
  5
422
330
75
100
AcDbEntity
  8
Visible (ISO)
100
AcDbEllipse
 10
89.87633427256936
 20
261.0313536822608
 30
0.0
 11
1.297483750119455
 21
2.253116933977457
 31
0.0
210
0.0
220
0.0
230
1.0
 40
0.5780931159158107
 41
0.0
 42
6.283185307179586
  0
ELLIPSE
  5
423
330
75
100
AcDbEntity
  8
Visible (ISO)
100
AcDbEllipse
 10
120.2819258635954
 20
278.5407693753286
 30
0.0
 11
1.297483750119455
 21
2.253116933977457
 31
0.0
210
0.0
220
0.0
230
1.0
 40
0.5780931159158107
 41
0.0
 42
6.283185307179586
  0
ELLIPSE
  5
424
330
75
100
AcDbEntity
  8
Visible (ISO)
100
AcDbEllipse
 10
120.2819258635954
 20
168.1719075215857
 30
0.0
 11
1.297483750119455
 21
2.253116933977457
 31
0.0
210
0.0
220
0.0
230
1.0
 40
0.5780931159158107
 41
0.0
 42
6.283185307179586
  0
LINE
  5
425
330
75
100
AcDbEntity
  8
Visible (ISO)
100
AcDbLine
 10
89.16922749138269
 20
189.603839233397
 30
0.0
 11
89.16922749138269
 21
191.0754240581136
 31
0.0
  0
LINE
  5
426
330
75
100
AcDbEntity
  8
Visible (ISO)
100
AcDbLine
 10
89.16922749138269
 20
191.0754240581136
 30
0.0
 11
94.82608174087591
 21
194.3329897684518
 31
0.0
  0
LINE
  5
427
330
75
100
AcDbEntity
  8
Visible (ISO)
100
AcDbLine
 10
94.82608174087591
 20
194.3329897684518
 30
0.0
 11
94.82608174087591
 21
192.8614049437353
 31
0.0
  0
LINE
  5
428
330
75
100
AcDbEntity
  8
Visible (ISO)
100
AcDbLine
 10
94.82608174087591
 20
192.8614049437353
 30
0.0
 11
89.16922749138269
 21
189.603839233397
 31
0.0
  0
LINE
  5
429
330
75
100
AcDbEntity
  8
Visible (ISO)
100
AcDbLine
 10
117.4534987388488
 20
205.891667785088
 30
0.0
 11
117.4534987388488
 21
207.3632526098046
 31
0.0
  0
LINE
  5
42A
330
75
100
AcDbEntity
  8
Visible (ISO)
100
AcDbLine
 10
117.4534987388488
 20
207.3632526098046
 30
0.0
 11
123.110352988342
 21
210.6208183201428
 31
0.0
  0
LINE
  5
42B
330
75
100
AcDbEntity
  8
Visible (ISO)
100
AcDbLine
 10
123.110352988342
 20
210.6208183201428
 30
0.0
 11
123.110352988342
 21
209.1492334954262
 31
0.0
  0
LINE
  5
42C
330
75
100
AcDbEntity
  8
Visible (ISO)
100
AcDbLine
 10
123.110352988342
 20
209.1492334954262
 30
0.0
 11
117.4534987388488
 21
205.891667785088
 31
0.0
  0
ELLIPSE
  5
42D
330
75
100
AcDbEntity
  8
Visible (ISO)
100
AcDbEllipse
 10
91.9976546161293
 20
227.0166597429241
 30
0.0
 11
0.6736934856389452
 21
1.169887638795982
 31
0.0
210
0.0
220
0.0
230
1.0
 40
0.5780931159158108
 41
0.0
 42
6.283185307179586
  0
ELLIPSE
  5
42E
330
75
100
AcDbEntity
  8
Visible (ISO)
100
AcDbEllipse
 10
91.9976546161293
 20
187.2838694755767
 30
0.0
 11
0.6736934856389471
 21
1.169887638795986
 31
0.0
210
0.0
220
0.0
230
1.0
 40
0.5780931159158107
 41
0.0
 42
6.283185307179586
  0
ELLIPSE
  5
42F
330
75
100
AcDbEntity
  8
Visible (ISO)
100
AcDbEllipse
 10
120.2819258635954
 20
243.3044882946151
 30
0.0
 11
0.6736934856389452
 21
1.169887638795982
 31
0.0
210
0.0
220
0.0
230
1.0
 40
0.5780931159158108
 41
0.0
 42
6.283185307179586
  0
ELLIPSE
  5
430
330
75
100
AcDbEntity
  8
Visible (ISO)
100
AcDbEllipse
 10
120.2819258635954
 20
203.5716980272677
 30
0.0
 11
0.6736934856389471
 21
1.169887638795986
 31
0.0
210
0.0
220
0.0
230
1.0
 40
0.5780931159158107
 41
0.0
 42
6.283185307179586
  0
ELLIPSE
  5
431
330
75
100
AcDbEntity
  8
Visible (ISO)
100
AcDbEllipse
 10
104.725576677489
 20
210.6373159707514
 30
0.0
 11
1.122822476064795
 21
1.94981273132671
 31
0.0
210
0.0
220
0.0
230
1.0
 40
0.5780931159158106
 41
0.0
 42
6.283185307179586
  0
LINE
  5
432
330
75
100
AcDbEntity
  8
Visible (ISO)
100
AcDbLine
 10
103.1699417588784
 20
185.0515622301637
 30
0.0
 11
106.2812115960996
 21
186.8432233708497
 31
0.0
  0
LINE
  5
433
330
75
100
AcDbEntity
  8
Visible (ISO)
100
AcDbLine
 10
103.1699417588784
 20
188.6487695794709
 30
0.0
 11
103.1699417588784
 21
185.0515622301637
 31
0.0
  0
LINE
  5
434
330
75
100
AcDbEntity
  8
Visible (ISO)
100
AcDbLine
 10
106.2812115960996
 20
190.4404307201568
 30
0.0
 11
103.1699417588784
 21
188.6487695794709
 31
0.0
  0
LINE
  5
435
330
75
100
AcDbEntity
  8
Visible (ISO)
100
AcDbLine
 10
106.2812115960996
 20
186.8432233708497
 30
0.0
 11
106.2812115960996
 21
190.4404307201568
 31
0.0
  0
LINE
  5
436
330
75
100
AcDbEntity
  8
Visible (ISO)
100
AcDbLine
 10
101.7557281965051
 20
201.0786415743355
 30
0.0
 11
101.7557281965051
 21
196.6638871001858
 31
0.0
  0
LINE
  5
437
330
75
100
AcDbEntity
  8
Visible (ISO)
100
AcDbLine
 10
107.695425158473
 20
204.4990855701906
 30
0.0
 11
101.7557281965051
 21
201.0786415743355
 31
0.0
  0
LINE
  5
438
330
75
100
AcDbEntity
  8
Visible (ISO)
100
AcDbLine
 10
107.6954251584729
 20
200.0843310960409
 30
0.0
 11
107.695425158473
 21
204.4990855701906
 31
0.0
  0
LINE
  5
439
330
75
100
AcDbEntity
  8
Visible (ISO)
100
AcDbLine
 10
106.2812115960996
 20
197.6348454187712
 30
0.0
 11
107.6954251584729
 21
200.0843310960409
 31
0.0
  0
LINE
  5
43A
330
75
100
AcDbEntity
  8
Visible (ISO)
100
AcDbLine
 10
106.2812115960996
 20
192.075524969842
 30
0.0
 11
106.2812115960996
 21
197.6348454187712
 31
0.0
  0
LINE
  5
43B
330
75
100
AcDbEntity
  8
Visible (ISO)
100
AcDbLine
 10
103.1699417588784
 20
190.283863829156
 30
0.0
 11
106.2812115960996
 21
192.075524969842
 31
0.0
  0
LINE
  5
43C
330
75
100
AcDbEntity
  8
Visible (ISO)
100
AcDbLine
 10
103.1699417588784
 20
195.8431842780852
 30
0.0
 11
103.1699417588784
 21
190.283863829156
 31
0.0
  0
LINE
  5
43D
330
75
100
AcDbEntity
  8
Visible (ISO)
100
AcDbLine
 10
101.7557281965051
 20
196.6638871001858
 30
0.0
 11
103.1699417588784
 21
195.8431842780852
 31
0.0
  0
LINE
  5
43E
330
75
100
AcDbEntity
  8
Visible (ISO)
100
AcDbLine
 10
101.7557281965051
 20
255.8542989387857
 30
0.0
 11
101.7557281965051
 21
251.439544464636
 31
0.0
  0
LINE
  5
43F
330
75
100
AcDbEntity
  8
Visible (ISO)
100
AcDbLine
 10
107.695425158473
 20
259.2747429346407
 30
0.0
 11
101.7557281965051
 21
255.8542989387857
 31
0.0
  0
LINE
  5
440
330
75
100
AcDbEntity
  8
Visible (ISO)
100
AcDbLine
 10
107.695425158473
 20
254.859988460491
 30
0.0
 11
107.695425158473
 21
259.2747429346407
 31
0.0
  0
LINE
  5
441
330
75
100
AcDbEntity
  8
Visible (ISO)
100
AcDbLine
 10
106.2812115960997
 20
252.4105027832214
 30
0.0
 11
107.695425158473
 21
254.859988460491
 31
0.0
  0
LINE
  5
442
330
75
100
AcDbEntity
  8
Visible (ISO)
100
AcDbLine
 10
106.2812115960997
 20
246.8511823342922
 30
0.0
 11
106.2812115960997
 21
252.4105027832214
 31
0.0
  0
LINE
  5
443
330
75
100
AcDbEntity
  8
Visible (ISO)
100
AcDbLine
 10
103.1699417588784
 20
245.0595211936061
 30
0.0
 11
106.2812115960997
 21
246.8511823342922
 31
0.0
  0
LINE
  5
444
330
75
100
AcDbEntity
  8
Visible (ISO)
100
AcDbLine
 10
103.1699417588784
 20
250.6188416425354
 30
0.0
 11
103.1699417588784
 21
245.0595211936061
 31
0.0
  0
LINE
  5
445
330
75
100
AcDbEntity
  8
Visible (ISO)
100
AcDbLine
 10
101.7557281965051
 20
251.439544464636
 30
0.0
 11
103.1699417588784
 21
250.6188416425354
 31
0.0
  0
LINE
  5
446
330
75
100
AcDbEntity
  8
Visible (ISO)
100
AcDbLine
 10
117.0999453482551
 20
161.0302040439307
 30
0.0
 11
125.5852267224949
 21
165.916552609438
 31
0.0
  0
LINE
  5
447
330
75
100
AcDbEntity
  8
Visible (ISO)
100
AcDbLine
 10
96.5938486938422
 20
157.8057731548015
 30
0.0
 11
114.6250716141021
 21
168.1892638565046
 31
0.0
  0
LINE
  5
448
330
75
100
AcDbEntity
  8
Visible (ISO)
100
AcDbLine
 10
96.5938486938422
 20
150.8566225936399
 30
0.0
 11
96.5938486938422
 21
157.8057731548015
 31
0.0
  0
LINE
  5
449
330
75
100
AcDbEntity
  8
Visible (ISO)
100
AcDbLine
 10
96.5938486938422
 20
150.8566225936399
 30
0.0
 11
95.17963513146888
 21
148.4071369163703
 31
0.0
  0
LINE
  5
44A
330
75
100
AcDbEntity
  8
Visible (ISO)
100
AcDbLine
 10
86.69435375722907
 20
143.520788350863
 30
0.0
 11
95.17963513146888
 21
148.4071369163703
 31
0.0
  0
LINE
  5
44B
330
75
100
AcDbEntity
  8
Visible (ISO)
100
AcDbLine
 10
82.80526646070248
 20
153.5444187976435
 30
0.0
 11
84.2194800230761
 21
154.3588102252283
 31
0.0
  0
LINE
  5
44C
330
75
100
AcDbEntity
  8
Visible (ISO)
100
AcDbLine
 10
95.17963513146893
 20
266.9514700185386
 30
0.0
 11
96.59384869384226
 21
266.130767196438
 31
0.0
  0
LINE
  5
44D
330
75
100
AcDbEntity
  8
Visible (ISO)
100
AcDbLine
 10
96.59384869384226
 20
260.4032037766533
 30
0.0
 11
96.59384869384226
 21
266.130767196438
 31
0.0
  0
LINE
  5
44E
330
75
100
AcDbEntity
  8
Visible (ISO)
100
AcDbLine
 10
125.585226722495
 20
284.4608857116064
 30
0.0
 11
126.9994402848683
 21
283.6401828895058
 31
0.0
  0
LINE
  5
44F
330
75
100
AcDbEntity
  8
Visible (ISO)
100
AcDbLine
 10
126.9994402848682
 20
168.3660382867077
 30
0.0
 11
126.9994402848683
 21
283.6401828895057
 31
0.0
  0
LINE
  5
450
330
75
100
AcDbEntity
  8
Visible (ISO)
100
AcDbLine
 10
126.9994402848682
 20
168.3660382867077
 30
0.0
 11
125.5852267224949
 21
165.916552609438
 31
0.0
  0
ELLIPSE
  5
451
330
75
100
AcDbEntity
  8
Visible (ISO)
100
AcDbEllipse
 10
90.93699444434902
 20
260.4205601115722
 30
0.0
 11
1.297483750119588
 21
2.253116933977377
 31
0.0
210
0.0
220
0.0
230
0.9999999999999998
 40
0.5780931159158105
 41
0.4193421108859239
 42
2.722250542704708
  0
ELLIPSE
  5
452
330
75
100
AcDbEntity
  8
Visible (ISO)
100
AcDbEllipse
 10
121.342586035375
 20
277.92997580464
 30
0.0
 11
1.297483750119588
 21
2.253116933977377
 31
0.0
210
0.0
220
0.0
230
0.9999999999999998
 40
0.5780931159158105
 41
0.4193421108859346
 42
2.722250542704708
  0
ELLIPSE
  5
453
330
75
100
AcDbEntity
  8
Visible (ISO)
100
AcDbEllipse
 10
121.342586035375
 20
167.5611139508971
 30
0.0
 11
1.297483750119588
 21
2.253116933977377
 31
0.0
210
0.0
220
0.0
230
0.9999999999999998
 40
0.5780931159158105
 41
0.4193421108859239
 42
2.722250542704708
  0
LINE
  5
454
330
75
100
AcDbEntity
  8
Visible (ISO)
100
AcDbLine
 10
90.22988766316235
 20
190.464630487425
 30
0.0
 11
94.82608174087591
 21
193.111402627075
 31
0.0
  0
LINE
  5
455
330
75
100
AcDbEntity
  8
Visible (ISO)
100
AcDbLine
 10
90.22988766316235
 20
190.2146328040853
 30
0.0
 11
90.22988766316235
 21
190.464630487425
 31
0.0
  0
LINE
  5
456
330
75
100
AcDbEntity
  8
Visible (ISO)
100
AcDbLine
 10
118.5141589106284
 20
206.752459039116
 30
0.0
 11
123.110352988342
 21
209.3992311787659
 31
0.0
  0
LINE
  5
457
330
75
100
AcDbEntity
  8
Visible (ISO)
100
AcDbLine
 10
118.5141589106284
 20
206.5024613557763
 30
0.0
 11
118.5141589106284
 21
206.752459039116
 31
0.0
  0
ELLIPSE
  5
458
330
75
100
AcDbEntity
  8
Visible (ISO)
100
AcDbEllipse
 10
93.05831478790896
 20
226.4058661722355
 30
0.0
 11
0.6736934856390155
 21
1.169887638795942
 31
0.0
210
0.0
220
0.0
230
1.0
 40
0.5780931159158105
 41
0.9013402729253918
 42
2.240252380664729
  0
ELLIPSE
  5
459
330
75
100
AcDbEntity
  8
Visible (ISO)
100
AcDbEllipse
 10
93.05831478790896
 20
186.6730759048881
 30
0.0
 11
0.6736934856390148
 21
1.169887638795942
 31
0.0
210
0.0
220
0.0
230
0.9999999999999998
 40
0.5780931159158106
 41
0.9013402729254131
 42
2.240252380664761
  0
ELLIPSE
  5
45A
330
75
100
AcDbEntity
  8
Visible (ISO)
100
AcDbEllipse
 10
121.342586035375
 20
242.6936947239265
 30
0.0
 11
0.6736934856390143
 21
1.169887638795941
 31
0.0
210
0.0
220
0.0
230
1.0
 40
0.5780931159158106
 41
0.9013402729253918
 42
2.240252380664729
  0
ELLIPSE
  5
45B
330
75
100
AcDbEntity
  8
Visible (ISO)
100
AcDbEllipse
 10
121.342586035375
 20
202.9609044565791
 30
0.0
 11
0.6736934856390134
 21
1.16988763879594
 31
0.0
210
0.0
220
0.0
230
0.9999999999999998
 40
0.5780931159158106
 41
0.9013402729253954
 42
2.240252380664761
  0
ELLIPSE
  5
45C
330
75
100
AcDbEntity
  8
Visible (ISO)
100
AcDbEllipse
 10
105.7862368492687
 20
210.0265224000628
 30
0.0
 11
1.122822476065027
 21
1.949812731326575
 31
0.0
210
0.0
220
0.0
230
1.0
 40
0.5780931159158106
 41
0.4898523421849675
 42
2.65174031140561
  0
LINE
  5
45D
330
75
100
AcDbEntity
  8
Visible (ISO)
100
AcDbLine
 10
104.230601930658
 20
185.6623558008519
 30
0.0
 11
104.230601930658
 21
188.0379760087823
 31
0.0
  0
LINE
  5
45E
330
75
100
AcDbEntity
  8
Visible (ISO)
100
AcDbLine
 10
104.230601930658
 20
188.0379760087823
 30
0.0
 11
106.2812115960996
 21
189.2188435787801
 31
0.0
  0
LINE
  5
45F
330
75
100
AcDbEntity
  8
Visible (ISO)
100
AcDbLine
 10
102.8163883682847
 20
200.4678480036469
 30
0.0
 11
107.695425158473
 21
203.2774984288138
 31
0.0
  0
LINE
  5
460
330
75
100
AcDbEntity
  8
Visible (ISO)
100
AcDbLine
 10
102.8163883682847
 20
196.0530935294972
 30
0.0
 11
102.8163883682847
 21
200.4678480036469
 31
0.0
  0
LINE
  5
461
330
75
100
AcDbEntity
  8
Visible (ISO)
100
AcDbLine
 10
104.230601930658
 20
195.2323907073966
 30
0.0
 11
102.8163883682847
 21
196.0530935294972
 31
0.0
  0
LINE
  5
462
330
75
100
AcDbEntity
  8
Visible (ISO)
100
AcDbLine
 10
104.230601930658
 20
190.8946573998442
 30
0.0
 11
104.230601930658
 21
195.2323907073966
 31
0.0
  0
LINE
  5
463
330
75
100
AcDbEntity
  8
Visible (ISO)
100
AcDbLine
 10
102.8163883682847
 20
255.2435053680971
 30
0.0
 11
107.695425158473
 21
258.053155793264
 31
0.0
  0
LINE
  5
464
330
75
100
AcDbEntity
  8
Visible (ISO)
100
AcDbLine
 10
102.8163883682847
 20
250.8287508939474
 30
0.0
 11
102.8163883682847
 21
255.2435053680971
 31
0.0
  0
LINE
  5
465
330
75
100
AcDbEntity
  8
Visible (ISO)
100
AcDbLine
 10
104.230601930658
 20
250.0080480718468
 30
0.0
 11
102.8163883682847
 21
250.8287508939474
 31
0.0
  0
LINE
  5
466
330
75
100
AcDbEntity
  8
Visible (ISO)
100
AcDbLine
 10
104.230601930658
 20
245.6703147642944
 30
0.0
 11
104.230601930658
 21
250.0080480718468
 31
0.0
  0
LINE
  5
467
330
75
100
AcDbEntity
  8
Visible (ISO)
100
AcDbLine
 10
103.1699417588784
 20
188.6487695794709
 30
0.0
 11
104.230601930658
 21
188.0379760087823
 31
0.0
  0
LINE
  5
468
330
75
100
AcDbEntity
  8
Visible (ISO)
100
AcDbLine
 10
126.9994402848683
 20
283.6401828895058
 30
0.0
 11
125.9387801130886
 21
284.2509764601944
 31
0.0
  0
LINE
  5
469
330
75
100
AcDbEntity
  8
Visible (ISO)
100
AcDbLine
 10
124.5245665507153
 20
285.0716792822949
 30
0.0
 11
125.585226722495
 21
284.4608857116064
 31
0.0
  0
LINE
  5
46A
330
75
100
AcDbEntity
  8
Visible (ISO)
100
AcDbLine
 10
116.0392851764755
 20
161.6409976146194
 30
0.0
 11
117.0999453482551
 21
161.0302040439307
 31
0.0
  0
LINE
  5
46B
330
75
100
AcDbEntity
  8
Visible (ISO)
100
AcDbLine
 10
103.1699417588784
 20
250.6188416425354
 30
0.0
 11
104.230601930658
 21
250.0080480718468
 31
0.0
  0
LINE
  5
46C
330
75
100
AcDbEntity
  8
Visible (ISO)
100
AcDbLine
 10
95.17963513146888
 20
148.4071369163703
 30
0.0
 11
94.11897495968919
 21
149.0179304870588
 31
0.0
  0
LINE
  5
46D
330
75
100
AcDbEntity
  8
Visible (ISO)
100
AcDbLine
 10
95.53318852206254
 20
151.4674161643285
 30
0.0
 11
96.5938486938422
 21
150.8566225936399
 31
0.0
  0
LINE
  5
46E
330
75
100
AcDbEntity
  8
Visible (ISO)
100
AcDbLine
 10
85.63369358544939
 20
144.1315819215516
 30
0.0
 11
86.69435375722907
 21
143.520788350863
 31
0.0
  0
LINE
  5
46F
330
75
100
AcDbEntity
  8
Visible (ISO)
100
AcDbLine
 10
125.5852267224949
 20
165.916552609438
 30
0.0
 11
124.5245665507152
 21
166.5273461801266
 31
0.0
  0
LINE
  5
470
330
75
100
AcDbEntity
  8
Visible (ISO)
100
AcDbLine
 10
125.9387801130886
 20
168.9768318573963
 30
0.0
 11
126.9994402848682
 21
168.3660382867077
 31
0.0
  0
LINE
  5
471
330
75
100
AcDbEntity
  8
Visible (ISO)
100
AcDbLine
 10
101.7557281965051
 20
255.8542989387857
 30
0.0
 11
102.8163883682847
 21
255.2435053680971
 31
0.0
  0
LINE
  5
472
330
75
100
AcDbEntity
  8
Visible (ISO)
100
AcDbLine
 10
89.16922749138269
 20
191.0754240581136
 30
0.0
 11
90.22988766316235
 21
190.464630487425
 31
0.0
  0
LINE
  5
473
330
75
100
AcDbEntity
  8
Visible (ISO)
100
AcDbLine
 10
117.4534987388488
 20
207.3632526098046
 30
0.0
 11
118.5141589106284
 21
206.752459039116
 31
0.0
  0
LINE
  5
474
330
75
100
AcDbEntity
  8
Visible (ISO)
100
AcDbLine
 10
96.59384869384226
 20
266.130767196438
 30
0.0
 11
95.53318852206258
 21
266.7415607671267
 31
0.0
  0
LINE
  5
475
330
75
100
AcDbEntity
  8
Visible (ISO)
100
AcDbLine
 10
101.7557281965051
 20
251.439544464636
 30
0.0
 11
102.8163883682847
 21
250.8287508939474
 31
0.0
  0
LINE
  5
476
330
75
100
AcDbEntity
  8
Visible (ISO)
100
AcDbLine
 10
103.1699417588784
 20
195.8431842780852
 30
0.0
 11
104.230601930658
 21
195.2323907073966
 31
0.0
  0
LINE
  5
477
330
75
100
AcDbEntity
  8
Visible (ISO)
100
AcDbLine
 10
101.7557281965051
 20
196.6638871001858
 30
0.0
 11
102.8163883682847
 21
196.0530935294972
 31
0.0
  0
LINE
  5
478
330
75
100
AcDbEntity
  8
Visible (ISO)
100
AcDbLine
 10
94.11897495968927
 20
267.5622635892271
 30
0.0
 11
95.17963513146893
 21
266.9514700185386
 31
0.0
  0
LINE
  5
479
330
75
100
AcDbEntity
  8
Visible (ISO)
100
AcDbLine
 10
95.53318852206253
 20
158.4165667254901
 30
0.0
 11
96.5938486938422
 21
157.8057731548015
 31
0.0
  0
LINE
  5
47A
330
75
100
AcDbEntity
  8
Visible (ISO)
100
AcDbLine
 10
101.7557281965051
 20
201.0786415743355
 30
0.0
 11
102.8163883682847
 21
200.4678480036469
 31
0.0
  0
ELLIPSE
  5
47B
330
75
100
AcDbEntity
  8
Visible (ISO)
100
AcDbEllipse
 10
81.03749950773638
 20
154.5624080821245
 30
0.0
 11
-1.0
 21
0.0000000000000594
 31
0.0
210
0.0
220
0.0
230
1.0
 40
0.5758617009853121
 41
0.7853981633975576
 42
2.356194490192439
  0
ELLIPSE
  5
47C
330
75
100
AcDbEntity
  8
Visible (ISO)
100
AcDbEllipse
 10
81.03749950773639
 20
248.5803274390167
 30
0.0
 11
-1.000000000000001
 21
0.0000000000000594
 31
0.0
210
0.0
220
0.0
230
1.0
 40
0.5758617009853121
 41
0.78539816339757
 42
2.356194490192475
  0
LINE
  5
47D
330
75
100
AcDbEntity
  8
Visible Narrow (ISO)
100
AcDbLine
 10
80.33039272654974
 20
248.1731317252244
 30
0.0
 11
80.33039272654972
 21
154.1552123683322
 31
0.0
  0
LINE
  5
47E
330
75
100
AcDbEntity
  8
Visible Narrow (ISO)
100
AcDbLine
 10
81.74460628892282
 20
154.1552123683321
 30
0.0
 11
82.80526646070248
 21
153.5444187976435
 31
0.0
  0
ELLIPSE
  5
47F
330
75
100
AcDbEntity
  8
Visible (ISO)
100
AcDbEllipse
 10
81.03749950773638
 20
154.5624080821245
 30
0.0
 11
-2.499999999999998
 21
0.0000000000001486
 31
0.0
210
0.0
220
0.0
230
1.0
 40
0.5758617009853121
 41
0.7853981633975345
 42
2.356194490192432
  0
LINE
  5
480
330
75
100
AcDbEntity
  8
Visible (ISO)
100
AcDbLine
 10
28.71159769993924
 20
183.880499475177
 30
0.0
 11
28.71159769993926
 21
277.8984188320691
 31
0.0
  0
LINE
  5
481
330
75
100
AcDbEntity
  8
Visible (ISO)
100
AcDbLine
 10
28.71159769993924
 20
183.880499475177
 30
0.0
 11
80.33039272654972
 21
154.1552123683322
 31
0.0
  0
LINE
  5
482
330
75
100
AcDbEntity
  8
Visible (ISO)
100
AcDbLine
 10
28.71159769993926
 20
277.8984188320691
 30
0.0
 11
80.33039272654974
 21
248.1731317252244
 31
0.0
  0
LINE
  5
483
330
75
100
AcDbEntity
  8
Visible (ISO)
100
AcDbLine
 10
59.50609802060893
 20
202.0170062419847
 30
0.0
 11
67.63782600425304
 21
197.3342555333721
 31
0.0
  0
LINE
  5
484
330
75
100
AcDbEntity
  8
Visible (ISO)
100
AcDbLine
 10
67.63782600425304
 20
197.3342555333721
 30
0.0
 11
67.63782600425304
 21
196.911281333291
 31
0.0
  0
LINE
  5
485
330
75
100
AcDbEntity
  8
Visible (ISO)
100
AcDbLine
 10
67.63782600425304
 20
182.5129107936278
 30
0.0
 11
67.63782600425304
 21
176.4868038498874
 31
0.0
  0
LINE
  5
486
330
75
100
AcDbEntity
  8
Visible (ISO)
100
AcDbLine
 10
67.63782600425304
 20
176.4868038498874
 30
0.0
 11
66.22361244188015
 21
177.3011952774722
 31
0.0
  0
LINE
  5
487
330
75
100
AcDbEntity
  8
Visible (ISO)
100
AcDbLine
 10
66.22361244188015
 20
179.72478600937
 30
0.0
 11
66.22361244188015
 21
177.3011952774722
 31
0.0
  0
LINE
  5
488
330
75
100
AcDbEntity
  8
Visible Narrow (ISO)
100
AcDbLine
 10
66.22361244188015
 20
179.72478600937
 30
0.0
 11
60.92031158298182
 21
182.7787538628129
 31
0.0
  0
LINE
  5
489
330
75
100
AcDbEntity
  8
Visible (ISO)
100
AcDbLine
 10
60.92031158298182
 20
182.7787538628129
 30
0.0
 11
60.92031158298183
 21
180.3551631309151
 31
0.0
  0
LINE
  5
48A
330
75
100
AcDbEntity
  8
Visible (ISO)
100
AcDbLine
 10
60.92031158298183
 20
180.3551631309151
 30
0.0
 11
59.50609802060878
 21
181.1695545585
 31
0.0
  0
LINE
  5
48B
330
75
100
AcDbEntity
  8
Visible (ISO)
100
AcDbLine
 10
59.50609802060878
 20
181.1695545585
 30
0.0
 11
59.50609802060893
 21
202.0170062419847
 31
0.0
  0
LINE
  5
48C
330
75
100
AcDbEntity
  8
Visible (ISO)
100
AcDbLine
 10
59.50609802060895
 20
245.3061265023972
 30
0.0
 11
60.92031158298183
 21
244.4917350748124
 31
0.0
  0
LINE
  5
48D
330
75
100
AcDbEntity
  8
Visible (ISO)
100
AcDbLine
 10
60.92031158298183
 20
242.0681443429145
 30
0.0
 11
60.92031158298183
 21
244.4917350748124
 31
0.0
  0
LINE
  5
48E
330
75
100
AcDbEntity
  8
Visible Narrow (ISO)
100
AcDbLine
 10
66.22361244188017
 20
239.0141764894716
 30
0.0
 11
60.92031158298183
 21
242.0681443429145
 31
0.0
  0
LINE
  5
48F
330
75
100
AcDbEntity
  8
Visible (ISO)
100
AcDbLine
 10
66.22361244188017
 20
239.0141764894716
 30
0.0
 11
66.22361244188017
 21
241.4377672213694
 31
0.0
  0
LINE
  5
490
330
75
100
AcDbEntity
  8
Visible (ISO)
100
AcDbLine
 10
66.22361244188017
 20
241.4377672213694
 30
0.0
 11
67.63782600425304
 21
240.6233757937846
 31
0.0
  0
LINE
  5
491
330
75
100
AcDbEntity
  8
Visible (ISO)
100
AcDbLine
 10
67.63782600425304
 20
240.6233757937846
 30
0.0
 11
67.63782600425304
 21
237.8548345603824
 31
0.0
  0
LINE
  5
492
330
75
100
AcDbEntity
  8
Visible (ISO)
100
AcDbLine
 10
67.63782600425304
 20
226.306834017267
 30
0.0
 11
67.63782600425304
 21
219.7759241102999
 31
0.0
  0
LINE
  5
493
330
75
100
AcDbEntity
  8
Visible (ISO)
100
AcDbLine
 10
67.63782600425304
 20
219.7759241102999
 30
0.0
 11
59.50609802060878
 21
224.4586748189125
 31
0.0
  0
LINE
  5
494
330
75
100
AcDbEntity
  8
Visible (ISO)
100
AcDbLine
 10
59.50609802060878
 20
224.4586748189125
 30
0.0
 11
59.50609802060895
 21
245.3061265023972
 31
0.0
  0
LINE
  5
495
330
75
100
AcDbEntity
  8
Visible (ISO)
100
AcDbLine
 10
31.22182677315116
 20
261.5939550540929
 30
0.0
 11
32.63604033552404
 21
260.7795636265081
 31
0.0
  0
LINE
  5
496
330
75
100
AcDbEntity
  8
Visible (ISO)
100
AcDbLine
 10
32.63604033552413
 20
258.3559728946103
 30
0.0
 11
32.63604033552404
 21
260.7795636265081
 31
0.0
  0
LINE
  5
497
330
75
100
AcDbEntity
  8
Visible Narrow (ISO)
100
AcDbLine
 10
37.93934119442247
 20
255.3020050411674
 30
0.0
 11
32.63604033552413
 21
258.3559728946103
 31
0.0
  0
LINE
  5
498
330
75
100
AcDbEntity
  8
Visible (ISO)
100
AcDbLine
 10
37.93934119442247
 20
255.3020050411674
 30
0.0
 11
37.93934119442238
 21
257.7255957730652
 31
0.0
  0
LINE
  5
499
330
75
100
AcDbEntity
  8
Visible (ISO)
100
AcDbLine
 10
37.93934119442238
 20
257.7255957730652
 30
0.0
 11
39.35355475679525
 21
256.9112043454804
 31
0.0
  0
LINE
  5
49A
330
75
100
AcDbEntity
  8
Visible (ISO)
100
AcDbLine
 10
39.35355475679525
 20
256.9112043454804
 30
0.0
 11
39.35355475679525
 21
254.1426631120783
 31
0.0
  0
LINE
  5
49B
330
75
100
AcDbEntity
  8
Visible (ISO)
100
AcDbLine
 10
39.35355475679525
 20
242.5946625689629
 30
0.0
 11
39.35355475679525
 21
236.0637526619957
 31
0.0
  0
LINE
  5
49C
330
75
100
AcDbEntity
  8
Visible (ISO)
100
AcDbLine
 10
39.35355475679525
 20
236.0637526619957
 30
0.0
 11
31.22182677315097
 21
240.7465033706083
 31
0.0
  0
LINE
  5
49D
330
75
100
AcDbEntity
  8
Visible (ISO)
100
AcDbLine
 10
31.22182677315097
 20
240.7465033706083
 30
0.0
 11
31.22182677315116
 21
261.5939550540929
 31
0.0
  0
LINE
  5
49E
330
75
100
AcDbEntity
  8
Visible (ISO)
100
AcDbLine
 10
31.22182677315116
 20
218.3048347936804
 30
0.0
 11
39.35355475679525
 21
213.6220840850679
 31
0.0
  0
LINE
  5
49F
330
75
100
AcDbEntity
  8
Visible (ISO)
100
AcDbLine
 10
39.35355475679525
 20
213.6220840850679
 30
0.0
 11
39.35355475679525
 21
213.1991098849868
 31
0.0
  0
LINE
  5
4A0
330
75
100
AcDbEntity
  8
Visible (ISO)
100
AcDbLine
 10
39.35355475679525
 20
198.8007393453234
 30
0.0
 11
39.35355475679524
 21
192.7746324015831
 31
0.0
  0
LINE
  5
4A1
330
75
100
AcDbEntity
  8
Visible (ISO)
100
AcDbLine
 10
39.35355475679524
 20
192.7746324015831
 30
0.0
 11
37.93934119442236
 21
193.5890238291679
 31
0.0
  0
LINE
  5
4A2
330
75
100
AcDbEntity
  8
Visible (ISO)
100
AcDbLine
 10
37.93934119442247
 20
196.0126145610658
 30
0.0
 11
37.93934119442236
 21
193.5890238291679
 31
0.0
  0
LINE
  5
4A3
330
75
100
AcDbEntity
  8
Visible Narrow (ISO)
100
AcDbLine
 10
37.93934119442247
 20
196.0126145610658
 30
0.0
 11
32.63604033552412
 21
199.0665824145088
 31
0.0
  0
LINE
  5
4A4
330
75
100
AcDbEntity
  8
Visible (ISO)
100
AcDbLine
 10
32.63604033552412
 20
199.0665824145088
 30
0.0
 11
32.63604033552413
 21
196.6429916826109
 31
0.0
  0
LINE
  5
4A5
330
75
100
AcDbEntity
  8
Visible (ISO)
100
AcDbLine
 10
32.63604033552413
 20
196.6429916826109
 30
0.0
 11
31.22182677315097
 21
197.4573831101957
 31
0.0
  0
LINE
  5
4A6
330
75
100
AcDbEntity
  8
Visible (ISO)
100
AcDbLine
 10
31.22182677315097
 20
197.4573831101957
 30
0.0
 11
31.22182677315116
 21
218.3048347936804
 31
0.0
  0
LINE
  5
4A7
330
75
100
AcDbEntity
  8
Visible Narrow (ISO)
100
AcDbLine
 10
79.26973255476958
 20
153.5444187976438
 30
0.0
 11
80.33039272654972
 21
154.1552123683322
 31
0.0
  0
LINE
  5
4A8
330
75
100
AcDbEntity
  8
Visible (ISO)
100
AcDbLine
 10
27.65093752815926
 20
183.2697059044885
 30
0.0
 11
79.26973255476958
 21
153.5444187976438
 31
0.0
  0
LINE
  5
4A9
330
75
100
AcDbEntity
  8
Visible (ISO)
100
AcDbLine
 10
27.65093752815926
 20
183.2697059044885
 30
0.0
 11
27.65093752815928
 21
277.2876252613807
 31
0.0
  0
LINE
  5
4AA
330
75
100
AcDbEntity
  8
Visible (ISO)
100
AcDbLine
 10
66.57716583247307
 20
180.6757965356756
 30
0.0
 11
66.57716583247307
 21
177.0975974205761
 31
0.0
  0
LINE
  5
4AB
330
75
100
AcDbEntity
  8
Visible (ISO)
100
AcDbLine
 10
59.50609802060888
 20
200.7954191006075
 30
0.0
 11
63.40888520919406
 21
198.5479534316045
 31
0.0
  0
LINE
  5
4AC
330
75
100
AcDbEntity
  8
Visible (ISO)
100
AcDbLine
 10
59.85965141120185
 20
180.9659567016039
 30
0.0
 11
59.85965141120186
 21
182.1679602921246
 31
0.0
  0
LINE
  5
4AD
330
75
100
AcDbEntity
  8
Visible (ISO)
100
AcDbLine
 10
59.50609802060888
 20
244.08453936102
 30
0.0
 11
59.85965141120188
 21
243.880941504124
 31
0.0
  0
LINE
  5
4AE
330
75
100
AcDbEntity
  8
Visible (ISO)
100
AcDbLine
 10
66.57716583247307
 20
240.0125822230962
 30
0.0
 11
66.57716583247307
 21
238.4703616769578
 31
0.0
  0
LINE
  5
4AF
330
75
100
AcDbEntity
  8
Visible (ISO)
100
AcDbLine
 10
66.57716583247307
 20
226.9176275879558
 30
0.0
 11
66.57716583247307
 21
220.3867176809886
 31
0.0
  0
LINE
  5
4B0
330
75
100
AcDbEntity
  8
Visible (ISO)
100
AcDbLine
 10
66.22361244188017
 20
240.2161800799923
 30
0.0
 11
66.57716583247307
 21
240.0125822230962
 31
0.0
  0
LINE
  5
4B1
330
75
100
AcDbEntity
  8
Visible (ISO)
100
AcDbLine
 10
59.85965141120188
 20
243.880941504124
 30
0.0
 11
59.85965141120188
 21
241.4573507722261
 31
0.0
  0
LINE
  5
4B2
330
75
100
AcDbEntity
  8
Visible (ISO)
100
AcDbLine
 10
31.22182677315111
 20
260.3723679127157
 30
0.0
 11
31.57538016374417
 21
260.1687700558198
 31
0.0
  0
LINE
  5
4B3
330
75
100
AcDbEntity
  8
Visible (ISO)
100
AcDbLine
 10
38.29289458501529
 20
256.300410774792
 30
0.0
 11
38.29289458501529
 21
254.7581902286536
 31
0.0
  0
LINE
  5
4B4
330
75
100
AcDbEntity
  8
Visible (ISO)
100
AcDbLine
 10
38.29289458501529
 20
243.2054561396516
 30
0.0
 11
38.29289458501529
 21
236.6745462326844
 31
0.0
  0
LINE
  5
4B5
330
75
100
AcDbEntity
  8
Visible (ISO)
100
AcDbLine
 10
37.93934119442242
 20
256.504008631688
 30
0.0
 11
38.29289458501529
 21
256.300410774792
 31
0.0
  0
LINE
  5
4B6
330
75
100
AcDbEntity
  8
Visible (ISO)
100
AcDbLine
 10
31.57538016374417
 20
260.1687700558198
 30
0.0
 11
31.57538016374417
 21
257.7451793239219
 31
0.0
  0
LINE
  5
4B7
330
75
100
AcDbEntity
  8
Visible (ISO)
100
AcDbLine
 10
38.29289458501528
 20
196.9636250873712
 30
0.0
 11
38.29289458501528
 21
193.3854259722719
 31
0.0
  0
LINE
  5
4B8
330
75
100
AcDbEntity
  8
Visible (ISO)
100
AcDbLine
 10
31.22182677315111
 20
217.0832476523033
 30
0.0
 11
35.12461396173628
 21
214.8357819833003
 31
0.0
  0
LINE
  5
4B9
330
75
100
AcDbEntity
  8
Visible (ISO)
100
AcDbLine
 10
31.57538016374406
 20
197.2537852532995
 30
0.0
 11
31.57538016374415
 21
198.4557888438203
 31
0.0
  0
ELLIPSE
  5
4BA
330
75
100
AcDbEntity
  8
Visible (ISO)
100
AcDbEllipse
 10
61.62741836416849
 20
183.1859495766052
 30
0.0
 11
-0.4990322115844291
 21
-0.8665834361452164
 31
0.0
210
0.0
220
0.0
230
1.0
 40
0.5780931159158105
 41
4.710455271961784
 42
5.495853435359194
  0
LINE
  5
4BB
330
75
100
AcDbEntity
  8
Visible (ISO)
100
AcDbLine
 10
63.58452514535532
 20
187.7319385630924
 30
0.0
 11
61.12741836416839
 21
183.4761118420283
 31
0.0
  0
ELLIPSE
  5
4BC
330
75
100
AcDbEntity
  8
Visible (ISO)
100
AcDbEllipse
 10
62.33452514535514
 20
188.4573442266501
 30
0.0
 11
-1.247580528961126
 21
-2.166458590362834
 31
0.0
210
0.0
220
0.0
230
0.9999999999999998
 40
0.5780931159158106
 41
1.568862618372126
 42
2.354260781769692
  0
LINE
  5
4BD
330
75
100
AcDbEntity
  8
Visible (ISO)
100
AcDbLine
 10
64.10229209832177
 20
198.9472599022524
 30
0.0
 11
64.10229209832175
 21
189.4753335111308
 31
0.0
  0
LINE
  5
4BE
330
75
100
AcDbEntity
  8
Visible (ISO)
100
AcDbLine
 10
63.04163192654179
 20
198.336466331564
 30
0.0
 11
64.10229209832177
 21
198.9472599022524
 31
0.0
  0
LINE
  5
4BF
330
75
100
AcDbEntity
  8
Visible (ISO)
100
AcDbLine
 10
63.04163192654177
 20
188.8645399404424
 30
0.0
 11
63.04163192654179
 21
198.336466331564
 31
0.0
  0
ELLIPSE
  5
4C0
330
75
100
AcDbEntity
  8
Visible (ISO)
100
AcDbEllipse
 10
62.33452514535513
 20
188.4573442266501
 30
0.0
 11
0.4990322115844056
 21
0.8665834361451755
 31
0.0
210
0.0
220
0.0
230
1.0
 40
0.5780931159158106
 41
4.710455271961851
 42
5.495853435359256
  0
LINE
  5
4C1
330
75
100
AcDbEntity
  8
Visible (ISO)
100
AcDbLine
 10
60.37741836416831
 20
183.911355240163
 30
0.0
 11
62.8345251453552
 21
188.1671819612271
 31
0.0
  0
ELLIPSE
  5
4C2
330
75
100
AcDbEntity
  8
Visible (ISO)
100
AcDbEllipse
 10
61.62741836416848
 20
183.1859495766052
 30
0.0
 11
1.247580528961153
 21
2.166458590362881
 31
0.0
210
0.0
220
0.0
230
1.0
 40
0.5780931159158106
 41
1.56886261837209
 42
2.354260781769681
  0
ELLIPSE
  5
4C3
330
75
100
AcDbEntity
  8
Visible (ISO)
100
AcDbEllipse
 10
33.3431471167108
 20
199.473778128301
 30
0.0
 11
-0.4990322115844291
 21
-0.8665834361452164
 31
0.0
210
0.0
220
0.0
230
1.0
 40
0.5780931159158105
 41
4.710455271961787
 42
5.495853435359188
  0
LINE
  5
4C4
330
75
100
AcDbEntity
  8
Visible (ISO)
100
AcDbLine
 10
35.30025389789763
 20
204.0197671147881
 30
0.0
 11
32.8431471167107
 21
199.7639403937242
 31
0.0
  0
ELLIPSE
  5
4C5
330
75
100
AcDbEntity
  8
Visible (ISO)
100
AcDbEllipse
 10
34.05025389789744
 20
204.7451727783459
 30
0.0
 11
-1.247580528961126
 21
-2.166458590362834
 31
0.0
210
0.0
220
0.0
230
0.9999999999999998
 40
0.5780931159158106
 41
1.568862618372115
 42
2.354260781769694
  0
LINE
  5
4C6
330
75
100
AcDbEntity
  8
Visible (ISO)
100
AcDbLine
 10
35.81802085086408
 20
215.2350884539482
 30
0.0
 11
35.81802085086406
 21
205.7631620628266
 31
0.0
  0
LINE
  5
4C7
330
75
100
AcDbEntity
  8
Visible (ISO)
100
AcDbLine
 10
34.7573606790841
 20
214.6242948832598
 30
0.0
 11
35.81802085086408
 21
215.2350884539482
 31
0.0
  0
LINE
  5
4C8
330
75
100
AcDbEntity
  8
Visible (ISO)
100
AcDbLine
 10
34.75736067908408
 20
205.1523684921382
 30
0.0
 11
34.7573606790841
 21
214.6242948832598
 31
0.0
  0
ELLIPSE
  5
4C9
330
75
100
AcDbEntity
  8
Visible (ISO)
100
AcDbEllipse
 10
34.05025389789742
 20
204.7451727783459
 30
0.0
 11
0.4990322115844056
 21
0.8665834361451755
 31
0.0
210
0.0
220
0.0
230
1.0
 40
0.5780931159158106
 41
4.710455271961853
 42
5.495853435359256
  0
LINE
  5
4CA
330
75
100
AcDbEntity
  8
Visible (ISO)
100
AcDbLine
 10
32.09314711671061
 20
200.1991837918589
 30
0.0
 11
34.55025389789752
 21
204.4550105129228
 31
0.0
  0
ELLIPSE
  5
4CB
330
75
100
AcDbEntity
  8
Visible (ISO)
100
AcDbEllipse
 10
33.34314711671078
 20
199.473778128301
 30
0.0
 11
1.247580528961153
 21
2.166458590362881
 31
0.0
210
0.0
220
0.0
230
1.0
 40
0.5780931159158106
 41
1.56886261837209
 42
2.354260781769681
  0
ELLIPSE
  5
4CC
330
75
100
AcDbEntity
  8
Visible (ISO)
100
AcDbEllipse
 10
33.3431471167108
 20
258.7631686084026
 30
0.0
 11
-0.4990322115844212
 21
-0.8665834361452031
 31
0.0
210
0.0
220
0.0
230
0.9999999999999998
 40
0.5780931159158106
 41
5.495853435359283
 42
6.281251598756735
  0
LINE
  5
4CD
330
75
100
AcDbEntity
  8
Visible Narrow (ISO)
100
AcDbLine
 10
38.14644797560906
 20
254.8431767885513
 30
0.0
 11
32.84314711671071
 21
257.8971446419942
 31
0.0
  0
ELLIPSE
  5
4CE
330
75
100
AcDbEntity
  8
Visible (ISO)
100
AcDbEllipse
 10
38.64644797560913
 20
255.7092007549596
 30
0.0
 11
-0.4990322115844133
 21
-0.8665834361451892
 31
0.0
210
0.0
220
0.0
230
0.9999999999999998
 40
0.5780931159158106
 41
5.495853435359291
 42
6.281251598756711
  0
LINE
  5
4CF
330
75
100
AcDbEntity
  8
Visible (ISO)
100
AcDbLine
 10
32.63604033552404
 20
260.7795636265081
 30
0.0
 11
31.57538016374417
 21
260.1687700558198
 31
0.0
  0
ELLIPSE
  5
4D0
330
75
100
AcDbEntity
  8
Visible (ISO)
100
AcDbEllipse
 10
33.3431471167108
 20
258.7631686084026
 30
0.0
 11
-1.24758052896103
 21
-2.166458590362967
 31
0.0
210
0.0
220
0.0
230
1.0
 40
0.5780931159158106
 41
5.495853435359267
 42
6.281251598756705
  0
LINE
  5
4D1
330
75
100
AcDbEntity
  8
Visible (ISO)
100
AcDbLine
 10
32.09314711671062
 20
256.5981086923817
 30
0.0
 11
34.55025389789752
 21
255.1721893523506
 31
0.0
  0
ELLIPSE
  5
4D2
330
75
100
AcDbEntity
  8
Visible (ISO)
100
AcDbEllipse
 10
34.05025389789744
 20
254.3061653859423
 30
0.0
 11
0.4990322115844009
 21
0.8665834361451675
 31
0.0
210
0.0
220
0.0
230
1.0
 40
0.5780931159158107
 41
5.495853435359262
 42
6.281251598756647
  0
LINE
  5
4D3
330
75
100
AcDbEntity
  8
Visible (ISO)
100
AcDbLine
 10
34.75736067908409
 20
254.7133610997345
 30
0.0
 11
34.7573606790841
 21
245.241434708613
 31
0.0
  0
LINE
  5
4D4
330
75
100
AcDbEntity
  8
Visible (ISO)
100
AcDbLine
 10
34.7573606790841
 20
245.241434708613
 30
0.0
 11
35.81802085086408
 21
245.8522282793014
 31
0.0
  0
LINE
  5
4D5
330
75
100
AcDbEntity
  8
Visible (ISO)
100
AcDbLine
 10
35.81802085086408
 20
245.8522282793014
 30
0.0
 11
35.81802085086407
 21
255.3241546704229
 31
0.0
  0
ELLIPSE
  5
4D6
330
75
100
AcDbEntity
  8
Visible (ISO)
100
AcDbEllipse
 10
34.05025389789745
 20
254.3061653859423
 30
0.0
 11
1.247580528960997
 21
2.166458590362908
 31
0.0
210
0.0
220
0.0
230
0.9999999999999998
 40
0.5780931159158105
 41
5.495853435359245
 42
6.28125159875668
  0
LINE
  5
4D7
330
75
100
AcDbEntity
  8
Visible (ISO)
100
AcDbLine
 10
35.30025389789763
 20
256.4712253019632
 30
0.0
 11
32.84314711671071
 21
257.8971446419942
 31
0.0
  0
LINE
  5
4D8
330
75
100
AcDbEntity
  8
Visible (ISO)
100
AcDbLine
 10
67.63782600425304
 20
197.3342555333721
 30
0.0
 11
67.27057272160076
 21
197.1227684333316
 31
0.0
  0
LINE
  5
4D9
330
75
100
AcDbEntity
  8
Visible (ISO)
100
AcDbLine
 10
28.71159769993926
 20
277.8984188320691
 30
0.0
 11
27.65093752815928
 21
277.2876252613807
 31
0.0
  0
LINE
  5
4DA
330
75
100
AcDbEntity
  8
Visible (ISO)
100
AcDbLine
 10
67.63782600425304
 20
240.6233757937846
 30
0.0
 11
66.57716583247307
 21
240.0125822230962
 31
0.0
  0
LINE
  5
4DB
330
75
100
AcDbEntity
  8
Visible (ISO)
100
AcDbLine
 10
39.35355475679525
 20
213.6220840850679
 30
0.0
 11
38.98630147414306
 21
213.4105969850274
 31
0.0
  0
LINE
  5
4DC
330
75
100
AcDbEntity
  8
Visible (ISO)
100
AcDbLine
 10
40.60355475679596
 20
253.4172574485201
 30
0.0
 11
38.14644797560906
 21
254.8431767885513
 31
0.0
  0
ELLIPSE
  5
4DD
330
75
100
AcDbEntity
  8
Visible (ISO)
100
AcDbEllipse
 10
39.35355475679579
 20
251.2521975324994
 30
0.0
 11
1.247580528961001
 21
2.166458590362917
 31
0.0
210
0.0
220
0.0
230
1.0
 40
0.5780931159158105
 41
5.495853435359261
 42
6.281251598756691
  0
LINE
  5
4DE
330
75
100
AcDbEntity
  8
Visible (ISO)
100
AcDbLine
 10
41.12132170976242
 20
242.7982604258585
 30
0.0
 11
41.12132170976241
 21
252.27018681698
 31
0.0
  0
LINE
  5
4DF
330
75
100
AcDbEntity
  8
Visible (ISO)
100
AcDbLine
 10
40.06066153798244
 20
242.18746685517
 30
0.0
 11
41.12132170976242
 21
242.7982604258585
 31
0.0
  0
LINE
  5
4E0
330
75
100
AcDbEntity
  8
Visible (ISO)
100
AcDbLine
 10
27.65093752815926
 20
183.2697059044885
 30
0.0
 11
28.71159769993924
 21
183.880499475177
 31
0.0
  0
LINE
  5
4E1
330
75
100
AcDbEntity
  8
Visible (ISO)
100
AcDbLine
 10
39.35355475679525
 20
256.9112043454804
 30
0.0
 11
38.29289458501529
 21
256.300410774792
 31
0.0
  0
ELLIPSE
  5
4E2
330
75
100
AcDbEntity
  8
Visible (ISO)
100
AcDbEllipse
 10
61.62741836416849
 20
242.4753400567068
 30
0.0
 11
-0.4990322115844212
 21
-0.8665834361452031
 31
0.0
210
0.0
220
0.0
230
0.9999999999999998
 40
0.5780931159158106
 41
5.495853435359281
 42
6.281251598756704
  0
LINE
  5
4E3
330
75
100
AcDbEntity
  8
Visible Narrow (ISO)
100
AcDbLine
 10
66.43071922306676
 20
238.5553482368556
 30
0.0
 11
61.12741836416841
 21
241.6093160902985
 31
0.0
  0
ELLIPSE
  5
4E4
330
75
100
AcDbEntity
  8
Visible (ISO)
100
AcDbEllipse
 10
66.93071922306683
 20
239.4213722032639
 30
0.0
 11
-0.4990322115844133
 21
-0.8665834361451892
 31
0.0
210
0.0
220
0.0
230
0.9999999999999998
 40
0.5780931159158106
 41
5.495853435359293
 42
6.281251598756719
  0
LINE
  5
4E5
330
75
100
AcDbEntity
  8
Visible (ISO)
100
AcDbLine
 10
60.92031158298183
 20
244.4917350748124
 30
0.0
 11
59.85965141120188
 21
243.880941504124
 31
0.0
  0
LINE
  5
4E6
330
75
100
AcDbEntity
  8
Visible (ISO)
100
AcDbLine
 10
68.88782600425365
 20
237.1294288968244
 30
0.0
 11
66.43071922306676
 21
238.5553482368556
 31
0.0
  0
ELLIPSE
  5
4E7
330
75
100
AcDbEntity
  8
Visible (ISO)
100
AcDbEllipse
 10
67.63782600425348
 20
234.9643689808036
 30
0.0
 11
1.247580528961001
 21
2.166458590362917
 31
0.0
210
0.0
220
0.0
230
1.0
 40
0.5780931159158105
 41
5.495853435359261
 42
6.281251598756691
  0
LINE
  5
4E8
330
75
100
AcDbEntity
  8
Visible (ISO)
100
AcDbLine
 10
69.4055929572201
 20
226.5104318741627
 30
0.0
 11
69.40559295722009
 21
235.9823582652842
 31
0.0
  0
LINE
  5
4E9
330
75
100
AcDbEntity
  8
Visible (ISO)
100
AcDbLine
 10
68.34493278544013
 20
225.8996383034743
 30
0.0
 11
69.4055929572201
 21
226.5104318741627
 31
0.0
  0
LINE
  5
4EA
330
75
100
AcDbEntity
  8
Visible Narrow (ISO)
100
AcDbLine
 10
66.43071922306674
 20
180.4221439885854
 30
0.0
 11
61.12741836416839
 21
183.4761118420283
 31
0.0
  0
ELLIPSE
  5
4EB
330
75
100
AcDbEntity
  8
Visible (ISO)
100
AcDbEllipse
 10
66.93071922306682
 20
180.1319817231623
 30
0.0
 11
-0.4990322115844151
 21
-0.8665834361451917
 31
0.0
210
0.0
220
0.0
230
1.0
 40
0.5780931159158106
 41
4.710455271961776
 42
5.495853435359251
  0
LINE
  5
4EC
330
75
100
AcDbEntity
  8
Visible (ISO)
100
AcDbLine
 10
41.12132170976241
 20
212.1811206005053
 30
0.0
 11
41.1213217097624
 21
202.7091942093837
 31
0.0
  0
ELLIPSE
  5
4ED
330
75
100
AcDbEntity
  8
Visible (ISO)
100
AcDbEllipse
 10
39.35355475679578
 20
201.6912049249029
 30
0.0
 11
-1.24758052896113
 21
-2.166458590362843
 31
0.0
210
0.0
220
0.0
230
1.0
 40
0.5780931159158107
 41
1.568862618372115
 42
2.354260781769692
  0
LINE
  5
4EE
330
75
100
AcDbEntity
  8
Visible (ISO)
100
AcDbLine
 10
40.60355475679596
 20
200.9657992613452
 30
0.0
 11
38.14644797560906
 21
196.7099725402812
 31
0.0
  0
ELLIPSE
  5
4EF
330
75
100
AcDbEntity
  8
Visible (ISO)
100
AcDbEllipse
 10
38.64644797560912
 20
196.4198102748581
 30
0.0
 11
-0.4990322115844151
 21
-0.8665834361451917
 31
0.0
210
0.0
220
0.0
230
1.0
 40
0.5780931159158106
 41
4.710455271961776
 42
5.495853435359247
  0
LINE
  5
4F0
330
75
100
AcDbEntity
  8
Visible (ISO)
100
AcDbLine
 10
69.4055929572201
 20
195.8932920488095
 30
0.0
 11
69.40559295722008
 21
186.4213656576879
 31
0.0
  0
ELLIPSE
  5
4F1
330
75
100
AcDbEntity
  8
Visible (ISO)
100
AcDbEllipse
 10
67.63782600425347
 20
185.4033763732072
 30
0.0
 11
-1.24758052896113
 21
-2.166458590362843
 31
0.0
210
0.0
220
0.0
230
1.0
 40
0.5780931159158107
 41
1.568862618372115
 42
2.354260781769692
  0
LINE
  5
4F2
330
75
100
AcDbEntity
  8
Visible (ISO)
100
AcDbLine
 10
68.88782600425364
 20
184.6779707096494
 30
0.0
 11
66.43071922306674
 21
180.4221439885854
 31
0.0
  0
ELLIPSE
  5
4F3
330
75
100
AcDbEntity
  8
Visible (ISO)
100
AcDbEllipse
 10
61.62741836416849
 20
242.4753400567068
 30
0.0
 11
-1.24758052896103
 21
-2.166458590362967
 31
0.0
210
0.0
220
0.0
230
1.0
 40
0.5780931159158106
 41
5.495853435359267
 42
6.281251598756711
  0
LINE
  5
4F4
330
75
100
AcDbEntity
  8
Visible (ISO)
100
AcDbLine
 10
60.37741836416832
 20
240.310280140686
 30
0.0
 11
62.8345251453552
 21
238.8843608006548
 31
0.0
  0
ELLIPSE
  5
4F5
330
75
100
AcDbEntity
  8
Visible (ISO)
100
AcDbEllipse
 10
62.33452514535514
 20
238.0183368342465
 30
0.0
 11
0.4990322115844009
 21
0.8665834361451675
 31
0.0
210
0.0
220
0.0
230
1.0
 40
0.5780931159158107
 41
5.495853435359256
 42
6.281251598756647
  0
LINE
  5
4F6
330
75
100
AcDbEntity
  8
Visible (ISO)
100
AcDbLine
 10
63.04163192654178
 20
238.4255325480387
 30
0.0
 11
63.04163192654179
 21
228.9536061569172
 31
0.0
  0
LINE
  5
4F7
330
75
100
AcDbEntity
  8
Visible (ISO)
100
AcDbLine
 10
63.04163192654179
 20
228.9536061569172
 30
0.0
 11
64.10229209832177
 21
229.5643997276056
 31
0.0
  0
LINE
  5
4F8
330
75
100
AcDbEntity
  8
Visible (ISO)
100
AcDbLine
 10
64.10229209832177
 20
229.5643997276056
 30
0.0
 11
64.10229209832175
 21
239.0363261187272
 31
0.0
  0
ELLIPSE
  5
4F9
330
75
100
AcDbEntity
  8
Visible (ISO)
100
AcDbEllipse
 10
62.33452514535514
 20
238.0183368342466
 30
0.0
 11
1.247580528960997
 21
2.166458590362908
 31
0.0
210
0.0
220
0.0
230
0.9999999999999998
 40
0.5780931159158105
 41
5.495853435359246
 42
6.28125159875668
  0
LINE
  5
4FA
330
75
100
AcDbEntity
  8
Visible (ISO)
100
AcDbLine
 10
63.58452514535532
 20
240.1833967502673
 30
0.0
 11
61.12741836416841
 21
241.6093160902985
 31
0.0
  0
LINE
  5
4FB
330
75
100
AcDbEntity
  8
Visible Narrow (ISO)
100
AcDbLine
 10
38.14644797560906
 20
196.7099725402812
 30
0.0
 11
32.8431471167107
 21
199.7639403937242
 31
0.0
  0
LINE
  5
4FC
330
75
100
AcDbEntity
  8
Visible (ISO)
100
AcDbLine
 10
69.4055929572201
 20
195.8932920488095
 30
0.0
 11
64.10229209832177
 21
198.9472599022524
 31
0.0
  0
LINE
  5
4FD
330
75
100
AcDbEntity
  8
Visible Narrow (ISO)
100
AcDbLine
 10
69.40559295722008
 20
186.4213656576879
 30
0.0
 11
64.10229209832175
 21
189.4753335111308
 31
0.0
  0
ELLIPSE
  5
4FE
330
75
100
AcDbEntity
  8
Visible Narrow (ISO)
100
AcDbEllipse
 10
66.75394252777093
 20
192.8624507545338
 30
0.0
 11
-1.522048245331598
 21
2.643079480243265
 31
0.0
210
0.0
220
0.0
230
1.0
 40
0.578093115915639
 41
0.0
 42
6.283185307179586
  0
LINE
  5
4FF
330
75
100
AcDbEntity
  8
Visible Narrow (ISO)
100
AcDbLine
 10
68.88782600425364
 20
184.6779707096494
 30
0.0
 11
63.58452514535532
 21
187.7319385630924
 31
0.0
  0
LINE
  5
500
330
75
100
AcDbEntity
  8
Visible Narrow (ISO)
100
AcDbLine
 10
41.1213217097624
 20
202.7091942093837
 30
0.0
 11
35.81802085086406
 21
205.7631620628266
 31
0.0
  0
LINE
  5
501
330
75
100
AcDbEntity
  8
Visible Narrow (ISO)
100
AcDbLine
 10
40.60355475679596
 20
200.9657992613452
 30
0.0
 11
35.30025389789763
 21
204.0197671147881
 31
0.0
  0
LINE
  5
502
330
75
100
AcDbEntity
  8
Visible (ISO)
100
AcDbLine
 10
41.12132170976241
 20
212.1811206005053
 30
0.0
 11
35.81802085086408
 21
215.2350884539482
 31
0.0
  0
ELLIPSE
  5
503
330
75
100
AcDbEntity
  8
Visible Narrow (ISO)
100
AcDbEllipse
 10
38.46967128031324
 20
209.1502793062296
 30
0.0
 11
-1.522048245331596
 21
2.643079480243261
 31
0.0
210
0.0
220
0.0
230
0.9999999999999998
 40
0.578093115915639
 41
0.0
 42
6.283185307179586
  0
LINE
  5
504
330
75
100
AcDbEntity
  8
Visible Narrow (ISO)
100
AcDbLine
 10
40.60355475679596
 20
253.4172574485201
 30
0.0
 11
35.30025389789763
 21
256.4712253019632
 31
0.0
  0
LINE
  5
505
330
75
100
AcDbEntity
  8
Visible (ISO)
100
AcDbLine
 10
41.12132170976242
 20
242.7982604258585
 30
0.0
 11
35.81802085086408
 21
245.8522282793014
 31
0.0
  0
LINE
  5
506
330
75
100
AcDbEntity
  8
Visible (ISO)
100
AcDbLine
 10
40.06066153798244
 20
242.18746685517
 30
0.0
 11
34.7573606790841
 21
245.241434708613
 31
0.0
  0
LINE
  5
507
330
75
100
AcDbEntity
  8
Visible Narrow (ISO)
100
AcDbLine
 10
41.12132170976241
 20
252.27018681698
 30
0.0
 11
35.81802085086407
 21
255.3241546704229
 31
0.0
  0
ELLIPSE
  5
508
330
75
100
AcDbEntity
  8
Visible Narrow (ISO)
100
AcDbEllipse
 10
38.46967128031325
 20
248.8830695735771
 30
0.0
 11
-1.522048245331596
 21
2.643079480243261
 31
0.0
210
0.0
220
0.0
230
0.9999999999999998
 40
0.578093115915639
 41
0.0
 42
6.283185307179586
  0
LINE
  5
509
330
75
100
AcDbEntity
  8
Visible Narrow (ISO)
100
AcDbLine
 10
68.88782600425365
 20
237.1294288968244
 30
0.0
 11
63.58452514535532
 21
240.1833967502673
 31
0.0
  0
LINE
  5
50A
330
75
100
AcDbEntity
  8
Visible Narrow (ISO)
100
AcDbLine
 10
69.40559295722009
 20
235.9823582652842
 30
0.0
 11
64.10229209832175
 21
239.0363261187272
 31
0.0
  0
LINE
  5
50B
330
75
100
AcDbEntity
  8
Visible (ISO)
100
AcDbLine
 10
69.4055929572201
 20
226.5104318741627
 30
0.0
 11
64.10229209832177
 21
229.5643997276056
 31
0.0
  0
ELLIPSE
  5
50C
330
75
100
AcDbEntity
  8
Visible Narrow (ISO)
100
AcDbEllipse
 10
66.75394252777093
 20
232.5952410218813
 30
0.0
 11
-1.522048245331598
 21
2.643079480243265
 31
0.0
210
0.0
220
0.0
230
1.0
 40
0.578093115915639
 41
0.0
 42
6.283185307179586
  0
LINE
  5
50D
330
75
100
AcDbEntity
  8
Visible (ISO)
100
AcDbLine
 10
68.34493278544013
 20
225.8996383034743
 30
0.0
 11
63.04163192654179
 21
228.9536061569172
 31
0.0
  0
POLYLINE
  5
50E
330
75
100
AcDbEntity
  8
Visible (ISO)
100
AcDb2dPolyline
 66
     1
 10
0.0
 20
0.0
 30
0.0
 70
   128
  0
VERTEX
  5
50F
330
50E
100
AcDbEntity
  8
Visible (ISO)
100
AcDbVertex
100
AcDb2dVertex
 10
66.66337582868661
 20
190.9656709260446
 30
0.0
  0
VERTEX
  5
510
330
50E
100
AcDbEntity
  8
Visible (ISO)
100
AcDbVertex
100
AcDb2dVertex
 10
66.62864513963973
 20
190.9736016586197
 30
0.0
  0
VERTEX
  5
512
330
50E
100
AcDbEntity
  8
Visible (ISO)
100
AcDbVertex
100
AcDb2dVertex
 10
66.53122522811774
 20
191.011356381798
 30
0.0
  0
VERTEX
  5
513
330
50E
100
AcDbEntity
  8
Visible (ISO)
100
AcDbVertex
100
AcDb2dVertex
 10
66.38631424769369
 20
191.0917336287045
 30
0.0
  0
VERTEX
  5
514
330
50E
100
AcDbEntity
  8
Visible (ISO)
100
AcDbVertex
100
AcDb2dVertex
 10
66.21038318676561
 20
191.2190245459291
 30
0.0
  0
VERTEX
  5
515
330
50E
100
AcDbEntity
  8
Visible (ISO)
100
AcDbVertex
100
AcDb2dVertex
 10
66.01852736059618
 20
191.3917857934954
 30
0.0
  0
VERTEX
  5
516
330
50E
100
AcDbEntity
  8
Visible (ISO)
100
AcDbVertex
100
AcDb2dVertex
 10
65.82356109700663
 20
191.6048219337365
 30
0.0
  0
VERTEX
  5
517
330
50E
100
AcDbEntity
  8
Visible (ISO)
100
AcDbVertex
100
AcDb2dVertex
 10
65.63615260629207
 20
191.8506628156679
 30
0.0
  0
VERTEX
  5
518
330
50E
100
AcDbEntity
  8
Visible (ISO)
100
AcDbVertex
100
AcDb2dVertex
 10
65.46524544970648
 20
192.1203384775566
 30
0.0
  0
VERTEX
  5
519
330
50E
100
AcDbEntity
  8
Visible (ISO)
100
AcDbVertex
100
AcDb2dVertex
 10
65.31780060074992
 20
192.4035256068591
 30
0.0
  0
VERTEX
  5
51A
330
50E
100
AcDbEntity
  8
Visible (ISO)
100
AcDbVertex
100
AcDb2dVertex
 10
65.19920442666211
 20
192.6889957472637
 30
0.0
  0
VERTEX
  5
51B
330
50E
100
AcDbEntity
  8
Visible (ISO)
100
AcDbVertex
100
AcDb2dVertex
 10
65.11285733518088
 20
192.9645682549363
 30
0.0
  0
VERTEX
  5
51C
330
50E
100
AcDbEntity
  8
Visible (ISO)
100
AcDbVertex
100
AcDb2dVertex
 10
65.05969498634318
 20
193.2172136278566
 30
0.0
  0
VERTEX
  5
51D
330
50E
100
AcDbEntity
  8
Visible (ISO)
100
AcDbVertex
100
AcDb2dVertex
 10
65.03792192440243
 20
193.4332698652691
 30
0.0
  0
VERTEX
  5
51E
330
50E
100
AcDbEntity
  8
Visible (ISO)
100
AcDbVertex
100
AcDb2dVertex
 10
65.04114025775471
 20
193.5989406688516
 30
0.0
  0
VERTEX
  5
51F
330
50E
100
AcDbEntity
  8
Visible (ISO)
100
AcDbVertex
100
AcDb2dVertex
 10
65.05737522380108
 20
193.7021549725311
 30
0.0
  0
VERTEX
  5
520
330
50E
100
AcDbEntity
  8
Visible (ISO)
100
AcDbVertex
100
AcDb2dVertex
 10
65.06794733928152
 20
193.7361772016789
 30
0.0
  0
SEQEND
  5
511
330
50E
100
AcDbEntity
  8
Visible (ISO)
  0
POLYLINE
  5
521
330
75
100
AcDbEntity
  8
Visible (ISO)
100
AcDb2dPolyline
 66
     1
 10
0.0
 20
0.0
 30
0.0
 70
   128
  0
VERTEX
  5
522
330
521
100
AcDbEntity
  8
Visible (ISO)
100
AcDbVertex
100
AcDb2dVertex
 10
38.37910458122891
 20
207.2534994777404
 30
0.0
  0
VERTEX
  5
523
330
521
100
AcDbEntity
  8
Visible (ISO)
100
AcDbVertex
100
AcDb2dVertex
 10
38.34437389218204
 20
207.2614302103155
 30
0.0
  0
VERTEX
  5
525
330
521
100
AcDbEntity
  8
Visible (ISO)
100
AcDbVertex
100
AcDb2dVertex
 10
38.24695398066005
 20
207.2991849334938
 30
0.0
  0
VERTEX
  5
526
330
521
100
AcDbEntity
  8
Visible (ISO)
100
AcDbVertex
100
AcDb2dVertex
 10
38.10204131436205
 20
207.3795631512305
 30
0.0
  0
VERTEX
  5
527
330
521
100
AcDbEntity
  8
Visible (ISO)
100
AcDbVertex
100
AcDb2dVertex
 10
37.92611193930792
 20
207.5068530976249
 30
0.0
  0
VERTEX
  5
528
330
521
100
AcDbEntity
  8
Visible (ISO)
100
AcDbVertex
100
AcDb2dVertex
 10
37.73425442726455
 20
207.6796153160214
 30
0.0
  0
VERTEX
  5
529
330
521
100
AcDbEntity
  8
Visible (ISO)
100
AcDbVertex
100
AcDb2dVertex
 10
37.539288163675
 20
207.8926514562626
 30
0.0
  0
VERTEX
  5
52A
330
521
100
AcDbEntity
  8
Visible (ISO)
100
AcDbVertex
100
AcDb2dVertex
 10
37.35188135883437
 20
208.1384913673637
 30
0.0
  0
VERTEX
  5
52B
330
521
100
AcDbEntity
  8
Visible (ISO)
100
AcDbVertex
100
AcDb2dVertex
 10
37.18097420224879
 20
208.4081670292524
 30
0.0
  0
VERTEX
  5
52C
330
521
100
AcDbEntity
  8
Visible (ISO)
100
AcDbVertex
100
AcDb2dVertex
 10
37.03353103916618
 20
208.6913531877247
 30
0.0
  0
VERTEX
  5
52D
330
521
100
AcDbEntity
  8
Visible (ISO)
100
AcDbVertex
100
AcDb2dVertex
 10
36.91493317920441
 20
208.9768242989595
 30
0.0
  0
VERTEX
  5
52E
330
521
100
AcDbEntity
  8
Visible (ISO)
100
AcDbVertex
100
AcDb2dVertex
 10
36.82858608772317
 20
209.252396806632
 30
0.0
  0
VERTEX
  5
52F
330
521
100
AcDbEntity
  8
Visible (ISO)
100
AcDbVertex
100
AcDb2dVertex
 10
36.77542542475942
 20
209.5050412087222
 30
0.0
  0
VERTEX
  5
530
330
521
100
AcDbEntity
  8
Visible (ISO)
100
AcDbVertex
100
AcDb2dVertex
 10
36.75365236281868
 20
209.7210974461347
 30
0.0
  0
VERTEX
  5
531
330
521
100
AcDbEntity
  8
Visible (ISO)
100
AcDbVertex
100
AcDb2dVertex
 10
36.75686901029701
 20
209.8867692205474
 30
0.0
  0
VERTEX
  5
532
330
521
100
AcDbEntity
  8
Visible (ISO)
100
AcDbVertex
100
AcDb2dVertex
 10
36.77310566221733
 20
209.9899825533967
 30
0.0
  0
VERTEX
  5
533
330
521
100
AcDbEntity
  8
Visible (ISO)
100
AcDbVertex
100
AcDb2dVertex
 10
36.78367777769776
 20
210.0240047825445
 30
0.0
  0
SEQEND
  5
524
330
521
100
AcDbEntity
  8
Visible (ISO)
  0
POLYLINE
  5
534
330
75
100
AcDbEntity
  8
Visible (ISO)
100
AcDb2dPolyline
 66
     1
 10
0.0
 20
0.0
 30
0.0
 70
   128
  0
VERTEX
  5
535
330
534
100
AcDbEntity
  8
Visible (ISO)
100
AcDbVertex
100
AcDb2dVertex
 10
36.78367777769778
 20
249.7567961414351
 30
0.0
  0
VERTEX
  5
536
330
534
100
AcDbEntity
  8
Visible (ISO)
100
AcDbVertex
100
AcDb2dVertex
 10
36.77310229046945
 20
249.7227758539477
 30
0.0
  0
VERTEX
  5
538
330
534
100
AcDbEntity
  8
Visible (ISO)
100
AcDbVertex
100
AcDb2dVertex
 10
36.75686058092731
 20
249.6195654411129
 30
0.0
  0
VERTEX
  5
539
330
534
100
AcDbEntity
  8
Visible (ISO)
100
AcDbVertex
100
AcDb2dVertex
 10
36.75364224757505
 20
249.4538887975015
 30
0.0
  0
VERTEX
  5
53A
330
534
100
AcDbEntity
  8
Visible (ISO)
100
AcDbVertex
100
AcDb2dVertex
 10
36.77543216825519
 20
249.2378325676128
 30
0.0
  0
VERTEX
  5
53B
330
534
100
AcDbEntity
  8
Visible (ISO)
100
AcDbVertex
100
AcDb2dVertex
 10
36.82855574199226
 20
248.9851803612619
 30
0.0
  0
VERTEX
  5
53C
330
534
100
AcDbEntity
  8
Visible (ISO)
100
AcDbVertex
100
AcDb2dVertex
 10
36.91495172381777
 20
248.7096224837568
 30
0.0
  0
VERTEX
  5
53D
330
534
100
AcDbEntity
  8
Visible (ISO)
100
AcDbVertex
100
AcDb2dVertex
 10
37.03351418042678
 20
248.4241367423546
 30
0.0
  0
VERTEX
  5
53E
330
534
100
AcDbEntity
  8
Visible (ISO)
100
AcDbVertex
100
AcDb2dVertex
 10
37.18097420224879
 20
248.1409564389587
 30
0.0
  0
VERTEX
  5
53F
330
534
100
AcDbEntity
  8
Visible (ISO)
100
AcDbVertex
100
AcDb2dVertex
 10
37.35189821757379
 20
247.871290530515
 30
0.0
  0
VERTEX
  5
540
330
534
100
AcDbEntity
  8
Visible (ISO)
100
AcDbVertex
100
AcDb2dVertex
 10
37.53927299080954
 20
247.6254301492175
 30
0.0
  0
VERTEX
  5
541
330
534
100
AcDbEntity
  8
Visible (ISO)
100
AcDbVertex
100
AcDb2dVertex
 10
37.73427802949971
 20
247.4124281084149
 30
0.0
  0
VERTEX
  5
542
330
534
100
AcDbEntity
  8
Visible (ISO)
100
AcDbVertex
100
AcDb2dVertex
 10
37.92610856756005
 20
247.2396366673024
 30
0.0
  0
VERTEX
  5
543
330
534
100
AcDbEntity
  8
Visible (ISO)
100
AcDbVertex
100
AcDb2dVertex
 10
38.10204805785782
 20
247.1123603576738
 30
0.0
  0
VERTEX
  5
544
330
534
100
AcDbEntity
  8
Visible (ISO)
100
AcDbVertex
100
AcDb2dVertex
 10
38.24695229478613
 20
247.0319870016121
 30
0.0
  0
VERTEX
  5
545
330
534
100
AcDbEntity
  8
Visible (ISO)
100
AcDbVertex
100
AcDb2dVertex
 10
38.34437389218204
 20
246.9942215692061
 30
0.0
  0
VERTEX
  5
546
330
534
100
AcDbEntity
  8
Visible (ISO)
100
AcDbVertex
100
AcDb2dVertex
 10
38.37910458122891
 20
246.986290836631
 30
0.0
  0
SEQEND
  5
537
330
534
100
AcDbEntity
  8
Visible (ISO)
  0
POLYLINE
  5
547
330
75
100
AcDbEntity
  8
Visible (ISO)
100
AcDb2dPolyline
 66
     1
 10
0.0
 20
0.0
 30
0.0
 70
   128
  0
VERTEX
  5
548
330
547
100
AcDbEntity
  8
Visible (ISO)
100
AcDbVertex
100
AcDb2dVertex
 10
65.06794733928153
 20
233.4689685605695
 30
0.0
  0
VERTEX
  5
549
330
547
100
AcDbEntity
  8
Visible (ISO)
100
AcDbVertex
100
AcDb2dVertex
 10
65.05737522380108
 20
233.4349463314217
 30
0.0
  0
VERTEX
  5
54B
330
547
100
AcDbEntity
  8
Visible (ISO)
100
AcDbVertex
100
AcDb2dVertex
 10
65.04113182838501
 20
233.3317368894171
 30
0.0
  0
VERTEX
  5
54C
330
547
100
AcDbEntity
  8
Visible (ISO)
100
AcDbVertex
100
AcDb2dVertex
 10
65.03791349503275
 20
233.1660602458057
 30
0.0
  0
VERTEX
  5
54D
330
547
100
AcDbEntity
  8
Visible (ISO)
100
AcDbVertex
100
AcDb2dVertex
 10
65.05970341571288
 20
232.9500040159171
 30
0.0
  0
VERTEX
  5
54E
330
547
100
AcDbEntity
  8
Visible (ISO)
100
AcDbVertex
100
AcDb2dVertex
 10
65.11282530357601
 20
232.6973527803964
 30
0.0
  0
VERTEX
  5
54F
330
547
100
AcDbEntity
  8
Visible (ISO)
100
AcDbVertex
100
AcDb2dVertex
 10
65.19922297127546
 20
232.4217939320611
 30
0.0
  0
VERTEX
  5
550
330
547
100
AcDbEntity
  8
Visible (ISO)
100
AcDbVertex
100
AcDb2dVertex
 10
65.31778374201053
 20
232.1363091614891
 30
0.0
  0
VERTEX
  5
551
330
547
100
AcDbEntity
  8
Visible (ISO)
100
AcDbVertex
100
AcDb2dVertex
 10
65.46524544970648
 20
231.8531278872629
 30
0.0
  0
VERTEX
  5
552
330
547
100
AcDbEntity
  8
Visible (ISO)
100
AcDbVertex
100
AcDb2dVertex
 10
65.63616777915753
 20
231.5834629496494
 30
0.0
  0
VERTEX
  5
553
330
547
100
AcDbEntity
  8
Visible (ISO)
100
AcDbVertex
100
AcDb2dVertex
 10
65.82354592414119
 20
231.3376006266915
 30
0.0
  0
VERTEX
  5
554
330
547
100
AcDbEntity
  8
Visible (ISO)
100
AcDbVertex
100
AcDb2dVertex
 10
66.01854927695741
 20
231.1245995567191
 30
0.0
  0
VERTEX
  5
555
330
547
100
AcDbEntity
  8
Visible (ISO)
100
AcDbVertex
100
AcDb2dVertex
 10
66.21037812914379
 20
230.9518090864368
 30
0.0
  0
VERTEX
  5
556
330
547
100
AcDbEntity
  8
Visible (ISO)
100
AcDbVertex
100
AcDb2dVertex
 10
66.38631761944157
 20
230.8245327768083
 30
0.0
  0
VERTEX
  5
557
330
547
100
AcDbEntity
  8
Visible (ISO)
100
AcDbVertex
100
AcDb2dVertex
 10
66.53122354224381
 20
230.7441584499163
 30
0.0
  0
VERTEX
  5
558
330
547
100
AcDbEntity
  8
Visible (ISO)
100
AcDbVertex
100
AcDb2dVertex
 10
66.62864345376579
 20
230.7063939883406
 30
0.0
  0
VERTEX
  5
559
330
547
100
AcDbEntity
  8
Visible (ISO)
100
AcDbVertex
100
AcDb2dVertex
 10
66.66337582868661
 20
230.6984622849352
 30
0.0
  0
SEQEND
  5
54A
330
547
100
AcDbEntity
  8
Visible (ISO)
  0
ENDSEC
  0
SECTION
  2
OBJECTS
  0
DICTIONARY
  5
C
330
0
100
AcDbDictionary
281
     1
  3
ACAD_COLOR
350
6B
  3
ACAD_GROUP
350
D
  3
ACAD_LAYOUT
350
6A
  3
ACAD_MATERIAL
350
10
  3
ACAD_MLEADERSTYLE
350
6E
  3
ACAD_MLINESTYLE
350
67
  3
ACAD_PLOTSETTINGS
350
69
  3
ACAD_PLOTSTYLENAME
350
E
  3
ACAD_SCALELIST
350
3A
  3
ACAD_TABLESTYLE
350
6C
  3
ACAD_VISUALSTYLE
350
29
  3
ACDB_RECOMPOSE_DATA
350
564
  3
AcDbVariableDictionary
350
55A
  0
DICTIONARY
  5
6B
102
{ACAD_REACTORS
330
C
102
}
330
C
100
AcDbDictionary
281
     1
  0
DICTIONARY
  5
D
102
{ACAD_REACTORS
330
C
102
}
330
C
100
AcDbDictionary
281
     1
  0
DICTIONARY
  5
6A
102
{ACAD_REACTORS
330
C
102
}
330
C
100
AcDbDictionary
281
     1
  3
Layout1
350
74
  3
Layout2
350
7C
  3
Model
350
78
  0
DICTIONARY
  5
10
102
{ACAD_REACTORS
330
C
102
}
330
C
100
AcDbDictionary
281
     1
  3
ByBlock
350
19
  3
ByLayer
350
11
  3
Global
350
21
  0
DICTIONARY
  5
6E
102
{ACAD_REACTORS
330
C
102
}
330
C
100
AcDbDictionary
281
     1
  3
Standard
350
6F
  0
DICTIONARY
  5
67
102
{ACAD_REACTORS
330
C
102
}
330
C
100
AcDbDictionary
281
     1
  3
Standard
350
68
  0
DICTIONARY
  5
69
102
{ACAD_REACTORS
330
C
102
}
330
C
100
AcDbDictionary
281
     1
  0
ACDBDICTIONARYWDFLT
  5
E
102
{ACAD_REACTORS
330
C
102
}
330
C
100
AcDbDictionary
281
     1
  3
Normal
350
F
100
AcDbDictionaryWithDefault
340
F
  0
DICTIONARY
  5
3A
102
{ACAD_REACTORS
330
C
102
}
330
C
100
AcDbDictionary
281
     1
  3
A0
350
3B
  3
A1
350
3C
  3
A2
350
3D
  3
A3
350
3E
  3
A4
350
3F
  3
A5
350
40
  3
A6
350
41
  3
A7
350
42
  3
A8
350
43
  3
A9
350
44
  3
B0
350
45
  3
B1
350
46
  3
B2
350
47
  3
B3
350
48
  3
B4
350
49
  3
B5
350
4A
  3
B6
350
4B
  3
B7
350
4C
  3
B8
350
4D
  3
B9
350
4E
  3
C0
350
4F
  3
C1
350
50
  3
C2
350
51
  3
C3
350
52
  3
C4
350
53
  3
C5
350
54
  3
C6
350
55
  3
C7
350
56
  3
C8
350
57
  3
C9
350
58
  3
D0
350
59
  3
D1
350
5A
  3
D2
350
5B
  0
DICTIONARY
  5
6C
102
{ACAD_REACTORS
330
C
102
}
330
C
100
AcDbDictionary
281
     1
  3
Standard
350
6D
  0
DICTIONARY
  5
29
102
{ACAD_REACTORS
330
C
102
}
330
C
100
AcDbDictionary
281
     1
  3
2dWireframe
350
2F
  3
3D Hidden
350
31
  3
3dWireframe
350
30
  3
Basic
350
2E
  3
Brighten
350
35
  3
ColorChange
350
39
  3
Conceptual
350
32
  3
Dim
350
34
  3
Facepattern
350
38
  3
Flat
350
2A
  3
FlatWithEdges
350
2B
  3
Gouraud
350
2C
  3
GouraudWithEdges
350
2D
  3
Linepattern
350
37
  3
Realistic
350
33
  3
Thicken
350
36
  0
XRECORD
  5
564
102
{ACAD_REACTORS
330
C
102
}
330
C
100
AcDbXrecord
280
     1
 90
        1
330
6D
  0
DICTIONARY
  5
55A
102
{ACAD_REACTORS
330
C
102
}
330
C
100
AcDbDictionary
281
     1
  3
CANNOSCALE
350
55E
  3
CMLEADERSTYLE
350
55C
  3
CTABLESTYLE
350
55B
  3
LAYEREVAL
350
560
  3
LAYERNOTIFY
350
561
  3
LIGHTINGUNITS
350
55F
  3
MSLTSCALE
350
55D
  0
LAYOUT
  5
74
102
{ACAD_REACTORS
330
6A
102
}
330
6A
100
AcDbPlotSettings
  1

  2

  4

  6

 40
0.0
 41
0.0
 42
0.0
 43
0.0
 44
0.0
 45
0.0
 46
0.0
 47
0.0
 48
0.0
 49
0.0
140
0.0
141
0.0
142
1.0
143
1.0
 70
   688
 72
     0
 73
     0
 74
     5
  7

 75
    16
147
1.0
 76
     0
 77
     2
 78
   300
148
0.0
149
0.0
100
AcDbLayout
  1
Layout1
 70
     1
 71
     1
 10
0.0
 20
0.0
 11
12.0
 21
9.0
 12
0.0
 22
0.0
 32
0.0
 14
0.0
 24
0.0
 34
0.0
 15
0.0
 25
0.0
 35
0.0
146
0.0
 13
0.0
 23
0.0
 33
0.0
 16
1.0
 26
0.0
 36
0.0
 17
0.0
 27
1.0
 37
0.0
 76
     0
330
71
  0
LAYOUT
  5
7C
102
{ACAD_REACTORS
330
6A
102
}
330
6A
100
AcDbPlotSettings
  1

  2

  4

  6

 40
0.0
 41
0.0
 42
0.0
 43
0.0
 44
0.0
 45
0.0
 46
0.0
 47
0.0
 48
0.0
 49
0.0
140
0.0
141
0.0
142
1.0
143
1.0
 70
   688
 72
     0
 73
     0
 74
     5
  7

 75
    16
147
1.0
 76
     0
 77
     2
 78
   300
148
0.0
149
0.0
100
AcDbLayout
  1
Layout2
 70
     1
 71
     2
 10
0.0
 20
0.0
 11
12.0
 21
9.0
 12
0.0
 22
0.0
 32
0.0
 14
0.0
 24
0.0
 34
0.0
 15
0.0
 25
0.0
 35
0.0
146
0.0
 13
0.0
 23
0.0
 33
0.0
 16
1.0
 26
0.0
 36
0.0
 17
0.0
 27
1.0
 37
0.0
 76
     0
330
79
  0
LAYOUT
  5
78
102
{ACAD_REACTORS
330
6A
102
}
330
6A
100
AcDbPlotSettings
  1

  2

  4

  6

 40
0.0
 41
0.0
 42
0.0
 43
0.0
 44
0.0
 45
0.0
 46
0.0
 47
0.0
 48
0.0
 49
0.0
140
0.0
141
0.0
142
1.0
143
1.0
 70
  1712
 72
     0
 73
     0
 74
     0
  7

 75
     0
147
1.0
 76
     0
 77
     2
 78
   300
148
0.0
149
0.0
100
AcDbLayout
  1
Model
 70
     1
 71
     0
 10
0.0
 20
0.0
 11
12.0
 21
9.0
 12
0.0
 22
0.0
 32
0.0
 14
0.0
 24
0.0
 34
0.0
 15
0.0
 25
0.0
 35
0.0
146
0.0
 13
0.0
 23
0.0
 33
0.0
 16
1.0
 26
0.0
 36
0.0
 17
0.0
 27
1.0
 37
0.0
 76
     0
330
75
  0
MATERIAL
  5
19
102
{ACAD_XDICTIONARY
360
1A
102
}
102
{ACAD_REACTORS
330
10
102
}
330
10
100
AcDbMaterial
  1
ByBlock
 72
     0
 43
0.0208333333333333
 43
0.0
 43
0.0
 43
0.0
 43
0.0
 43
0.0208333333333333
 43
0.0
 43
0.0
 43
0.0
 43
0.0
 43
1.0
 43
0.0
 43
0.0
 43
0.0
 43
0.0
 43
1.0
 77
     0
 47
0.0208333333333333
 47
0.0
 47
0.0
 47
0.0
 47
0.0
 47
0.0208333333333333
 47
0.0
 47
0.0
 47
0.0
 47
0.0
 47
1.0
 47
0.0
 47
0.0
 47
0.0
 47
0.0
 47
1.0
171
     0
 49
0.0208333333333333
 49
0.0
 49
0.0
 49
0.0
 49
0.0
 49
0.0208333333333333
 49
0.0
 49
0.0
 49
0.0
 49
0.0
 49
1.0
 49
0.0
 49
0.0
 49
0.0
 49
0.0
 49
1.0
175
     0
142
0.0208333333333333
142
0.0
142
0.0
142
0.0
142
0.0
142
0.0208333333333333
142
0.0
142
0.0
142
0.0
142
0.0
142
1.0
142
0.0
142
0.0
142
0.0
142
0.0
142
1.0
179
     0
144
0.0208333333333333
144
0.0
144
0.0
144
0.0
144
0.0
144
0.0208333333333333
144
0.0
144
0.0
144
0.0
144
0.0
144
1.0
144
0.0
144
0.0
144
0.0
144
0.0
144
1.0
147
0.0208333333333333
147
0.0
147
0.0
147
0.0
147
0.0
147
0.0208333333333333
147
0.0
147
0.0
147
0.0
147
0.0
147
1.0
147
0.0
147
0.0
147
0.0
147
0.0
147
1.0
  0
MATERIAL
  5
11
102
{ACAD_XDICTIONARY
360
12
102
}
102
{ACAD_REACTORS
330
10
102
}
330
10
100
AcDbMaterial
  1
ByLayer
 72
     0
 43
0.0208333333333333
 43
0.0
 43
0.0
 43
0.0
 43
0.0
 43
0.0208333333333333
 43
0.0
 43
0.0
 43
0.0
 43
0.0
 43
1.0
 43
0.0
 43
0.0
 43
0.0
 43
0.0
 43
1.0
 77
     0
 47
0.0208333333333333
 47
0.0
 47
0.0
 47
0.0
 47
0.0
 47
0.0208333333333333
 47
0.0
 47
0.0
 47
0.0
 47
0.0
 47
1.0
 47
0.0
 47
0.0
 47
0.0
 47
0.0
 47
1.0
171
     0
 49
0.0208333333333333
 49
0.0
 49
0.0
 49
0.0
 49
0.0
 49
0.0208333333333333
 49
0.0
 49
0.0
 49
0.0
 49
0.0
 49
1.0
 49
0.0
 49
0.0
 49
0.0
 49
0.0
 49
1.0
175
     0
142
0.0208333333333333
142
0.0
142
0.0
142
0.0
142
0.0
142
0.0208333333333333
142
0.0
142
0.0
142
0.0
142
0.0
142
1.0
142
0.0
142
0.0
142
0.0
142
0.0
142
1.0
179
     0
144
0.0208333333333333
144
0.0
144
0.0
144
0.0
144
0.0
144
0.0208333333333333
144
0.0
144
0.0
144
0.0
144
0.0
144
1.0
144
0.0
144
0.0
144
0.0
144
0.0
144
1.0
147
0.0208333333333333
147
0.0
147
0.0
147
0.0
147
0.0
147
0.0208333333333333
147
0.0
147
0.0
147
0.0
147
0.0
147
1.0
147
0.0
147
0.0
147
0.0
147
0.0
147
1.0
  0
MATERIAL
  5
21
102
{ACAD_XDICTIONARY
360
22
102
}
102
{ACAD_REACTORS
330
10
102
}
330
10
100
AcDbMaterial
  1
Global
 72
     0
 43
0.0208333333333333
 43
0.0
 43
0.0
 43
0.0
 43
0.0
 43
0.0208333333333333
 43
0.0
 43
0.0
 43
0.0
 43
0.0
 43
1.0
 43
0.0
 43
0.0
 43
0.0
 43
0.0
 43
1.0
 77
     0
 47
0.0208333333333333
 47
0.0
 47
0.0
 47
0.0
 47
0.0
 47
0.0208333333333333
 47
0.0
 47
0.0
 47
0.0
 47
0.0
 47
1.0
 47
0.0
 47
0.0
 47
0.0
 47
0.0
 47
1.0
171
     0
 49
0.0208333333333333
 49
0.0
 49
0.0
 49
0.0
 49
0.0
 49
0.0208333333333333
 49
0.0
 49
0.0
 49
0.0
 49
0.0
 49
1.0
 49
0.0
 49
0.0
 49
0.0
 49
0.0
 49
1.0
175
     0
142
0.0208333333333333
142
0.0
142
0.0
142
0.0
142
0.0
142
0.0208333333333333
142
0.0
142
0.0
142
0.0
142
0.0
142
1.0
142
0.0
142
0.0
142
0.0
142
0.0
142
1.0
179
     0
144
0.0208333333333333
144
0.0
144
0.0
144
0.0
144
0.0
144
0.0208333333333333
144
0.0
144
0.0
144
0.0
144
0.0
144
1.0
144
0.0
144
0.0
144
0.0
144
0.0
144
1.0
147
0.0208333333333333
147
0.0
147
0.0
147
0.0
147
0.0
147
0.0208333333333333
147
0.0
147
0.0
147
0.0
147
0.0
147
1.0
147
0.0
147
0.0
147
0.0
147
0.0
147
1.0
  0
MLEADERSTYLE
  5
6F
102
{ACAD_REACTORS
330
6E
102
}
330
6E
100
AcDbMLeaderStyle
170
     2
171
     1
172
     0
 90
        2
 40
0.0
 41
0.0
173
     1
 91
-1056964608
340
63
 92
       -2
290
     1
 42
0.09
291
     1
 43
0.36
  3
Standard
 44
0.18
300

342
5D
174
     1
178
     6
175
     1
176
     0
 93
-1056964608
 45
0.18
292
     0
297
     0
 46
0.18
 94
-1056964608
 47
1.0
 49
1.0
140
1.0
293
     1
141
0.0
294
     1
177
     0
142
1.0
295
     0
296
     0
143
0.125
1001
ACAD_MLEADERVER
1070
     2
  0
MLINESTYLE
  5
68
102
{ACAD_REACTORS
330
67
102
}
330
67
100
AcDbMlineStyle
  2
STANDARD
 70
     0
  3

 62
   256
 51
90.0
 52
90.0
 71
     2
 49
0.5
 62
   256
  6
BYLAYER
 49
-0.5
 62
   256
  6
BYLAYER
  0
ACDBPLACEHOLDER
  5
F
102
{ACAD_REACTORS
330
E
102
}
330
E
  0
SCALE
  5
3B
102
{ACAD_REACTORS
330
3A
102
}
330
3A
100
AcDbScale
 70
     0
300
1:1
140
1.0
141
1.0
290
     1
  0
SCALE
  5
3C
102
{ACAD_REACTORS
330
3A
102
}
330
3A
100
AcDbScale
 70
     0
300
1:2
140
1.0
141
2.0
290
     0
  0
SCALE
  5
3D
102
{ACAD_REACTORS
330
3A
102
}
330
3A
100
AcDbScale
 70
     0
300
1:4
140
1.0
141
4.0
290
     0
  0
SCALE
  5
3E
102
{ACAD_REACTORS
330
3A
102
}
330
3A
100
AcDbScale
 70
     0
300
1:5
140
1.0
141
5.0
290
     0
  0
SCALE
  5
3F
102
{ACAD_REACTORS
330
3A
102
}
330
3A
100
AcDbScale
 70
     0
300
1:8
140
1.0
141
8.0
290
     0
  0
SCALE
  5
40
102
{ACAD_REACTORS
330
3A
102
}
330
3A
100
AcDbScale
 70
     0
300
1:10
140
1.0
141
10.0
290
     0
  0
SCALE
  5
41
102
{ACAD_REACTORS
330
3A
102
}
330
3A
100
AcDbScale
 70
     0
300
1:16
140
1.0
141
16.0
290
     0
  0
SCALE
  5
42
102
{ACAD_REACTORS
330
3A
102
}
330
3A
100
AcDbScale
 70
     0
300
1:20
140
1.0
141
20.0
290
     0
  0
SCALE
  5
43
102
{ACAD_REACTORS
330
3A
102
}
330
3A
100
AcDbScale
 70
     0
300
1:30
140
1.0
141
30.0
290
     0
  0
SCALE
  5
44
102
{ACAD_REACTORS
330
3A
102
}
330
3A
100
AcDbScale
 70
     0
300
1:40
140
1.0
141
40.0
290
     0
  0
SCALE
  5
45
102
{ACAD_REACTORS
330
3A
102
}
330
3A
100
AcDbScale
 70
     0
300
1:50
140
1.0
141
50.0
290
     0
  0
SCALE
  5
46
102
{ACAD_REACTORS
330
3A
102
}
330
3A
100
AcDbScale
 70
     0
300
1:100
140
1.0
141
100.0
290
     0
  0
SCALE
  5
47
102
{ACAD_REACTORS
330
3A
102
}
330
3A
100
AcDbScale
 70
     0
300
2:1
140
2.0
141
1.0
290
     0
  0
SCALE
  5
48
102
{ACAD_REACTORS
330
3A
102
}
330
3A
100
AcDbScale
 70
     0
300
4:1
140
4.0
141
1.0
290
     0
  0
SCALE
  5
49
102
{ACAD_REACTORS
330
3A
102
}
330
3A
100
AcDbScale
 70
     0
300
8:1
140
8.0
141
1.0
290
     0
  0
SCALE
  5
4A
102
{ACAD_REACTORS
330
3A
102
}
330
3A
100
AcDbScale
 70
     0
300
10:1
140
10.0
141
1.0
290
     0
  0
SCALE
  5
4B
102
{ACAD_REACTORS
330
3A
102
}
330
3A
100
AcDbScale
 70
     0
300
100:1
140
100.0
141
1.0
290
     0
  0
SCALE
  5
4C
102
{ACAD_REACTORS
330
3A
102
}
330
3A
100
AcDbScale
 70
     0
300
1/128" = 1'-0"
140
0.0078125
141
12.0
290
     0
  0
SCALE
  5
4D
102
{ACAD_REACTORS
330
3A
102
}
330
3A
100
AcDbScale
 70
     0
300
1/64" = 1'-0"
140
0.015625
141
12.0
290
     0
  0
SCALE
  5
4E
102
{ACAD_REACTORS
330
3A
102
}
330
3A
100
AcDbScale
 70
     0
300
1/32" = 1'-0"
140
0.03125
141
12.0
290
     0
  0
SCALE
  5
4F
102
{ACAD_REACTORS
330
3A
102
}
330
3A
100
AcDbScale
 70
     0
300
1/16" = 1'-0"
140
0.0625
141
12.0
290
     0
  0
SCALE
  5
50
102
{ACAD_REACTORS
330
3A
102
}
330
3A
100
AcDbScale
 70
     0
300
3/32" = 1'-0"
140
0.09375
141
12.0
290
     0
  0
SCALE
  5
51
102
{ACAD_REACTORS
330
3A
102
}
330
3A
100
AcDbScale
 70
     0
300
1/8" = 1'-0"
140
0.125
141
12.0
290
     0
  0
SCALE
  5
52
102
{ACAD_REACTORS
330
3A
102
}
330
3A
100
AcDbScale
 70
     0
300
3/16" = 1'-0"
140
0.1875
141
12.0
290
     0
  0
SCALE
  5
53
102
{ACAD_REACTORS
330
3A
102
}
330
3A
100
AcDbScale
 70
     0
300
1/4" = 1'-0"
140
0.25
141
12.0
290
     0
  0
SCALE
  5
54
102
{ACAD_REACTORS
330
3A
102
}
330
3A
100
AcDbScale
 70
     0
300
3/8" = 1'-0"
140
0.375
141
12.0
290
     0
  0
SCALE
  5
55
102
{ACAD_REACTORS
330
3A
102
}
330
3A
100
AcDbScale
 70
     0
300
1/2" = 1'-0"
140
0.5
141
12.0
290
     0
  0
SCALE
  5
56
102
{ACAD_REACTORS
330
3A
102
}
330
3A
100
AcDbScale
 70
     0
300
3/4" = 1'-0"
140
0.75
141
12.0
290
     0
  0
SCALE
  5
57
102
{ACAD_REACTORS
330
3A
102
}
330
3A
100
AcDbScale
 70
     0
300
1" = 1'-0"
140
1.0
141
12.0
290
     0
  0
SCALE
  5
58
102
{ACAD_REACTORS
330
3A
102
}
330
3A
100
AcDbScale
 70
     0
300
1-1/2" = 1'-0"
140
1.5
141
12.0
290
     0
  0
SCALE
  5
59
102
{ACAD_REACTORS
330
3A
102
}
330
3A
100
AcDbScale
 70
     0
300
3" = 1'-0"
140
3.0
141
12.0
290
     0
  0
SCALE
  5
5A
102
{ACAD_REACTORS
330
3A
102
}
330
3A
100
AcDbScale
 70
     0
300
6" = 1'-0"
140
6.0
141
12.0
290
     0
  0
SCALE
  5
5B
102
{ACAD_REACTORS
330
3A
102
}
330
3A
100
AcDbScale
 70
     0
300
1'-0" = 1'-0"
140
12.0
141
12.0
290
     0
  0
TABLESTYLE
  5
6D
102
{ACAD_XDICTIONARY
360
562
102
}
102
{ACAD_REACTORS
330
6C
102
}
330
6C
100
AcDbTableStyle
  3
Standard
 70
     0
 71
     0
 40
0.06
 41
0.06
280
     0
281
     0
  7
Standard
140
0.18
170
     2
 62
     0
 63
     7
283
     0
274
    -2
284
     1
 64
     0
275
    -2
285
     1
 65
     0
276
    -2
286
     1
 66
     0
277
    -2
287
     1
 67
     0
278
    -2
288
     1
 68
     0
279
    -2
289
     1
 69
     0
  7
Standard
140
0.25
170
     5
 62
     0
 63
     7
283
     0
274
    -2
284
     1
 64
     0
275
    -2
285
     1
 65
     0
276
    -2
286
     1
 66
     0
277
    -2
287
     1
 67
     0
278
    -2
288
     1
 68
     0
279
    -2
289
     1
 69
     0
  7
Standard
140
0.18
170
     5
 62
     0
 63
     7
283
     0
274
    -2
284
     1
 64
     0
275
    -2
285
     1
 65
     0
276
    -2
286
     1
 66
     0
277
    -2
287
     1
 67
     0
278
    -2
288
     1
 68
     0
279
    -2
289
     1
 69
     0
  0
VISUALSTYLE
  5
2F
102
{ACAD_REACTORS
330
29
102
}
330
29
100
AcDbVisualStyle
  2
2dWireframe
 70
     4
 71
     0
 72
     2
 73
     0
 90
        0
 40
-0.6
 41
-30.0
 62
     5
 63
     7
421
 16777215
 74
     1
 91
        4
 64
     7
 65
   257
 75
     1
175
     1
 42
1.0
 92
        0
 66
   257
 43
1.0
 76
     1
 77
     6
 78
     2
 67
     7
 79
     5
170
     0
171
     0
290
     0
174
     0
 93
        1
 44
0.0
173
     0
291
     0
 45
0.0
1001
ACAD
1000
AcDbSavedByObjectVersion
1070
     0
  0
VISUALSTYLE
  5
31
102
{ACAD_REACTORS
330
29
102
}
330
29
100
AcDbVisualStyle
  2
3D Hidden
 70
     6
 71
     1
 72
     2
 73
     2
 90
        0
 40
-0.6
 41
-30.0
 62
     5
 63
     7
421
 16777215
 74
     2
 91
        2
 64
     7
 65
   257
 75
     2
175
     1
 42
40.0
 92
        0
 66
   257
 43
1.0
 76
     1
 77
     6
 78
     2
 67
     7
 79
     3
170
     0
171
     0
290
     0
174
     0
 93
        1
 44
0.0
173
     0
291
     0
 45
0.0
1001
ACAD
1000
AcDbSavedByObjectVersion
1070
     0
  0
VISUALSTYLE
  5
30
102
{ACAD_REACTORS
330
29
102
}
330
29
100
AcDbVisualStyle
  2
3dWireframe
 70
     5
 71
     0
 72
     2
 73
     0
 90
        0
 40
-0.6
 41
-30.0
 62
     5
 63
     7
421
 16777215
 74
     1
 91
        4
 64
     7
 65
   257
 75
     1
175
     1
 42
1.0
 92
        0
 66
   257
 43
1.0
 76
     1
 77
     6
 78
     2
 67
     7
 79
     5
170
     0
171
     0
290
     0
174
     0
 93
        1
 44
0.0
173
     0
291
     0
 45
0.0
1001
ACAD
1000
AcDbSavedByObjectVersion
1070
     0
  0
VISUALSTYLE
  5
2E
102
{ACAD_REACTORS
330
29
102
}
330
29
100
AcDbVisualStyle
  2
Basic
 70
     7
 71
     1
 72
     0
 73
     1
 90
        0
 40
-0.6
 41
-30.0
 62
     5
 63
     7
421
 16777215
 74
     0
 91
        4
 64
     7
 65
   257
 75
     1
175
     1
 42
1.0
 92
        8
 66
     7
 43
1.0
 76
     1
 77
     6
 78
     2
 67
     7
 79
     5
170
     0
171
     0
290
     0
174
     0
 93
        1
 44
0.0
173
     0
291
     1
 45
0.0
1001
ACAD
1000
AcDbSavedByObjectVersion
1070
     0
  0
VISUALSTYLE
  5
35
102
{ACAD_REACTORS
330
29
102
}
330
29
100
AcDbVisualStyle
  2
Brighten
 70
    12
 71
     2
 72
     2
 73
     0
 90
        0
 40
-0.6
 41
-30.0
 62
     5
 63
     7
421
 16777215
 74
     1
 91
        4
 64
     7
 65
   257
 75
     1
175
     1
 42
1.0
 92
        8
 66
     7
 43
1.0
 76
     1
 77
     6
 78
     2
 67
     7
 79
     5
170
     0
171
     0
290
     0
174
     0
 93
        1
 44
50.0
173
     0
291
     1
 45
0.0
1001
ACAD
1000
AcDbSavedByObjectVersion
1070
     0
  0
VISUALSTYLE
  5
39
102
{ACAD_REACTORS
330
29
102
}
330
29
100
AcDbVisualStyle
  2
ColorChange
 70
    16
 71
     2
 72
     2
 73
     3
 90
        0
 40
-0.6
 41
-30.0
 62
     5
 63
     8
421
  8421504
 74
     1
 91
        4
 64
     7
 65
   257
 75
     1
175
     1
 42
1.0
 92
        8
 66
     8
424
  8421504
 43
1.0
 76
     1
 77
     6
 78
     2
 67
     7
 79
     5
170
     0
171
     0
290
     0
174
     0
 93
        1
 44
0.0
173
     0
291
     1
 45
0.0
1001
ACAD
1000
AcDbSavedByObjectVersion
1070
     0
  0
VISUALSTYLE
  5
32
102
{ACAD_REACTORS
330
29
102
}
330
29
100
AcDbVisualStyle
  2
Conceptual
 70
     9
 71
     3
 72
     2
 73
     0
 90
        0
 40
-0.6
 41
-30.0
 62
     5
 63
     7
421
 16777215
 74
     2
 91
        2
 64
     7
 65
   257
 75
     1
175
     1
 42
40.0
 92
        8
 66
     7
 43
1.0
 76
     1
 77
     6
 78
     2
 67
     7
 79
     3
170
     0
171
     0
290
     0
174
     0
 93
        1
 44
0.0
173
     0
291
     0
 45
0.0
1001
ACAD
1000
AcDbSavedByObjectVersion
1070
     0
  0
VISUALSTYLE
  5
34
102
{ACAD_REACTORS
330
29
102
}
330
29
100
AcDbVisualStyle
  2
Dim
 70
    11
 71
     2
 72
     2
 73
     0
 90
        0
 40
-0.6
 41
-30.0
 62
     5
 63
     7
421
 16777215
 74
     1
 91
        4
 64
     7
 65
   257
 75
     1
175
     1
 42
1.0
 92
        8
 66
     7
 43
1.0
 76
     1
 77
     6
 78
     2
 67
     7
 79
     5
170
     0
171
     0
290
     0
174
     0
 93
        1
 44
-50.0
173
     0
291
     1
 45
0.0
1001
ACAD
1000
AcDbSavedByObjectVersion
1070
     0
  0
VISUALSTYLE
  5
38
102
{ACAD_REACTORS
330
29
102
}
330
29
100
AcDbVisualStyle
  2
Facepattern
 70
    15
 71
     2
 72
     2
 73
     0
 90
        0
 40
-0.6
 41
-30.0
 62
     5
 63
     7
421
 16777215
 74
     1
 91
        4
 64
     7
 65
   257
 75
     1
175
     1
 42
1.0
 92
        8
 66
     7
 43
1.0
 76
     1
 77
     6
 78
     2
 67
     7
 79
     5
170
     0
171
     0
290
     0
174
     0
 93
        1
 44
0.0
173
     0
291
     1
 45
0.0
1001
ACAD
1000
AcDbSavedByObjectVersion
1070
     0
  0
VISUALSTYLE
  5
2A
102
{ACAD_REACTORS
330
29
102
}
330
29
100
AcDbVisualStyle
  2
Flat
 70
     0
 71
     2
 72
     1
 73
     1
 90
        2
 40
-0.6
 41
30.0
 62
     5
 63
     7
421
 16777215
 74
     0
 91
        4
 64
     7
 65
   257
 75
     1
175
     1
 42
1.0
 92
        8
 66
     7
 43
1.0
 76
     1
 77
     6
 78
     2
 67
     7
 79
     5
170
     0
171
     0
290
     0
174
     0
 93
       13
 44
0.0
173
     0
291
     1
 45
0.0
1001
ACAD
1000
AcDbSavedByObjectVersion
1070
     0
  0
VISUALSTYLE
  5
2B
102
{ACAD_REACTORS
330
29
102
}
330
29
100
AcDbVisualStyle
  2
FlatWithEdges
 70
     1
 71
     2
 72
     1
 73
     1
 90
        2
 40
-0.6
 41
30.0
 62
     5
 63
     7
421
 16777215
 74
     1
 91
        4
 64
     7
 65
   257
 75
     1
175
     1
 42
1.0
 92
        0
 66
   257
 43
1.0
 76
     1
 77
     6
 78
     2
 67
     7
 79
     5
170
     0
171
     0
290
     0
174
     0
 93
       13
 44
0.0
173
     0
291
     1
 45
0.0
1001
ACAD
1000
AcDbSavedByObjectVersion
1070
     0
  0
VISUALSTYLE
  5
2C
102
{ACAD_REACTORS
330
29
102
}
330
29
100
AcDbVisualStyle
  2
Gouraud
 70
     2
 71
     2
 72
     2
 73
     1
 90
        2
 40
-0.6
 41
30.0
 62
     5
 63
     7
421
 16777215
 74
     0
 91
        4
 64
     7
 65
   257
 75
     1
175
     1
 42
1.0
 92
        0
 66
     7
 43
1.0
 76
     1
 77
     6
 78
     2
 67
     7
 79
     5
170
     0
171
     0
290
     0
174
     0
 93
       13
 44
0.0
173
     0
291
     1
 45
0.0
1001
ACAD
1000
AcDbSavedByObjectVersion
1070
     0
  0
VISUALSTYLE
  5
2D
102
{ACAD_REACTORS
330
29
102
}
330
29
100
AcDbVisualStyle
  2
GouraudWithEdges
 70
     3
 71
     2
 72
     2
 73
     1
 90
        2
 40
-0.6
 41
30.0
 62
     5
 63
     7
421
 16777215
 74
     1
 91
        4
 64
     7
 65
   257
 75
     1
175
     1
 42
1.0
 92
        0
 66
   257
 43
1.0
 76
     1
 77
     6
 78
     2
 67
     7
 79
     5
170
     0
171
     0
290
     0
174
     0
 93
       13
 44
0.0
173
     0
291
     1
 45
0.0
1001
ACAD
1000
AcDbSavedByObjectVersion
1070
     0
  0
VISUALSTYLE
  5
37
102
{ACAD_REACTORS
330
29
102
}
330
29
100
AcDbVisualStyle
  2
Linepattern
 70
    14
 71
     2
 72
     2
 73
     0
 90
        0
 40
-0.6
 41
-30.0
 62
     5
 63
     7
421
 16777215
 74
     1
 91
        4
 64
     7
 65
   257
 75
     7
175
     7
 42
1.0
 92
        8
 66
     7
 43
1.0
 76
     1
 77
     6
 78
     2
 67
     7
 79
     5
170
     0
171
     0
290
     0
174
     0
 93
        1
 44
0.0
173
     0
291
     1
 45
0.0
1001
ACAD
1000
AcDbSavedByObjectVersion
1070
     0
  0
VISUALSTYLE
  5
33
102
{ACAD_REACTORS
330
29
102
}
330
29
100
AcDbVisualStyle
  2
Realistic
 70
     8
 71
     2
 72
     2
 73
     0
 90
        0
 40
-0.6
 41
-30.0
 62
     5
 63
     7
421
 16777215
 74
     1
 91
        0
 64
     7
 65
   257
 75
     1
175
     1
 42
1.0
 92
        8
 66
     8
424
  7895160
 43
1.0
 76
     1
 77
     6
 78
     2
 67
     7
 79
     5
170
     0
171
     0
290
     0
174
     0
 93
       13
 44
0.0
173
     0
291
     0
 45
0.0
1001
ACAD
1000
AcDbSavedByObjectVersion
1070
     0
  0
VISUALSTYLE
  5
36
102
{ACAD_REACTORS
330
29
102
}
330
29
100
AcDbVisualStyle
  2
Thicken
 70
    13
 71
     2
 72
     2
 73
     0
 90
        0
 40
-0.6
 41
-30.0
 62
     5
 63
     7
421
 16777215
 74
     1
 91
        4
 64
     7
 65
   257
 75
     1
175
     1
 42
1.0
 92
       12
 66
     7
 43
1.0
 76
     1
 77
     6
 78
     2
 67
     7
 79
     5
170
     0
171
     0
290
     0
174
     0
 93
        1
 44
0.0
173
     0
291
     1
 45
0.0
1001
ACAD
1000
AcDbSavedByObjectVersion
1070
     0
  0
DICTIONARYVAR
  5
55E
102
{ACAD_REACTORS
330
55A
102
}
330
55A
100
DictionaryVariables
280
     0
  1
1:1
  0
DICTIONARYVAR
  5
55C
102
{ACAD_REACTORS
330
55A
102
}
330
55A
100
DictionaryVariables
280
     0
  1
STANDARD
  0
DICTIONARYVAR
  5
55B
102
{ACAD_REACTORS
330
55A
102
}
330
55A
100
DictionaryVariables
280
     0
  1
STANDARD
  0
DICTIONARYVAR
  5
560
102
{ACAD_REACTORS
330
55A
102
}
330
55A
100
DictionaryVariables
280
     0
  1
0
  0
DICTIONARYVAR
  5
561
102
{ACAD_REACTORS
330
55A
102
}
330
55A
100
DictionaryVariables
280
     0
  1
0
  0
DICTIONARYVAR
  5
55F
102
{ACAD_REACTORS
330
55A
102
}
330
55A
100
DictionaryVariables
280
     0
  1
2
  0
DICTIONARYVAR
  5
55D
102
{ACAD_REACTORS
330
55A
102
}
330
55A
100
DictionaryVariables
280
     0
  1
1
  0
DICTIONARY
  5
1A
330
19
100
AcDbDictionary
280
     1
281
     1
  3
ACAD_XREC_ROUNDTRIP
360
566
  3
BUMPTILE
360
1C
  3
DIFFUSETILE
360
1B
  3
OPACITYTILE
360
1F
  3
REFLECTIONTILE
360
1E
  3
REFRACTIONTILE
360
20
  3
SPECULARTILE
360
1D
  0
DICTIONARY
  5
12
330
11
100
AcDbDictionary
280
     1
281
     1
  3
ACAD_XREC_ROUNDTRIP
360
565
  3
BUMPTILE
360
14
  3
DIFFUSETILE
360
13
  3
OPACITYTILE
360
17
  3
REFLECTIONTILE
360
16
  3
REFRACTIONTILE
360
18
  3
SPECULARTILE
360
15
  0
DICTIONARY
  5
22
330
21
100
AcDbDictionary
280
     1
281
     1
  3
ACAD_XREC_ROUNDTRIP
360
567
  3
BUMPTILE
360
24
  3
DIFFUSETILE
360
23
  3
OPACITYTILE
360
27
  3
REFLECTIONTILE
360
26
  3
REFRACTIONTILE
360
28
  3
SPECULARTILE
360
25
  0
DICTIONARY
  5
562
330
6D
100
AcDbDictionary
280
     1
281
     1
  3
ACAD_ROUNDTRIP_2008_TABLESTYLE_CELLSTYLEMAP
360
563
  3
ACAD_XREC_ROUNDTRIP
360
568
  0
XRECORD
  5
566
102
{ACAD_REACTORS
330
1A
102
}
330
1A
100
AcDbXrecord
280
     1
102
MATERIAL
148
0.0
149
0.0
149
0.0
 93
        0
 94
      127
282
     0
 72
     0
 77
     0
171
     0
175
     0
179
     0
273
     0
  0
XRECORD
  5
1C
102
{ACAD_REACTORS
330
1A
102
}
330
1A
100
AcDbXrecord
280
     1
270
     1
271
     1
  0
XRECORD
  5
1B
102
{ACAD_REACTORS
330
1A
102
}
330
1A
100
AcDbXrecord
280
     1
270
     1
271
     1
  0
XRECORD
  5
1F
102
{ACAD_REACTORS
330
1A
102
}
330
1A
100
AcDbXrecord
280
     1
270
     1
271
     1
  0
XRECORD
  5
1E
102
{ACAD_REACTORS
330
1A
102
}
330
1A
100
AcDbXrecord
280
     1
270
     1
271
     1
  0
XRECORD
  5
20
102
{ACAD_REACTORS
330
1A
102
}
330
1A
100
AcDbXrecord
280
     1
270
     1
271
     1
  0
XRECORD
  5
1D
102
{ACAD_REACTORS
330
1A
102
}
330
1A
100
AcDbXrecord
280
     1
270
     1
271
     1
  0
XRECORD
  5
565
102
{ACAD_REACTORS
330
12
102
}
330
12
100
AcDbXrecord
280
     1
102
MATERIAL
148
0.0
149
0.0
149
0.0
 93
        0
 94
      127
282
     0
 72
     0
 77
     0
171
     0
175
     0
179
     0
273
     0
  0
XRECORD
  5
14
102
{ACAD_REACTORS
330
12
102
}
330
12
100
AcDbXrecord
280
     1
270
     1
271
     1
  0
XRECORD
  5
13
102
{ACAD_REACTORS
330
12
102
}
330
12
100
AcDbXrecord
280
     1
270
     1
271
     1
  0
XRECORD
  5
17
102
{ACAD_REACTORS
330
12
102
}
330
12
100
AcDbXrecord
280
     1
270
     1
271
     1
  0
XRECORD
  5
16
102
{ACAD_REACTORS
330
12
102
}
330
12
100
AcDbXrecord
280
     1
270
     1
271
     1
  0
XRECORD
  5
18
102
{ACAD_REACTORS
330
12
102
}
330
12
100
AcDbXrecord
280
     1
270
     1
271
     1
  0
XRECORD
  5
15
102
{ACAD_REACTORS
330
12
102
}
330
12
100
AcDbXrecord
280
     1
270
     1
271
     1
  0
XRECORD
  5
567
102
{ACAD_REACTORS
330
22
102
}
330
22
100
AcDbXrecord
280
     1
102
MATERIAL
148
0.0
149
0.0
149
0.0
 93
        0
 94
      127
282
     0
 72
     0
 77
     0
171
     0
175
     0
179
     0
273
     0
  0
XRECORD
  5
24
102
{ACAD_REACTORS
330
22
102
}
330
22
100
AcDbXrecord
280
     1
270
     1
271
     1
  0
XRECORD
  5
23
102
{ACAD_REACTORS
330
22
102
}
330
22
100
AcDbXrecord
280
     1
270
     1
271
     1
  0
XRECORD
  5
27
102
{ACAD_REACTORS
330
22
102
}
330
22
100
AcDbXrecord
280
     1
270
     1
271
     1
  0
XRECORD
  5
26
102
{ACAD_REACTORS
330
22
102
}
330
22
100
AcDbXrecord
280
     1
270
     1
271
     1
  0
XRECORD
  5
28
102
{ACAD_REACTORS
330
22
102
}
330
22
100
AcDbXrecord
280
     1
270
     1
271
     1
  0
XRECORD
  5
25
102
{ACAD_REACTORS
330
22
102
}
330
22
100
AcDbXrecord
280
     1
270
     1
271
     1
  0
CELLSTYLEMAP
  5
563
102
{ACAD_REACTORS
330
562
102
}
330
562
100
AcDbCellStyleMap
 90
        3
300
CELLSTYLE
  1
TABLEFORMAT_BEGIN
 90
        5
170
     1
 91
        0
 92
    32768
 62
   257
 93
        1
300
CONTENTFORMAT
  1
CONTENTFORMAT_BEGIN
 90
        0
 91
        0
 92
      512
 93
        0
300

 40
0.0
140
1.0
 94
        5
 62
     0
340
5D
144
0.25
309
CONTENTFORMAT_END
171
     0
 94
        0
309
TABLEFORMAT_END
  1
CELLSTYLE_BEGIN
 90
        1
 91
        1
300
_TITLE
309
CELLSTYLE_END
300
CELLSTYLE
  1
TABLEFORMAT_BEGIN
 90
        5
170
     1
 91
        0
 92
        0
 62
   257
 93
        1
300
CONTENTFORMAT
  1
CONTENTFORMAT_BEGIN
 90
        0
 91
        0
 92
      512
 93
        0
300

 40
0.0
140
1.0
 94
        5
 62
     0
340
5D
144
0.18
309
CONTENTFORMAT_END
171
     0
 94
        0
309
TABLEFORMAT_END
  1
CELLSTYLE_BEGIN
 90
        2
 91
        1
300
_HEADER
309
CELLSTYLE_END
300
CELLSTYLE
  1
TABLEFORMAT_BEGIN
 90
        5
170
     1
 91
        0
 92
        0
 62
   257
 93
        1
300
CONTENTFORMAT
  1
CONTENTFORMAT_BEGIN
 90
        0
 91
        0
 92
      512
 93
        0
300

 40
0.0
140
1.0
 94
        2
 62
     0
340
5D
144
0.18
309
CONTENTFORMAT_END
171
     0
 94
        0
309
TABLEFORMAT_END
  1
CELLSTYLE_BEGIN
 90
        3
 91
        2
300
_DATA
309
CELLSTYLE_END
  0
XRECORD
  5
568
102
{ACAD_REACTORS
330
562
102
}
330
562
100
AcDbXrecord
280
     1
102
ACAD_ROUNDTRIP_PRE2007_TABLESTYLE
 90
      512
 91
        0
  1

 92
      512
 93
        0
  2

 94
      512
 95
        0
  3

  0
ENDSEC
  0
EOF
