  0
SECTION
  2
HEADER
  9
$ACADVER
  1
AC1018
  9
$ACADMAINTVER
 70
   104
  9
$DWGCODEPAGE
  3
ANSI_1252
  9
$AUTHOR
  1
hoerl
  9
$CUSTOMPROPERTYTAG
  1
Manager
  9
$CUSTOMPROPERTY
  1

  9
$CUSTOMPROPERTYTAG
  1
Company
  9
$CUSTOMPROPERTY
  1

  9
$CUSTOMPROPERTYTAG
  1
Category
  9
$CUSTOMPROPERTY
  1

  9
$CUSTOMPROPERTYTAG
  1
Part Number
  9
$CUSTOMPROPERTY
  1
EW-348.880.00
  9
$CUSTOMPROPERTYTAG
  1
Description
  9
$CUSTOMPROPERTY
  1

  9
$CUSTOMPROPERTYTAG
  1
Project
  9
$CUSTOMPROPERTY
  1

  9
$CUSTOMPROPERTYTAG
  1
Designer
  9
$CUSTOMPROPERTY
  1
hoerl
  9
$CUSTOMPROPERTYTAG
  1
Engineer
  9
$CUSTOMPROPERTY
  1

  9
$CUSTOMPROPERTYTAG
  1
Authority
  9
$CUSTOMPROPERTY
  1

  9
$CUSTOMPROPERTYTAG
  1
Cost Center
  9
$CUSTOMPROPERTY
  1

  9
$CUSTOMPROPERTYTAG
  1
Vendor
  9
$CUSTOMPROPERTY
  1

  9
$CUSTOMPROPERTYTAG
  1
User Status
  9
$CUSTOMPROPERTY
  1

  9
$CUSTOMPROPERTYTAG
  1
Design Status
  9
$CUSTOMPROPERTY
  1
WorkInProgress
  9
$CUSTOMPROPERTYTAG
  1
Checked by
  9
$CUSTOMPROPERTY
  1

  9
$CUSTOMPROPERTYTAG
  1
Engr Approved by
  9
$CUSTOMPROPERTY
  1

  9
$CUSTOMPROPERTYTAG
  1
Mfg Approved by
  9
$CUSTOMPROPERTY
  1

  9
$INSBASE
 10
0.0
 20
0.0
 30
0.0
  9
$EXTMIN
 10
0.0
 20
0.0
 30
0.0
  9
$EXTMAX
 10
594.0
 20
420.0
 30
0.0
  9
$LIMMIN
 10
0.0
 20
0.0
  9
$LIMMAX
 10
594.0
 20
420.0
  9
$ORTHOMODE
 70
     0
  9
$REGENMODE
 70
     1
  9
$FILLMODE
 70
     1
  9
$QTEXTMODE
 70
     0
  9
$MIRRTEXT
 70
     0
  9
$LTSCALE
 40
1.0
  9
$ATTMODE
 70
     1
  9
$TEXTSIZE
 40
0.2
  9
$TRACEWID
 40
0.05
  9
$TEXTSTYLE
  7
Standard
  9
$CLAYER
  8
0
  9
$CELTYPE
  6
ByLayer
  9
$CECOLOR
 62
   256
  9
$CELTSCALE
 40
1.0
  9
$DISPSILH
 70
     0
  9
$DIMSCALE
 40
1.0
  9
$DIMASZ
 40
1.799999999999999
  9
$DIMEXO
 40
0.0625
  9
$DIMDLI
 40
0.38
  9
$DIMRND
 40
0.0
  9
$DIMDLE
 40
0.0
  9
$DIMEXE
 40
0.18
  9
$DIMTP
 40
0.0
  9
$DIMTM
 40
0.0
  9
$DIMTXT
 40
0.3499999940395355
  9
$DIMCEN
 40
0.09
  9
$DIMTSZ
 40
0.0
  9
$DIMTOL
 70
     0
  9
$DIMLIM
 70
     0
  9
$DIMTIH
 70
     1
  9
$DIMTOH
 70
     1
  9
$DIMSE1
 70
     0
  9
$DIMSE2
 70
     0
  9
$DIMTAD
 70
     0
  9
$DIMZIN
 70
     0
  9
$DIMBLK
  1

  9
$DIMASO
 70
     1
  9
$DIMSHO
 70
     1
  9
$DIMPOST
  1

  9
$DIMAPOST
  1

  9
$DIMALT
 70
     0
  9
$DIMALTD
 70
     2
  9
$DIMALTF
 40
25.4
  9
$DIMLFAC
 40
1.0
  9
$DIMTOFL
 70
     0
  9
$DIMTVP
 40
0.0
  9
$DIMTIX
 70
     0
  9
$DIMSOXD
 70
     0
  9
$DIMSAH
 70
     0
  9
$DIMBLK1
  1

  9
$DIMBLK2
  1

  9
$DIMSTYLE
  2
Standard
  9
$DIMCLRD
 70
     0
  9
$DIMCLRE
 70
     0
  9
$DIMCLRT
 70
     0
  9
$DIMTFAC
 40
1.0
  9
$DIMGAP
 40
0.09
  9
$DIMJUST
 70
     0
  9
$DIMSD1
 70
     0
  9
$DIMSD2
 70
     0
  9
$DIMTOLJ
 70
     1
  9
$DIMTZIN
 70
     0
  9
$DIMALTZ
 70
     0
  9
$DIMALTTZ
 70
     0
  9
$DIMUPT
 70
     0
  9
$DIMDEC
 70
     4
  9
$DIMTDEC
 70
     4
  9
$DIMALTU
 70
     2
  9
$DIMALTTD
 70
     2
  9
$DIMTXSTY
  7
Standard
  9
$DIMAUNIT
 70
     0
  9
$DIMADEC
 70
     0
  9
$DIMALTRND
 40
0.0
  9
$DIMAZIN
 70
     0
  9
$DIMDSEP
 70
    46
  9
$DIMATFIT
 70
     3
  9
$DIMFRAC
 70
     0
  9
$DIMLDRBLK
  1

  9
$DIMLUNIT
 70
     2
  9
$DIMLWD
 70
    -2
  9
$DIMLWE
 70
    -2
  9
$DIMTMOVE
 70
     0
  9
$LUNITS
 70
     2
  9
$LUPREC
 70
     4
  9
$SKETCHINC
 40
0.1
  9
$FILLETRAD
 40
0.0
  9
$AUNITS
 70
     0
  9
$AUPREC
 70
     0
  9
$MENU
  1
.
  9
$ELEVATION
 40
0.0
  9
$PELEVATION
 40
0.0
  9
$THICKNESS
 40
0.0
  9
$LIMCHECK
 70
     0
  9
$CHAMFERA
 40
0.0
  9
$CHAMFERB
 40
0.0
  9
$CHAMFERC
 40
0.0
  9
$CHAMFERD
 40
0.0
  9
$SKPOLY
 70
     0
  9
$TDCREATE
 40
2455068.401619826
  9
$TDUCREATE
 40
2455068.318286493
  9
$TDUPDATE
 40
2455068.401619826
  9
$TDUUPDATE
 40
2455068.318286493
  9
$TDINDWG
 40
0.0000233218
  9
$TDUSRTIMER
 40
0.0000233218
  9
$USRTIMER
 70
     1
  9
$ANGBASE
 50
0.0
  9
$ANGDIR
 70
     0
  9
$PDMODE
 70
     0
  9
$PDSIZE
 40
0.0
  9
$PLINEWID
 40
0.0
  9
$SPLFRAME
 70
     0
  9
$SPLINETYPE
 70
     6
  9
$SPLINESEGS
 70
     8
  9
$HANDSEED
  5
56E
  9
$SURFTAB1
 70
     6
  9
$SURFTAB2
 70
     6
  9
$SURFTYPE
 70
     6
  9
$SURFU
 70
     6
  9
$SURFV
 70
     6
  9
$UCSBASE
  2

  9
$UCSNAME
  2

  9
$UCSORG
 10
0.0
 20
0.0
 30
0.0
  9
$UCSXDIR
 10
1.0
 20
0.0
 30
0.0
  9
$UCSYDIR
 10
0.0
 20
1.0
 30
0.0
  9
$UCSORTHOREF
  2

  9
$UCSORTHOVIEW
 70
     0
  9
$UCSORGTOP
 10
0.0
 20
0.0
 30
0.0
  9
$UCSORGBOTTOM
 10
0.0
 20
0.0
 30
0.0
  9
$UCSORGLEFT
 10
0.0
 20
0.0
 30
0.0
  9
$UCSORGRIGHT
 10
0.0
 20
0.0
 30
0.0
  9
$UCSORGFRONT
 10
0.0
 20
0.0
 30
0.0
  9
$UCSORGBACK
 10
0.0
 20
0.0
 30
0.0
  9
$PUCSBASE
  2

  9
$PUCSNAME
  2

  9
$PUCSORG
 10
0.0
 20
0.0
 30
0.0
  9
$PUCSXDIR
 10
1.0
 20
0.0
 30
0.0
  9
$PUCSYDIR
 10
0.0
 20
1.0
 30
0.0
  9
$PUCSORTHOREF
  2

  9
$PUCSORTHOVIEW
 70
     0
  9
$PUCSORGTOP
 10
0.0
 20
0.0
 30
0.0
  9
$PUCSORGBOTTOM
 10
0.0
 20
0.0
 30
0.0
  9
$PUCSORGLEFT
 10
0.0
 20
0.0
 30
0.0
  9
$PUCSORGRIGHT
 10
0.0
 20
0.0
 30
0.0
  9
$PUCSORGFRONT
 10
0.0
 20
0.0
 30
0.0
  9
$PUCSORGBACK
 10
0.0
 20
0.0
 30
0.0
  9
$USERI1
 70
     0
  9
$USERI2
 70
     0
  9
$USERI3
 70
     0
  9
$USERI4
 70
     0
  9
$USERI5
 70
     0
  9
$USERR1
 40
0.0
  9
$USERR2
 40
0.0
  9
$USERR3
 40
0.0
  9
$USERR4
 40
0.0
  9
$USERR5
 40
0.0
  9
$WORLDVIEW
 70
     1
  9
$SHADEDGE
 70
     3
  9
$SHADEDIF
 70
    70
  9
$TILEMODE
 70
     1
  9
$MAXACTVP
 70
    64
  9
$PINSBASE
 10
0.0
 20
0.0
 30
0.0
  9
$PLIMCHECK
 70
     0
  9
$PEXTMIN
 10
0.0
 20
0.0
 30
0.0
  9
$PEXTMAX
 10
594.0
 20
420.0
 30
0.0
  9
$PLIMMIN
 10
0.0
 20
0.0
  9
$PLIMMAX
 10
594.0
 20
420.0
  9
$UNITMODE
 70
     0
  9
$VISRETAIN
 70
     1
  9
$PLINEGEN
 70
     0
  9
$PSLTSCALE
 70
     1
  9
$TREEDEPTH
 70
  3020
  9
$CMLSTYLE
  2
Standard
  9
$CMLJUST
 70
     0
  9
$CMLSCALE
 40
1.0
  9
$PROXYGRAPHICS
 70
     1
  9
$MEASUREMENT
 70
     1
  9
$CELWEIGHT
370
    -1
  9
$ENDCAPS
280
     0
  9
$JOINSTYLE
280
     0
  9
$LWDISPLAY
290
     0
  9
$INSUNITS
 70
     4
  9
$HYPERLINKBASE
  1

  9
$STYLESHEET
  1

  9
$XEDIT
290
     1
  9
$CEPSNTYPE
380
     0
  9
$PSTYLEMODE
290
     1
  9
$FINGERPRINTGUID
  2
{2EBDD76D-E0C1-4885-8DC0-E8FC973879B0}
  9
$VERSIONGUID
  2
{1E547E9A-0EC1-4C1B-ADB3-FC1248F18CCA}
  9
$EXTNAMES
290
     1
  9
$PSVPSCALE
 40
0.0
  9
$OLESTARTUP
290
     0
  9
$SORTENTS
280
   127
  9
$INDEXCTL
280
     0
  9
$HIDETEXT
280
     1
  9
$XCLIPFRAME
290
     0
  9
$HALOGAP
280
     0
  9
$OBSCOLOR
 70
   257
  9
$OBSLTYPE
280
     0
  9
$INTERSECTIONDISPLAY
280
     0
  9
$INTERSECTIONCOLOR
 70
   257
  9
$DIMASSOC
280
     1
  9
$PROJECTNAME
  1

  0
ENDSEC
  0
SECTION
  2
CLASSES
  0
CLASS
  1
ACDBDICTIONARYWDFLT
  2
AcDbDictionaryWithDefault
  3
ObjectDBX Classes
 90
        0
 91
        1
280
     0
281
     0
  0
CLASS
  1
MATERIAL
  2
AcDbMaterial
  3
ObjectDBX Classes
 90
     1153
 91
        3
280
     0
281
     0
  0
CLASS
  1
VISUALSTYLE
  2
AcDbVisualStyle
  3
ObjectDBX Classes
 90
     4095
 91
       16
280
     0
281
     0
  0
CLASS
  1
SCALE
  2
AcDbScale
  3
ObjectDBX Classes
 90
     1153
 91
       33
280
     0
281
     0
  0
CLASS
  1
TABLESTYLE
  2
AcDbTableStyle
  3
ObjectDBX Classes
 90
     4095
 91
        1
280
     0
281
     0
  0
CLASS
  1
MLEADERSTYLE
  2
AcDbMLeaderStyle
  3
ACDB_MLEADERSTYLE_CLASS
 90
     4095
 91
        1
280
     0
281
     0
  0
CLASS
  1
DICTIONARYVAR
  2
AcDbDictionaryVar
  3
ObjectDBX Classes
 90
        0
 91
        7
280
     0
281
     0
  0
CLASS
  1
CELLSTYLEMAP
  2
AcDbCellStyleMap
  3
ObjectDBX Classes
 90
     1152
 91
        1
280
     0
281
     0
  0
ENDSEC
  0
SECTION
  2
TABLES
  0
TABLE
  2
VPORT
  5
8
330
0
100
AcDbSymbolTable
 70
     1
  0
VPORT
  5
5F
330
8
100
AcDbSymbolTableRecord
100
AcDbViewportTableRecord
  2
*Active
 70
     0
 10
0.0
 20
0.0
 11
1.0
 21
1.0
 12
297.0
 22
210.0
 13
0.0
 23
0.0
 14
1.0
 24
1.0
 15
0.0
 25
0.0
 16
0.0
 26
0.0
 36
1.0
 17
0.0
 27
0.0
 37
0.0
 40
420.0
 41
1.414285714285714
 42
50.0
 43
0.0
 44
0.0
 50
0.0
 51
0.0
 71
     0
 72
   100
 73
     1
 74
     1
 75
     0
 76
     0
 77
     0
 78
     0
281
     0
 65
     1
110
0.0
120
0.0
130
0.0
111
1.0
121
0.0
131
0.0
112
0.0
122
1.0
132
0.0
 79
     0
146
0.0
  0
ENDTAB
  0
TABLE
  2
LTYPE
  5
5
330
0
100
AcDbSymbolTable
 70
    59
  0
LTYPE
  5
63
330
5
100
AcDbSymbolTableRecord
100
AcDbLinetypeTableRecord
  2
ByBlock
 70
     0
  3

 72
    65
 73
     0
 40
0.0
  0
LTYPE
  5
64
330
5
100
AcDbSymbolTableRecord
100
AcDbLinetypeTableRecord
  2
ByLayer
 70
     0
  3

 72
    65
 73
     0
 40
0.0
  0
LTYPE
  5
65
330
5
100
AcDbSymbolTableRecord
100
AcDbLinetypeTableRecord
  2
Continuous
 70
     0
  3
Solid line
 72
    65
 73
     0
 40
0.0
  0
LTYPE
  5
7D
330
5
100
AcDbSymbolTableRecord
100
AcDbLinetypeTableRecord
  2
Section_View_Lines
 70
     0
  3
Section View Lines
 72
    65
 73
     4
 40
0.8406
 49
0.6614
 74
     0
 49
-0.0827
 74
     0
 49
0.0138
 74
     0
 49
-0.0827
 74
     0
  0
LTYPE
  5
7E
330
5
100
AcDbSymbolTableRecord
100
AcDbLinetypeTableRecord
  2
CHAIN
 70
     0
  3
Chain ____ _ ____ _ ____ _ ____ _ ____ _ ____
 72
    65
 73
     4
 40
0.3543
 49
0.2362
 74
     0
 49
-0.0295
 74
     0
 49
0.0591
 74
     0
 49
-0.0295
 74
     0
  0
LTYPE
  5
7F
330
5
100
AcDbSymbolTableRecord
100
AcDbLinetypeTableRecord
  2
DASH_DOT
 70
     0
  3
Dash dot _._._._._._._._._._._._._._._.
 72
    65
 73
     4
 40
0.182
 49
0.1181
 74
     0
 49
-0.0295
 74
     0
 49
0.0049
 74
     0
 49
-0.0295
 74
     0
  0
LTYPE
  5
80
330
5
100
AcDbSymbolTableRecord
100
AcDbLinetypeTableRecord
  2
DASH_DOUBLE_DOT
 70
     0
  3
Dash Double Dot __ __ . __ __ . __ __ . __ _
 72
    65
 73
     6
 40
0.2164
 49
0.1181
 74
     0
 49
-0.0295
 74
     0
 49
0.0049
 74
     0
 49
-0.0295
 74
     0
 49
0.0049
 74
     0
 49
-0.0295
 74
     0
  0
LTYPE
  5
81
330
5
100
AcDbSymbolTableRecord
100
AcDbLinetypeTableRecord
  2
DASH_TRIPLE_DOT
 70
     0
  3
Dash Triple-Dot _ . . . _ . . . _ . . . _
 72
    65
 73
     8
 40
0.2508
 49
0.1181
 74
     0
 49
-0.0295
 74
     0
 49
0.0049
 74
     0
 49
-0.0295
 74
     0
 49
0.0049
 74
     0
 49
-0.0295
 74
     0
 49
0.0049
 74
     0
 49
-0.0295
 74
     0
  0
LTYPE
  5
82
330
5
100
AcDbSymbolTableRecord
100
AcDbLinetypeTableRecord
  2
DASHED
 70
     0
  3
Dashed __ __ __ __ __ __ __ __ __ __ __ __ __ _
 72
    65
 73
     2
 40
0.2068
 49
0.1655
 74
     0
 49
-0.0413
 74
     0
  0
LTYPE
  5
83
330
5
100
AcDbSymbolTableRecord
100
AcDbLinetypeTableRecord
  2
DASHED_SPACE
 70
     0
  3
Dashed Space __ __ __ __ __ __ __ __ __ __ __ _
 72
    65
 73
     2
 40
0.2067
 49
0.1654
 74
     0
 49
-0.0413
 74
     0
  0
LTYPE
  5
84
330
5
100
AcDbSymbolTableRecord
100
AcDbLinetypeTableRecord
  2
DOTTED
 70
     0
  3
Dotted . . . . . . . . . . . . . . . . . . . . 
 72
    65
 73
     2
 40
0.0481
 49
0.0068
 74
     0
 49
-0.0413
 74
     0
  0
LTYPE
  5
85
330
5
100
AcDbSymbolTableRecord
100
AcDbLinetypeTableRecord
  2
DOUBLE_DASH_CHAIN
 70
     0
  3
Double Dash Chain ___ _ _ ___ _ _ ___ _ _ ___ _
 72
    65
 73
     6
 40
1.240299999999999
 49
0.6614
 74
     0
 49
-0.0827
 74
     0
 49
0.1654
 74
     0
 49
-0.0827
 74
     0
 49
0.1654
 74
     0
 49
-0.0827
 74
     0
  0
LTYPE
  5
86
330
5
100
AcDbSymbolTableRecord
100
AcDbLinetypeTableRecord
  2
DOUBLE_DASH_DOT
 70
     0
  3
Double Dash Dot __ __ . __ __ . __ __ . __ _
 72
    65
 73
     6
 40
0.3296
 49
0.1181
 74
     0
 49
-0.0295
 74
     0
 49
0.1181
 74
     0
 49
-0.0295
 74
     0
 49
0.0049
 74
     0
 49
-0.0295
 74
     0
  0
LTYPE
  5
87
330
5
100
AcDbSymbolTableRecord
100
AcDbLinetypeTableRecord
  2
DOUBLE_DASH_DOUBLE_DOT
 70
     0
  3
Double Dash Double Dot _ _ . . _ _ . . _ _
 72
    65
 73
     8
 40
0.364
 49
0.1181
 74
     0
 49
-0.0295
 74
     0
 49
0.1181
 74
     0
 49
-0.0295
 74
     0
 49
0.0049
 74
     0
 49
-0.0295
 74
     0
 49
0.0049
 74
     0
 49
-0.0295
 74
     0
  0
LTYPE
  5
88
330
5
100
AcDbSymbolTableRecord
100
AcDbLinetypeTableRecord
  2
DOUBLE_DASH_TRIPLE_DOT
 70
     0
  3
Double Dash Triple Dot __ __ . . . __ __ . . .
 72
    65
 73
    10
 40
0.3984
 49
0.1181
 74
     0
 49
-0.0295
 74
     0
 49
0.1181
 74
     0
 49
-0.0295
 74
     0
 49
0.0049
 74
     0
 49
-0.0295
 74
     0
 49
0.0049
 74
     0
 49
-0.0295
 74
     0
 49
0.0049
 74
     0
 49
-0.0295
 74
     0
  0
LTYPE
  5
89
330
5
100
AcDbSymbolTableRecord
100
AcDbLinetypeTableRecord
  2
LONG_DASH_DOTTED
 70
     0
  3
Long Dash Dotted ____ . ____ . ____ . ____ . _
 72
    65
 73
     4
 40
0.3001
 49
0.2362
 74
     0
 49
-0.0295
 74
     0
 49
0.0049
 74
     0
 49
-0.0295
 74
     0
  0
LTYPE
  5
8A
330
5
100
AcDbSymbolTableRecord
100
AcDbLinetypeTableRecord
  2
LONG_DASH_DOUBLE_DOT
 70
     0
  3
Long Dash Double Dot ____ . . ____ . . ____ . .
 72
    65
 73
     6
 40
0.3345
 49
0.2362
 74
     0
 49
-0.0295
 74
     0
 49
0.0049
 74
     0
 49
-0.0295
 74
     0
 49
0.0049
 74
     0
 49
-0.0295
 74
     0
  0
LTYPE
  5
8B
330
5
100
AcDbSymbolTableRecord
100
AcDbLinetypeTableRecord
  2
LONG_DASH_TRIPLE_DOT
 70
     0
  3
Long Dash Triple Dot ____ ... ____ ... ____
 72
    65
 73
     8
 40
0.3689
 49
0.2362
 74
     0
 49
-0.0295
 74
     0
 49
0.0049
 74
     0
 49
-0.0295
 74
     0
 49
0.0049
 74
     0
 49
-0.0295
 74
     0
 49
0.0049
 74
     0
 49
-0.0295
 74
     0
  0
LTYPE
  5
8C
330
5
100
AcDbSymbolTableRecord
100
AcDbLinetypeTableRecord
  2
BORDER
 70
     0
  3
Border __ __ . __ __ . __ __ . __ __ . __ __ .
 72
    65
 73
     6
 40
44.45
 49
12.7
 74
     0
 49
-6.349999999999999
 74
     0
 49
12.7
 74
     0
 49
-6.349999999999999
 74
     0
 49
0.0
 74
     0
 49
-6.349999999999999
 74
     0
  0
LTYPE
  5
8D
330
5
100
AcDbSymbolTableRecord
100
AcDbLinetypeTableRecord
  2
BORDER2
 70
     0
  3
Border (.5x) __.__.__.__.__.__.__.__.__.__.__.
 72
    65
 73
     6
 40
22.225
 49
6.349999999999999
 74
     0
 49
-3.174999999999999
 74
     0
 49
6.349999999999999
 74
     0
 49
-3.174999999999999
 74
     0
 49
0.0
 74
     0
 49
-3.174999999999999
 74
     0
  0
LTYPE
  5
8E
330
5
100
AcDbSymbolTableRecord
100
AcDbLinetypeTableRecord
  2
BORDERX2
 70
     0
  3
Border (2x) ____  ____  .  ____  ____  .  ___
 72
    65
 73
     6
 40
88.9
 49
25.4
 74
     0
 49
-12.7
 74
     0
 49
25.4
 74
     0
 49
-12.7
 74
     0
 49
0.0
 74
     0
 49
-12.7
 74
     0
  0
LTYPE
  5
8F
330
5
100
AcDbSymbolTableRecord
100
AcDbLinetypeTableRecord
  2
CENTER
 70
     0
  3
Center ____ _ ____ _ ____ _ ____ _ ____ _ ____
 72
    65
 73
     4
 40
50.8
 49
31.75
 74
     0
 49
-6.349999999999999
 74
     0
 49
6.349999999999999
 74
     0
 49
-6.349999999999999
 74
     0
  0
LTYPE
  5
90
330
5
100
AcDbSymbolTableRecord
100
AcDbLinetypeTableRecord
  2
CENTER2
 70
     0
  3
Center (.5x) ___ _ ___ _ ___ _ ___ _ ___ _ ___
 72
    65
 73
     4
 40
28.575
 49
19.05
 74
     0
 49
-3.174999999999999
 74
     0
 49
3.174999999999999
 74
     0
 49
-3.174999999999999
 74
     0
  0
LTYPE
  5
91
330
5
100
AcDbSymbolTableRecord
100
AcDbLinetypeTableRecord
  2
CENTERX2
 70
     0
  3
Center (2x) ________  __  ________  __  _____
 72
    65
 73
     4
 40
101.6
 49
63.5
 74
     0
 49
-12.7
 74
     0
 49
12.7
 74
     0
 49
-12.7
 74
     0
  0
LTYPE
  5
92
330
5
100
AcDbSymbolTableRecord
100
AcDbLinetypeTableRecord
  2
DASHDOT2
 70
     0
  3
Dash dot (.5x) _._._._._._._._._._._._._._._.
 72
    65
 73
     4
 40
12.7
 49
6.349999999999999
 74
     0
 49
-3.174999999999999
 74
     0
 49
0.0
 74
     0
 49
-3.174999999999999
 74
     0
  0
LTYPE
  5
93
330
5
100
AcDbSymbolTableRecord
100
AcDbLinetypeTableRecord
  2
DASHDOTX2
 70
     0
  3
Dash dot (2x) ____  .  ____  .  ____  .  ___
 72
    65
 73
     4
 40
50.8
 49
25.4
 74
     0
 49
-12.7
 74
     0
 49
0.0
 74
     0
 49
-12.7
 74
     0
  0
LTYPE
  5
94
330
5
100
AcDbSymbolTableRecord
100
AcDbLinetypeTableRecord
  2
DASHED2
 70
     0
  3
Dashed (.5x) _ _ _ _ _ _ _ _ _ _ _ _ _ _ _ _ _
 72
    65
 73
     2
 40
9.524999999999998
 49
6.349999999999999
 74
     0
 49
-3.174999999999999
 74
     0
  0
LTYPE
  5
95
330
5
100
AcDbSymbolTableRecord
100
AcDbLinetypeTableRecord
  2
DASHEDX2
 70
     0
  3
Dashed (2x) ____  ____  ____  ____  ____  ___
 72
    65
 73
     2
 40
38.1
 49
25.4
 74
     0
 49
-12.7
 74
     0
  0
LTYPE
  5
96
330
5
100
AcDbSymbolTableRecord
100
AcDbLinetypeTableRecord
  2
DIVIDE
 70
     0
  3
Divide ____ . . ____ . . ____ . . ____ . . ____
 72
    65
 73
     6
 40
31.75
 49
12.7
 74
     0
 49
-6.349999999999999
 74
     0
 49
0.0
 74
     0
 49
-6.349999999999999
 74
     0
 49
0.0
 74
     0
 49
-6.349999999999999
 74
     0
  0
LTYPE
  5
97
330
5
100
AcDbSymbolTableRecord
100
AcDbLinetypeTableRecord
  2
DIVIDE2
 70
     0
  3
Divide (.5x) __..__..__..__..__..__..__..__.._
 72
    65
 73
     6
 40
15.875
 49
6.349999999999999
 74
     0
 49
-3.174999999999999
 74
     0
 49
0.0
 74
     0
 49
-3.174999999999999
 74
     0
 49
0.0
 74
     0
 49
-3.174999999999999
 74
     0
  0
LTYPE
  5
98
330
5
100
AcDbSymbolTableRecord
100
AcDbLinetypeTableRecord
  2
DIVIDEX2
 70
     0
  3
Divide (2x) ________  .  .  ________  .  .  _
 72
    65
 73
     6
 40
63.49999999999999
 49
25.4
 74
     0
 49
-12.7
 74
     0
 49
0.0
 74
     0
 49
-12.7
 74
     0
 49
0.0
 74
     0
 49
-12.7
 74
     0
  0
LTYPE
  5
99
330
5
100
AcDbSymbolTableRecord
100
AcDbLinetypeTableRecord
  2
DOT
 70
     0
  3
Dot . . . . . . . . . . . . . . . . . . . . . .
 72
    65
 73
     2
 40
6.349999999999999
 49
0.0
 74
     0
 49
-6.349999999999999
 74
     0
  0
LTYPE
  5
9A
330
5
100
AcDbSymbolTableRecord
100
AcDbLinetypeTableRecord
  2
DOT2
 70
     0
  3
Dot (.5x) .....................................
 72
    65
 73
     2
 40
3.174999999999999
 49
0.0
 74
     0
 49
-3.174999999999999
 74
     0
  0
LTYPE
  5
9B
330
5
100
AcDbSymbolTableRecord
100
AcDbLinetypeTableRecord
  2
DOTX2
 70
     0
  3
Dot (2x) .  .  .  .  .  .  .  .  .  .  .  .  . 
 72
    65
 73
     2
 40
12.7
 49
0.0
 74
     0
 49
-12.7
 74
     0
  0
LTYPE
  5
9C
330
5
100
AcDbSymbolTableRecord
100
AcDbLinetypeTableRecord
  2
HIDDEN
 70
     0
  3
Hidden __ __ __ __ __ __ __ __ __ __ __ __ __ _
 72
    65
 73
     2
 40
9.524999999999998
 49
6.349999999999999
 74
     0
 49
-3.174999999999999
 74
     0
  0
LTYPE
  5
9D
330
5
100
AcDbSymbolTableRecord
100
AcDbLinetypeTableRecord
  2
HIDDEN2
 70
     0
  3
Hidden (.5x) _ _ _ _ _ _ _ _ _ _ _ _ _ _ _ _ _
 72
    65
 73
     2
 40
4.762499999999999
 49
3.174999999999999
 74
     0
 49
-1.587499999999999
 74
     0
  0
LTYPE
  5
9E
330
5
100
AcDbSymbolTableRecord
100
AcDbLinetypeTableRecord
  2
HIDDENX2
 70
     0
  3
Hidden (2x) ____ ____ ____ ____ ____ ____ ____
 72
    65
 73
     2
 40
19.05
 49
12.7
 74
     0
 49
-6.349999999999999
 74
     0
  0
LTYPE
  5
9F
330
5
100
AcDbSymbolTableRecord
100
AcDbLinetypeTableRecord
  2
PHANTOM
 70
     0
  3
Phantom ______  __  __  ______  __  __  ______
 72
    65
 73
     6
 40
63.5
 49
31.75
 74
     0
 49
-6.349999999999999
 74
     0
 49
6.349999999999999
 74
     0
 49
-6.349999999999999
 74
     0
 49
6.349999999999999
 74
     0
 49
-6.349999999999999
 74
     0
  0
LTYPE
  5
A0
330
5
100
AcDbSymbolTableRecord
100
AcDbLinetypeTableRecord
  2
PHANTOM2
 70
     0
  3
Phantom (.5x) ___ _ _ ___ _ _ ___ _ _ ___ _ _
 72
    65
 73
     6
 40
31.75
 49
15.875
 74
     0
 49
-3.174999999999999
 74
     0
 49
3.174999999999999
 74
     0
 49
-3.174999999999999
 74
     0
 49
3.174999999999999
 74
     0
 49
-3.174999999999999
 74
     0
  0
LTYPE
  5
A1
330
5
100
AcDbSymbolTableRecord
100
AcDbLinetypeTableRecord
  2
PHANTOMX2
 70
     0
  3
Phantom (2x) ____________    ____    ____   _
 72
    65
 73
     6
 40
127.0
 49
63.5
 74
     0
 49
-12.7
 74
     0
 49
12.7
 74
     0
 49
-12.7
 74
     0
 49
12.7
 74
     0
 49
-12.7
 74
     0
  0
LTYPE
  5
A2
330
5
100
AcDbSymbolTableRecord
100
AcDbLinetypeTableRecord
  2
ACAD_ISO02W100
 70
     0
  3
ISO dash __ __ __ __ __ __ __ __ __ __ __ __ __
 72
    65
 73
     2
 40
15.0
 49
12.0
 74
     0
 49
-3.0
 74
     0
  0
LTYPE
  5
A3
330
5
100
AcDbSymbolTableRecord
100
AcDbLinetypeTableRecord
  2
ACAD_ISO03W100
 70
     0
  3
ISO dash space __    __    __    __    __    __
 72
    65
 73
     2
 40
30.0
 49
12.0
 74
     0
 49
-18.0
 74
     0
  0
LTYPE
  5
A4
330
5
100
AcDbSymbolTableRecord
100
AcDbLinetypeTableRecord
  2
ACAD_ISO04W100
 70
     0
  3
ISO long-dash dot ____ . ____ . ____ . ____ . _
 72
    65
 73
     4
 40
30.0
 49
24.0
 74
     0
 49
-3.0
 74
     0
 49
0.0
 74
     0
 49
-3.0
 74
     0
  0
LTYPE
  5
A5
330
5
100
AcDbSymbolTableRecord
100
AcDbLinetypeTableRecord
  2
ACAD_ISO05W100
 70
     0
  3
ISO long-dash double-dot ____ .. ____ .. ____ .
 72
    65
 73
     6
 40
33.0
 49
24.0
 74
     0
 49
-3.0
 74
     0
 49
0.0
 74
     0
 49
-3.0
 74
     0
 49
0.0
 74
     0
 49
-3.0
 74
     0
  0
LTYPE
  5
A6
330
5
100
AcDbSymbolTableRecord
100
AcDbLinetypeTableRecord
  2
ACAD_ISO06W100
 70
     0
  3
ISO long-dash triple-dot ____ ... ____ ... ____
 72
    65
 73
     8
 40
36.0
 49
24.0
 74
     0
 49
-3.0
 74
     0
 49
0.0
 74
     0
 49
-3.0
 74
     0
 49
0.0
 74
     0
 49
-3.0
 74
     0
 49
0.0
 74
     0
 49
-3.0
 74
     0
  0
LTYPE
  5
A7
330
5
100
AcDbSymbolTableRecord
100
AcDbLinetypeTableRecord
  2
ACAD_ISO07W100
 70
     0
  3
ISO dot . . . . . . . . . . . . . . . . . . . .
 72
    65
 73
     2
 40
3.0
 49
0.0
 74
     0
 49
-3.0
 74
     0
  0
LTYPE
  5
A8
330
5
100
AcDbSymbolTableRecord
100
AcDbLinetypeTableRecord
  2
ACAD_ISO08W100
 70
     0
  3
ISO long-dash short-dash ____ __ ____ __ ____ _
 72
    65
 73
     4
 40
36.0
 49
24.0
 74
     0
 49
-3.0
 74
     0
 49
6.0
 74
     0
 49
-3.0
 74
     0
  0
LTYPE
  5
A9
330
5
100
AcDbSymbolTableRecord
100
AcDbLinetypeTableRecord
  2
ACAD_ISO09W100
 70
     0
  3
ISO long-dash double-short-dash ____ __ __ ____
 72
    65
 73
     6
 40
45.0
 49
24.0
 74
     0
 49
-3.0
 74
     0
 49
6.0
 74
     0
 49
-3.0
 74
     0
 49
6.0
 74
     0
 49
-3.0
 74
     0
  0
LTYPE
  5
AA
330
5
100
AcDbSymbolTableRecord
100
AcDbLinetypeTableRecord
  2
ACAD_ISO10W100
 70
     0
  3
ISO dash dot __ . __ . __ . __ . __ . __ . __ .
 72
    65
 73
     4
 40
18.0
 49
12.0
 74
     0
 49
-3.0
 74
     0
 49
0.0
 74
     0
 49
-3.0
 74
     0
  0
LTYPE
  5
AB
330
5
100
AcDbSymbolTableRecord
100
AcDbLinetypeTableRecord
  2
ACAD_ISO11W100
 70
     0
  3
ISO double-dash dot __ __ . __ __ . __ __ . __ 
 72
    65
 73
     6
 40
33.0
 49
12.0
 74
     0
 49
-3.0
 74
     0
 49
12.0
 74
     0
 49
-3.0
 74
     0
 49
0.0
 74
     0
 49
-3.0
 74
     0
  0
LTYPE
  5
AC
330
5
100
AcDbSymbolTableRecord
100
AcDbLinetypeTableRecord
  2
ACAD_ISO12W100
 70
     0
  3
ISO dash double-dot __ . . __ . . __ . . __ . .
 72
    65
 73
     6
 40
21.0
 49
12.0
 74
     0
 49
-3.0
 74
     0
 49
0.0
 74
     0
 49
-3.0
 74
     0
 49
0.0
 74
     0
 49
-3.0
 74
     0
  0
LTYPE
  5
AD
330
5
100
AcDbSymbolTableRecord
100
AcDbLinetypeTableRecord
  2
ACAD_ISO13W100
 70
     0
  3
ISO double-dash double-dot __ __ . . __ __ . . 
 72
    65
 73
     8
 40
36.0
 49
12.0
 74
     0
 49
-3.0
 74
     0
 49
12.0
 74
     0
 49
-3.0
 74
     0
 49
0.0
 74
     0
 49
-3.0
 74
     0
 49
0.0
 74
     0
 49
-3.0
 74
     0
  0
LTYPE
  5
AE
330
5
100
AcDbSymbolTableRecord
100
AcDbLinetypeTableRecord
  2
ACAD_ISO14W100
 70
     0
  3
ISO dash triple-dot __ . . . __ . . . __ . . . 
 72
    65
 73
     8
 40
24.0
 49
12.0
 74
     0
 49
-3.0
 74
     0
 49
0.0
 74
     0
 49
-3.0
 74
     0
 49
0.0
 74
     0
 49
-3.0
 74
     0
 49
0.0
 74
     0
 49
-3.0
 74
     0
  0
LTYPE
  5
AF
330
5
100
AcDbSymbolTableRecord
100
AcDbLinetypeTableRecord
  2
ACAD_ISO15W100
 70
     0
  3
ISO double-dash triple-dot __ __ . . . __ __ . 
 72
    65
 73
    10
 40
39.0
 49
12.0
 74
     0
 49
-3.0
 74
     0
 49
12.0
 74
     0
 49
-3.0
 74
     0
 49
0.0
 74
     0
 49
-3.0
 74
     0
 49
0.0
 74
     0
 49
-3.0
 74
     0
 49
0.0
 74
     0
 49
-3.0
 74
     0
  0
LTYPE
  5
B2
330
5
100
AcDbSymbolTableRecord
100
AcDbLinetypeTableRecord
  2
FENCELINE1
 70
     0
  3
Fenceline circle ----0-----0----0-----0----0---
 72
    65
 73
     4
 40
36.83
 49
6.349999999999999
 74
     0
 49
-2.54
 74
     4
 75
   133
340
B1
 46
2.54
 50
0.0
 44
-2.54
 45
0.0
 49
-2.54
 74
     0
 49
25.4
 74
     0
  0
LTYPE
  5
B3
330
5
100
AcDbSymbolTableRecord
100
AcDbLinetypeTableRecord
  2
FENCELINE2
 70
     0
  3
Fenceline square ----[]-----[]----[]-----[]----
 72
    65
 73
     4
 40
36.83
 49
6.349999999999999
 74
     0
 49
-2.54
 74
     4
 75
   132
340
B1
 46
2.54
 50
0.0
 44
-2.54
 45
0.0
 49
-2.54
 74
     0
 49
25.4
 74
     0
  0
LTYPE
  5
B4
330
5
100
AcDbSymbolTableRecord
100
AcDbLinetypeTableRecord
  2
TRACKS
 70
     0
  3
Tracks -|-|-|-|-|-|-|-|-|-|-|-|-|-|-|-|-|-|-|-|
 72
    65
 73
     2
 40
7.62
 49
3.81
 74
     4
 75
   130
340
B1
 46
6.349999999999999
 50
0.0
 44
0.0
 45
0.0
 49
3.81
 74
     0
  0
LTYPE
  5
B5
330
5
100
AcDbSymbolTableRecord
100
AcDbLinetypeTableRecord
  2
BATTING
 70
     0
  3
Batting SSSSSSSSSSSSSSSSSSSSSSSSSSSSSSSSSSSSSSS
 72
    65
 73
     4
 40
10.16254
 49
0.00254
 74
     0
 49
-2.54
 74
     4
 75
   134
340
B1
 46
2.54
 50
0.0
 44
-2.54
 45
0.0
 49
-5.08
 74
     4
 75
   134
340
B1
 46
2.54
 50
180.0
 44
2.54
 45
0.0
 49
-2.54
 74
     0
  0
LTYPE
  5
B6
330
5
100
AcDbSymbolTableRecord
100
AcDbLinetypeTableRecord
  2
HOT_WATER_SUPPLY
 70
     0
  3
Hot water supply ---- HW ---- HW ---- HW ----
 72
    65
 73
     3
 40
22.86
 49
12.7
 74
     0
 49
-5.08
 74
     2
 75
     0
340
5D
 46
2.54
 50
0.0
 44
-2.54
 45
-1.27
  9
HW
 49
-5.08
 74
     0
  0
LTYPE
  5
B7
330
5
100
AcDbSymbolTableRecord
100
AcDbLinetypeTableRecord
  2
GAS_LINE
 70
     0
  3
Gas line ----GAS----GAS----GAS----GAS----GAS---
 72
    65
 73
     3
 40
24.13
 49
12.7
 74
     0
 49
-5.08
 74
     2
 75
     0
340
5D
 46
2.54
 50
0.0
 44
-2.54
 45
-1.27
  9
GAS
 49
-6.349999999999999
 74
     0
  0
LTYPE
  5
B8
330
5
100
AcDbSymbolTableRecord
100
AcDbLinetypeTableRecord
  2
ZIGZAG
 70
     0
  3
Zig zag /\/\/\/\/\/\/\/\/\/\/\/\/\/\/\/\/\/\/\/
 72
    65
 73
     4
 40
20.32254
 49
0.00254
 74
     0
 49
-5.08
 74
     4
 75
   131
340
B1
 46
5.08
 50
0.0
 44
-5.08
 45
0.0
 49
-10.16
 74
     4
 75
   131
340
B1
 46
5.08
 50
180.0
 44
5.08
 45
0.0
 49
-5.08
 74
     0
  0
ENDTAB
  0
TABLE
  2
LAYER
  5
2
330
0
100
AcDbSymbolTable
 70
    25
  0
LAYER
  5
5C
330
2
100
AcDbSymbolTableRecord
100
AcDbLayerTableRecord
  2
0
 70
     0
 62
     7
  6
Continuous
370
    -3
390
F
  0
LAYER
  5
C3
330
2
100
AcDbSymbolTableRecord
100
AcDbLayerTableRecord
  2
Hidden (ISO)
 70
     0
 62
     7
  6
Continuous
370
    35
390
F
  0
LAYER
  5
CC
330
2
100
AcDbSymbolTableRecord
100
AcDbLayerTableRecord
  2
Visible (ISO)
 70
     0
 62
     7
  6
Continuous
370
    50
390
F
  0
LAYER
  5
CD
330
2
100
AcDbSymbolTableRecord
100
AcDbLayerTableRecord
  2
Visible Narrow (ISO)
 70
     0
 62
     7
  6
Continuous
370
    35
390
F
  0
ENDTAB
  0
TABLE
  2
STYLE
  5
3
330
0
100
AcDbSymbolTable
 70
    15
  0
STYLE
  5
5D
330
3
100
AcDbSymbolTableRecord
100
AcDbTextStyleTableRecord
  2
Standard
 70
     0
 40
0.0
 41
1.0
 50
0.0
 71
     0
 42
0.2
  3
TAHOMA.TTF
  4

1001
ACAD
1000
Tahoma
1071
      256
  0
STYLE
  5
62
330
3
100
AcDbSymbolTableRecord
100
AcDbTextStyleTableRecord
  2
Annotative
 70
     0
 40
0.0
 41
1.0
 50
0.0
 71
     0
 42
0.2
  3
txt
  4

1001
AcadAnnotative
1000
AnnotativeData
1002
{
1070
     1
1070
     1
1002
}
  0
STYLE
  5
B1
330
3
100
AcDbSymbolTableRecord
100
AcDbTextStyleTableRecord
  2

 70
     1
 40
0.0
 41
1.0
 50
0.0
 71
     0
 42
0.2
  3
ltypeshp.shx
  4

  0
STYLE
  5
D1
330
3
100
AcDbSymbolTableRecord
100
AcDbTextStyleTableRecord
  2
Alternative Text (GOST)
 70
     0
 40
0.0
 41
0.8000000119209289
 50
0.0
 71
     0
 42
0.2
  3
ARIAL.TTF
  4

1001
ACAD
1000
Arial
1071
      256
  0
STYLE
  5
D2
330
3
100
AcDbSymbolTableRecord
100
AcDbTextStyleTableRecord
  2
Condensed Text (GOST)
 70
     0
 40
0.0
 41
0.8000000119209289
 50
0.0
 71
     0
 42
0.2
  3
GOST Common.ttf
  4

1001
ACAD
1000
GOST Common
1071
      256
  0
STYLE
  5
D3
330
3
100
AcDbSymbolTableRecord
100
AcDbTextStyleTableRecord
  2
Enlarged Text (GOST)
 70
     0
 40
0.0
 41
1.0
 50
0.0
 71
     0
 42
0.2
  3
GOST Common.ttf
  4

1001
ACAD
1000
GOST Common
1071
      256
  0
STYLE
  5
D4
330
3
100
AcDbSymbolTableRecord
100
AcDbTextStyleTableRecord
  2
Label Text (ANSI)
 70
     0
 40
0.0
 41
1.0
 50
0.0
 71
     0
 42
0.2
  3
TAHOMA.TTF
  4

1001
ACAD
1000
Tahoma
1071
      256
  0
STYLE
  5
D5
330
3
100
AcDbSymbolTableRecord
100
AcDbTextStyleTableRecord
  2
Label Text (DIN)
 70
     0
 40
0.0
 41
1.0
 50
0.0
 71
     0
 42
0.2
  3
isocpeur.ttf
  4

1001
ACAD
1000
ISOCPEUR
1071
      256
  0
STYLE
  5
D6
330
3
100
AcDbSymbolTableRecord
100
AcDbTextStyleTableRecord
  2
Label Text (ISO)
 70
     0
 40
0.0
 41
1.0
 50
0.0
 71
     0
 42
0.2
  3
TAHOMA.TTF
  4

1001
ACAD
1000
Tahoma
1071
      256
  0
STYLE
  5
D7
330
3
100
AcDbSymbolTableRecord
100
AcDbTextStyleTableRecord
  2
Label Text (JIS)
 70
     0
 40
0.0
 41
1.0
 50
0.0
 71
     0
 42
0.2
  3
TAHOMA.TTF
  4

1001
ACAD
1000
Tahoma
1071
      256
  0
STYLE
  5
D8
330
3
100
AcDbSymbolTableRecord
100
AcDbTextStyleTableRecord
  2
Note Text (ANSI)
 70
     0
 40
0.0
 41
1.0
 50
0.0
 71
     0
 42
0.2
  3
TAHOMA.TTF
  4

1001
ACAD
1000
Tahoma
1071
      256
  0
STYLE
  5
D9
330
3
100
AcDbSymbolTableRecord
100
AcDbTextStyleTableRecord
  2
Note Text (DIN)
 70
     0
 40
0.0
 41
1.0
 50
0.0
 71
     0
 42
0.2
  3
isocpeur.ttf
  4

1001
ACAD
1000
ISOCPEUR
1071
      256
  0
STYLE
  5
DA
330
3
100
AcDbSymbolTableRecord
100
AcDbTextStyleTableRecord
  2
Note Text (ISO)
 70
     0
 40
0.0
 41
1.0
 50
0.0
 71
     0
 42
0.2
  3
TAHOMA.TTF
  4

1001
ACAD
1000
Tahoma
1071
      256
  0
STYLE
  5
DB
330
3
100
AcDbSymbolTableRecord
100
AcDbTextStyleTableRecord
  2
Note Text (JIS)
 70
     0
 40
0.0
 41
1.0
 50
0.0
 71
     0
 42
0.2
  3
TAHOMA.TTF
  4

1001
ACAD
1000
Tahoma
1071
      256
  0
STYLE
  5
DC
330
3
100
AcDbSymbolTableRecord
100
AcDbTextStyleTableRecord
  2
Regular Text (GOST)
 70
     0
 40
0.0
 41
1.0
 50
0.0
 71
     0
 42
0.2
  3
GOST Common.ttf
  4

1001
ACAD
1000
GOST Common
1071
      256
  0
ENDTAB
  0
TABLE
  2
VIEW
  5
6
330
0
100
AcDbSymbolTable
 70
     0
  0
ENDTAB
  0
TABLE
  2
UCS
  5
7
330
0
100
AcDbSymbolTable
 70
     0
  0
ENDTAB
  0
TABLE
  2
APPID
  5
9
330
0
100
AcDbSymbolTable
 70
     3
  0
APPID
  5
5E
330
9
100
AcDbSymbolTableRecord
100
AcDbRegAppTableRecord
  2
ACAD
 70
     0
  0
APPID
  5
66
330
9
100
AcDbSymbolTableRecord
100
AcDbRegAppTableRecord
  2
AcadAnnotative
 70
     0
  0
APPID
  5
70
330
9
100
AcDbSymbolTableRecord
100
AcDbRegAppTableRecord
  2
ACAD_MLEADERVER
 70
     0
  0
ENDTAB
  0
TABLE
  2
DIMSTYLE
  5
A
330
0
100
AcDbSymbolTable
 70
    15
100
AcDbDimStyleTable
 71
     0
  0
DIMSTYLE
105
60
330
A
100
AcDbSymbolTableRecord
100
AcDbDimStyleTableRecord
  2
Standard
 70
     0
340
5D
  0
DIMSTYLE
105
61
330
A
100
AcDbSymbolTableRecord
100
AcDbDimStyleTableRecord
  2
Annotative
 70
     0
340
5D
1001
AcadAnnotative
1000
AnnotativeData
1002
{
1070
     1
1070
     1
1002
}
  0
DIMSTYLE
105
DD
330
A
100
AcDbSymbolTableRecord
100
AcDbDimStyleTableRecord
  2
Default - Method 1b (ISO)
 70
     0
 41
2.5
 42
0.0
 43
5.999999999999999
 44
3.174999999999999
 45
0.00000001
 46
10.0
 73
     0
 77
     1
 78
     8
 79
     2
140
3.5
143
0.03937
147
0.762
171
     3
172
     1
176
   256
177
   256
178
   256
179
     2
271
     2
272
     2
274
     3
278
    44
284
     8
286
     8
340
DA
371
    -1
372
    -1
  0
DIMSTYLE
105
DE
330
A
100
AcDbSymbolTableRecord
100
AcDbDimStyleTableRecord
  2
Default - Method 1b (ISO)$7
 70
     0
 41
2.5
 42
0.0
 43
5.999999999999999
 44
3.174999999999999
 45
0.00000001
 46
10.0
 73
     0
 77
     1
 78
     8
 79
     2
140
3.5
143
0.03937
147
0.762
171
     3
172
     1
176
   256
177
   256
178
   256
179
     2
271
     2
272
     2
274
     3
278
    44
284
     8
286
     8
340
DA
371
    -1
372
    -1
  0
DIMSTYLE
105
DF
330
A
100
AcDbSymbolTableRecord
100
AcDbDimStyleTableRecord
  2
Default - Method 2a (ISO)
 70
     0
 41
2.5
 42
0.0
 43
5.999999999999999
 44
3.174999999999999
 45
0.00000001
 46
10.0
 77
     1
 78
     8
 79
     2
140
3.5
143
0.03937
147
0.762
171
     3
172
     1
176
   256
177
   256
178
   256
179
     2
271
     2
272
     2
274
     3
278
    44
284
     8
286
     8
340
DA
371
    -1
372
    -1
  0
DIMSTYLE
105
E0
330
A
100
AcDbSymbolTableRecord
100
AcDbDimStyleTableRecord
  2
Default - Method 2a (ISO)$7
 70
     0
 41
2.5
 42
0.0
 43
5.999999999999999
 44
3.174999999999999
 45
0.00000001
 46
10.0
 77
     1
 78
     8
 79
     2
140
3.5
143
0.03937
147
0.762
171
     3
172
     1
176
   256
177
   256
178
   256
179
     2
271
     2
272
     2
274
     3
278
    44
284
     8
286
     8
340
DA
371
    -1
372
    -1
  0
DIMSTYLE
105
E1
330
A
100
AcDbSymbolTableRecord
100
AcDbDimStyleTableRecord
  2
Default - Method 2b (ISO)
 70
     0
 41
2.5
 42
0.0
 43
5.999999999999999
 44
3.174999999999999
 45
0.00000001
 46
10.0
 77
     1
 78
     8
 79
     2
140
3.5
143
0.03937
147
0.762
171
     3
172
     1
176
   256
177
   256
178
   256
179
     2
271
     2
272
     2
274
     3
278
    44
284
     8
286
     8
340
DA
371
    -1
372
    -1
  0
DIMSTYLE
105
E2
330
A
100
AcDbSymbolTableRecord
100
AcDbDimStyleTableRecord
  2
Default - Method 2b (ISO)$7
 70
     0
 41
2.5
 42
0.0
 43
5.999999999999999
 44
3.174999999999999
 45
0.00000001
 46
10.0
 77
     1
 78
     8
 79
     2
140
3.5
143
0.03937
147
0.762
171
     3
172
     1
176
   256
177
   256
178
   256
179
     2
271
     2
272
     2
274
     3
278
    44
284
     8
286
     8
340
DA
371
    -1
372
    -1
  0
DIMSTYLE
105
E3
330
A
100
AcDbSymbolTableRecord
100
AcDbDimStyleTableRecord
  2
Default - mm [in] (ISO)
 70
     0
  4
 in
 41
2.5
 42
0.0
 43
5.999999999999999
 44
3.174999999999999
 45
0.00000001
 46
10.0
 73
     0
 74
     0
 77
     1
 78
     8
 79
     2
140
3.5
143
0.03937
147
0.762
170
     1
171
     3
172
     1
176
   256
177
   256
178
   256
179
     3
271
     3
272
     2
274
     3
275
     1
278
    44
284
     8
285
     8
286
     8
340
DA
371
    -1
372
    -1
  0
DIMSTYLE
105
E4
330
A
100
AcDbSymbolTableRecord
100
AcDbDimStyleTableRecord
  2
Default - mm [in] (ISO)$7
 70
     0
  4
 in
 41
2.5
 42
0.0
 43
5.999999999999999
 44
3.174999999999999
 45
0.00000001
 46
10.0
 73
     0
 74
     0
 77
     1
 78
     8
 79
     2
140
3.5
143
0.03937
147
0.762
170
     1
171
     3
172
     1
176
   256
177
   256
178
   256
179
     3
271
     3
272
     2
274
     3
275
     1
278
    44
284
     8
285
     8
286
     8
340
DA
371
    -1
372
    -1
  0
DIMSTYLE
105
E5
330
A
100
AcDbSymbolTableRecord
100
AcDbDimStyleTableRecord
  2
Default (ISO)
 70
     0
 41
2.5
 42
0.0
 43
5.999999999999999
 44
3.174999999999999
 45
0.00000001
 46
10.0
 73
     0
 74
     0
 77
     1
140
3.5
143
0.03937
146
1.001485756465366
147
0.762
171
     3
172
     1
176
   256
177
   256
178
   256
179
     2
271
     2
272
     2
274
     3
278
    44
340
DA
371
    -1
372
    -1
  0
DIMSTYLE
105
E6
330
A
100
AcDbSymbolTableRecord
100
AcDbDimStyleTableRecord
  2
Default (ISO)$7
 70
     0
 41
2.5
 42
0.0
 43
5.999999999999999
 44
3.174999999999999
 45
0.00000001
 46
10.0
 73
     0
 74
     0
 77
     1
140
3.5
143
0.03937
146
1.001485756465366
147
0.762
171
     3
172
     1
176
   256
177
   256
178
   256
179
     2
271
     2
272
     2
274
     3
278
    44
340
DA
371
    -1
372
    -1
  0
DIMSTYLE
105
E7
330
A
100
AcDbSymbolTableRecord
100
AcDbDimStyleTableRecord
  2
Alternate (ISO)
 70
     0
 41
2.5
340
5D
342
E8
  0
DIMSTYLE
105
F9
330
A
100
AcDbSymbolTableRecord
100
AcDbDimStyleTableRecord
  2
Datum (ISO)
 70
     0
 41
2.5
340
5D
342
E8
  0
DIMSTYLE
105
108
330
A
100
AcDbSymbolTableRecord
100
AcDbDimStyleTableRecord
  2
Large (ISO)
 70
     0
 41
5.0
340
5D
342
E8
  0
ENDTAB
  0
TABLE
  2
BLOCK_RECORD
  5
1
330
0
100
AcDbSymbolTable
 70
     4
  0
BLOCK_RECORD
  5
75
330
1
100
AcDbSymbolTableRecord
100
AcDbBlockTableRecord
  2
*Model_Space
340
78
  0
BLOCK_RECORD
  5
71
330
1
100
AcDbSymbolTableRecord
100
AcDbBlockTableRecord
  2
*Paper_Space
340
74
  0
BLOCK_RECORD
  5
79
330
1
100
AcDbSymbolTableRecord
100
AcDbBlockTableRecord
  2
*Paper_Space0
340
7C
  0
BLOCK_RECORD
  5
E8
330
1
100
AcDbSymbolTableRecord
100
AcDbBlockTableRecord
  2
_Closed
340
0
  0
BLOCK_RECORD
  5
EF
330
1
100
AcDbSymbolTableRecord
100
AcDbBlockTableRecord
  2
DatumFilled45
340
0
  0
BLOCK_RECORD
  5
FA
330
1
100
AcDbSymbolTableRecord
100
AcDbBlockTableRecord
  2
Filled-1
340
0
  0
ENDTAB
  0
ENDSEC
  0
SECTION
  2
BLOCKS
  0
BLOCK
  5
76
330
75
100
AcDbEntity
  8
0
100
AcDbBlockBegin
  2
*Model_Space
 70
     0
 10
0.0
 20
0.0
 30
0.0
  3
*Model_Space
  1

  0
ENDBLK
  5
77
330
75
100
AcDbEntity
  8
0
100
AcDbBlockEnd
  0
BLOCK
  5
72
330
71
100
AcDbEntity
 67
     1
  8
0
100
AcDbBlockBegin
  2
*Paper_Space
 70
     0
 10
0.0
 20
0.0
 30
0.0
  3
*Paper_Space
  1

  0
ENDBLK
  5
73
330
71
100
AcDbEntity
 67
     1
  8
0
100
AcDbBlockEnd
  0
BLOCK
  5
7A
330
79
100
AcDbEntity
 67
     1
  8
0
100
AcDbBlockBegin
  2
*Paper_Space0
 70
     0
 10
0.0
 20
0.0
 30
0.0
  3
*Paper_Space0
  1

  0
ENDBLK
  5
7B
330
79
100
AcDbEntity
 67
     1
  8
0
100
AcDbBlockEnd
  0
BLOCK
  5
ED
330
E8
100
AcDbEntity
  8
0
100
AcDbBlockBegin
  2
_Closed
 70
     0
 10
0.0
 20
0.0
 30
0.0
  3
_Closed
  1

  0
LINE
  5
E9
330
E8
100
AcDbEntity
  8
0
  6
ByBlock
 62
     0
370
    -2
100
AcDbLine
 10
-1.0
 20
0.1666666666666666
 30
0.0
 11
0.0
 21
0.0
 31
0.0
  0
LINE
  5
EA
330
E8
100
AcDbEntity
  8
0
  6
ByBlock
 62
     0
370
    -2
100
AcDbLine
 10
0.0
 20
0.0
 30
0.0
 11
-1.0
 21
-0.1666666666666666
 31
0.0
  0
LINE
  5
EB
330
E8
100
AcDbEntity
  8
0
  6
ByBlock
 62
     0
370
    -2
100
AcDbLine
 10
-1.0
 20
0.1666666666666666
 30
0.0
 11
-1.0
 21
-0.1666666666666666
 31
0.0
  0
LINE
  5
EC
330
E8
100
AcDbEntity
  8
0
  6
ByBlock
 62
     0
370
    -2
100
AcDbLine
 10
0.0
 20
0.0
 30
0.0
 11
-1.0
 21
0.0
 31
0.0
  0
ENDBLK
  5
EE
330
E8
100
AcDbEntity
  8
0
100
AcDbBlockEnd
  0
BLOCK
  5
F0
330
EF
100
AcDbEntity
  8
0
100
AcDbBlockBegin
  2
DatumFilled45
 70
     0
 10
0.0
 20
0.0
 30
0.0
  3
DatumFilled45
  1

  0
POLYLINE
  5
F2
330
EF
100
AcDbEntity
  8
0
 62
     0
100
AcDb2dPolyline
 66
     1
 10
0.0
 20
0.0
 30
0.0
 70
   128
  0
VERTEX
  5
F3
330
F2
100
AcDbEntity
  8
0
 62
     0
100
AcDbVertex
100
AcDb2dVertex
 10
0.0
 20
1.0
 30
0.0
  0
VERTEX
  5
F4
330
F2
100
AcDbEntity
  8
0
 62
     0
100
AcDbVertex
100
AcDb2dVertex
 10
0.0
 20
-1.0
 30
0.0
  0
VERTEX
  5
F6
330
F2
100
AcDbEntity
  8
0
 62
     0
100
AcDbVertex
100
AcDb2dVertex
 10
-1.0
 20
0.0
 30
0.0
  0
VERTEX
  5
F7
330
F2
100
AcDbEntity
  8
0
 62
     0
100
AcDbVertex
100
AcDb2dVertex
 10
0.0
 20
1.0
 30
0.0
  0
SEQEND
  5
F5
330
F2
100
AcDbEntity
  8
0
 62
     0
  0
SOLID
  5
F8
330
EF
100
AcDbEntity
  8
0
 62
     0
100
AcDbTrace
 10
0.0
 20
1.0
 30
0.0
 11
0.0
 21
-1.0
 31
0.0
 12
-1.0
 22
0.0
 32
0.0
 13
0.0
 23
1.0
 33
0.0
  0
ENDBLK
  5
F1
330
EF
100
AcDbEntity
  8
0
100
AcDbBlockEnd
  0
BLOCK
  5
FB
330
FA
100
AcDbEntity
  8
0
100
AcDbBlockBegin
  2
Filled-1
 70
     0
 10
0.0
 20
0.0
 30
0.0
  3
Filled-1
  1

  0
LINE
  5
FD
330
FA
100
AcDbEntity
  8
0
 62
     0
100
AcDbLine
 10
-1.0
 20
0.0
 30
0.0
 11
0.0
 21
0.0
 31
0.0
  0
POLYLINE
  5
FE
330
FA
100
AcDbEntity
  8
0
 62
     0
100
AcDb2dPolyline
 66
     1
 10
0.0
 20
0.0
 30
0.0
 70
   128
  0
VERTEX
  5
FF
330
FE
100
AcDbEntity
  8
0
 62
     0
100
AcDbVertex
100
AcDb2dVertex
 10
-1.0
 20
-0.1
 30
0.0
  0
VERTEX
  5
100
330
FE
100
AcDbEntity
  8
0
 62
     0
100
AcDbVertex
100
AcDb2dVertex
 10
0.0
 20
0.0
 30
0.0
  0
VERTEX
  5
102
330
FE
100
AcDbEntity
  8
0
 62
     0
100
AcDbVertex
100
AcDb2dVertex
 10
-1.0
 20
0.1
 30
0.0
  0
VERTEX
  5
103
330
FE
100
AcDbEntity
  8
0
 62
     0
100
AcDbVertex
100
AcDb2dVertex
 10
-1.0
 20
-0.1
 30
0.0
  0
SEQEND
  5
101
330
FE
100
AcDbEntity
  8
0
 62
     0
  0
SOLID
  5
104
330
FA
100
AcDbEntity
  8
0
 62
     0
100
AcDbTrace
 10
-1.0
 20
-0.1
 30
0.0
 11
0.0
 21
0.0
 31
0.0
 12
-1.0
 22
0.1
 32
0.0
 13
-1.0
 23
-0.1
 33
0.0
  0
LINE
  5
105
330
FA
100
AcDbEntity
  8
0
 62
     0
100
AcDbLine
 10
-1.0
 20
-0.1
 30
0.0
 11
0.0
 21
0.0
 31
0.0
  0
LINE
  5
106
330
FA
100
AcDbEntity
  8
0
 62
     0
100
AcDbLine
 10
0.0
 20
0.0
 30
0.0
 11
-1.0
 21
0.1
 31
0.0
  0
LINE
  5
107
330
FA
100
AcDbEntity
  8
0
 62
     0
100
AcDbLine
 10
-1.0
 20
0.1
 30
0.0
 11
-1.0
 21
-0.1
 31
0.0
  0
ENDBLK
  5
FC
330
FA
100
AcDbEntity
  8
0
100
AcDbBlockEnd
  0
ENDSEC
  0
SECTION
  2
ENTITIES
  0
LINE
  5
109
330
75
100
AcDbEntity
  8
Hidden (ISO)
100
AcDbLine
 10
270.9557733264781
 20
195.3866385374153
 30
0.0
 11
270.9557733264781
 21
192.0866385374153
 31
0.0
  0
LINE
  5
10A
330
75
100
AcDbEntity
  8
Hidden (ISO)
100
AcDbLine
 10
270.9557733264781
 20
243.9866385374154
 30
0.0
 11
270.9557733264781
 21
240.6866385374154
 31
0.0
  0
LINE
  5
10B
330
75
100
AcDbEntity
  8
Hidden (ISO)
100
AcDbLine
 10
269.2172568457647
 20
195.3866385374153
 30
0.0
 11
270.9557733264781
 21
195.3866385374153
 31
0.0
  0
LINE
  5
10C
330
75
100
AcDbEntity
  8
Hidden (ISO)
100
AcDbLine
 10
269.2172568457646
 20
192.0866385374153
 30
0.0
 11
270.9557733264781
 21
192.0866385374153
 31
0.0
  0
LINE
  5
10D
330
75
100
AcDbEntity
  8
Hidden (ISO)
100
AcDbLine
 10
269.2172568457647
 20
243.9866385374154
 30
0.0
 11
270.9557733264781
 21
243.9866385374154
 31
0.0
  0
LINE
  5
10E
330
75
100
AcDbEntity
  8
Hidden (ISO)
100
AcDbLine
 10
269.2172568457646
 20
240.6866385374154
 30
0.0
 11
270.9557733264781
 21
240.6866385374154
 31
0.0
  0
LINE
  5
10F
330
75
100
AcDbEntity
  8
Visible (ISO)
100
AcDbLine
 10
269.2172568457647
 20
195.9866385374153
 30
0.0
 11
269.2172568457647
 21
191.4866385374152
 31
0.0
  0
LINE
  5
110
330
75
100
AcDbEntity
  8
Visible (ISO)
100
AcDbLine
 10
269.2172568457647
 20
240.0866385374154
 30
0.0
 11
269.2172568457647
 21
244.5866385374154
 31
0.0
  0
LINE
  5
111
330
75
100
AcDbEntity
  8
Visible (ISO)
100
AcDbLine
 10
314.9172568457646
 20
147.4366385374153
 30
0.0
 11
316.9172568457647
 21
145.4366385374154
 31
0.0
  0
LINE
  5
112
330
75
100
AcDbEntity
  8
Visible (ISO)
100
AcDbLine
 10
314.9172568457646
 20
155.9366385374153
 30
0.0
 11
314.9172568457646
 21
147.4366385374153
 31
0.0
  0
LINE
  5
113
330
75
100
AcDbEntity
  8
Visible (ISO)
100
AcDbLine
 10
316.9172568457647
 20
145.4366385374154
 30
0.0
 11
328.9172568457646
 21
145.4366385374154
 31
0.0
  0
LINE
  5
114
330
75
100
AcDbEntity
  8
Visible (ISO)
100
AcDbLine
 10
328.9172568457646
 20
145.4366385374154
 30
0.0
 11
330.9172568457646
 21
147.4366385374154
 31
0.0
  0
LINE
  5
115
330
75
100
AcDbEntity
  8
Visible (ISO)
100
AcDbLine
 10
330.9172568457646
 20
147.4366385374154
 30
0.0
 11
330.9172568457646
 21
288.4366385374153
 31
0.0
  0
LINE
  5
116
330
75
100
AcDbEntity
  8
Visible (ISO)
100
AcDbLine
 10
330.9172568457646
 20
288.4366385374153
 30
0.0
 11
328.9172568457646
 21
290.4366385374153
 31
0.0
  0
LINE
  5
117
330
75
100
AcDbEntity
  8
Visible (ISO)
100
AcDbLine
 10
328.9172568457646
 20
290.4366385374153
 30
0.0
 11
316.9172568457647
 21
290.4366385374154
 31
0.0
  0
LINE
  5
118
330
75
100
AcDbEntity
  8
Visible (ISO)
100
AcDbLine
 10
316.9172568457647
 20
290.4366385374154
 30
0.0
 11
314.9172568457646
 21
288.4366385374154
 31
0.0
  0
LINE
  5
119
330
75
100
AcDbEntity
  8
Visible (ISO)
100
AcDbLine
 10
314.9172568457646
 20
288.4366385374154
 30
0.0
 11
314.9172568457646
 21
279.9366385374154
 31
0.0
  0
LINE
  5
11A
330
75
100
AcDbEntity
  8
Visible (ISO)
100
AcDbLine
 10
314.9172568457646
 20
279.9366385374154
 30
0.0
 11
287.9172568457647
 21
279.9366385374154
 31
0.0
  0
LINE
  5
11B
330
75
100
AcDbEntity
  8
Visible (ISO)
100
AcDbLine
 10
287.9172568457647
 20
279.9366385374154
 30
0.0
 11
287.9172568457647
 21
288.4366385374154
 31
0.0
  0
LINE
  5
11C
330
75
100
AcDbEntity
  8
Visible (ISO)
100
AcDbLine
 10
287.9172568457647
 20
288.4366385374154
 30
0.0
 11
285.9172568457647
 21
290.4366385374153
 31
0.0
  0
LINE
  5
11D
330
75
100
AcDbEntity
  8
Visible (ISO)
100
AcDbLine
 10
285.9172568457647
 20
290.4366385374153
 30
0.0
 11
273.9172568457646
 21
290.4366385374154
 31
0.0
  0
LINE
  5
11E
330
75
100
AcDbEntity
  8
Visible (ISO)
100
AcDbLine
 10
273.9172568457646
 20
290.4366385374154
 30
0.0
 11
271.9172568457646
 21
288.4366385374154
 31
0.0
  0
LINE
  5
11F
330
75
100
AcDbEntity
  8
Visible (ISO)
100
AcDbLine
 10
271.9172568457646
 20
288.4366385374154
 30
0.0
 11
271.9172568457646
 21
275.4366385374154
 31
0.0
  0
LINE
  5
120
330
75
100
AcDbEntity
  8
Visible (ISO)
100
AcDbLine
 10
271.9172568457646
 20
275.4366385374154
 30
0.0
 11
268.4172568457646
 21
275.4366385374154
 31
0.0
  0
LINE
  5
121
330
75
100
AcDbEntity
  8
Visible (ISO)
100
AcDbLine
 10
268.4172568457646
 20
160.4366385374153
 30
0.0
 11
271.9172568457646
 21
160.4366385374153
 31
0.0
  0
LINE
  5
122
330
75
100
AcDbEntity
  8
Visible (ISO)
100
AcDbLine
 10
271.9172568457646
 20
160.4366385374153
 30
0.0
 11
271.9172568457646
 21
147.4366385374153
 31
0.0
  0
LINE
  5
123
330
75
100
AcDbEntity
  8
Visible (ISO)
100
AcDbLine
 10
271.9172568457646
 20
147.4366385374153
 30
0.0
 11
273.9172568457645
 21
145.4366385374154
 31
0.0
  0
LINE
  5
124
330
75
100
AcDbEntity
  8
Visible (ISO)
100
AcDbLine
 10
273.9172568457645
 20
145.4366385374154
 30
0.0
 11
285.9172568457645
 21
145.4366385374154
 31
0.0
  0
LINE
  5
125
330
75
100
AcDbEntity
  8
Visible (ISO)
100
AcDbLine
 10
285.9172568457645
 20
145.4366385374154
 30
0.0
 11
287.9172568457647
 21
147.4366385374153
 31
0.0
  0
LINE
  5
126
330
75
100
AcDbEntity
  8
Visible (ISO)
100
AcDbLine
 10
287.9172568457647
 20
147.4366385374153
 30
0.0
 11
287.9172568457647
 21
155.9366385374153
 31
0.0
  0
LINE
  5
127
330
75
100
AcDbEntity
  8
Visible (ISO)
100
AcDbLine
 10
287.9172568457647
 20
155.9366385374153
 30
0.0
 11
314.9172568457646
 21
155.9366385374153
 31
0.0
  0
CIRCLE
  5
128
330
75
100
AcDbEntity
  8
Visible (ISO)
100
AcDbCircle
 10
279.9172568457646
 20
150.6366385374153
 30
0.0
 40
2.600000000000004
  0
CIRCLE
  5
129
330
75
100
AcDbEntity
  8
Visible (ISO)
100
AcDbCircle
 10
279.9172568457646
 20
285.4366385374153
 30
0.0
 40
2.600000000000004
  0
CIRCLE
  5
12A
330
75
100
AcDbEntity
  8
Visible (ISO)
100
AcDbCircle
 10
322.9172568457646
 20
285.4366385374153
 30
0.0
 40
2.600000000000004
  0
CIRCLE
  5
12B
330
75
100
AcDbEntity
  8
Visible (ISO)
100
AcDbCircle
 10
322.9172568457646
 20
150.4366385374154
 30
0.0
 40
2.600000000000004
  0
LINE
  5
12C
330
75
100
AcDbEntity
  8
Visible (ISO)
100
AcDbLine
 10
278.9172568457646
 20
198.5666385374153
 30
0.0
 11
278.9172568457646
 21
200.3666385374153
 31
0.0
  0
LINE
  5
12D
330
75
100
AcDbEntity
  8
Visible (ISO)
100
AcDbLine
 10
278.9172568457646
 20
200.3666385374153
 30
0.0
 11
286.9172568457647
 21
200.3666385374153
 31
0.0
  0
LINE
  5
12E
330
75
100
AcDbEntity
  8
Visible (ISO)
100
AcDbLine
 10
286.9172568457647
 20
200.3666385374153
 30
0.0
 11
286.9172568457647
 21
198.5666385374153
 31
0.0
  0
LINE
  5
12F
330
75
100
AcDbEntity
  8
Visible (ISO)
100
AcDbLine
 10
286.9172568457647
 20
198.5666385374153
 30
0.0
 11
278.9172568457646
 21
198.5666385374153
 31
0.0
  0
LINE
  5
130
330
75
100
AcDbEntity
  8
Visible (ISO)
100
AcDbLine
 10
318.9172568457646
 20
198.5666385374153
 30
0.0
 11
318.9172568457646
 21
200.3666385374153
 31
0.0
  0
LINE
  5
131
330
75
100
AcDbEntity
  8
Visible (ISO)
100
AcDbLine
 10
318.9172568457646
 20
200.3666385374153
 30
0.0
 11
326.9172568457646
 21
200.3666385374153
 31
0.0
  0
LINE
  5
132
330
75
100
AcDbEntity
  8
Visible (ISO)
100
AcDbLine
 10
326.9172568457646
 20
200.3666385374153
 30
0.0
 11
326.9172568457646
 21
198.5666385374153
 31
0.0
  0
LINE
  5
133
330
75
100
AcDbEntity
  8
Visible (ISO)
100
AcDbLine
 10
326.9172568457646
 20
198.5666385374153
 30
0.0
 11
318.9172568457646
 21
198.5666385374153
 31
0.0
  0
CIRCLE
  5
134
330
75
100
AcDbEntity
  8
Visible (ISO)
100
AcDbCircle
 10
282.9172568457646
 20
242.3366385374153
 30
0.0
 40
1.349999999999997
  0
CIRCLE
  5
135
330
75
100
AcDbEntity
  8
Visible (ISO)
100
AcDbCircle
 10
282.9172568457646
 20
193.7366385374153
 30
0.0
 40
1.35
  0
CIRCLE
  5
136
330
75
100
AcDbEntity
  8
Visible (ISO)
100
AcDbCircle
 10
322.9172568457646
 20
242.3366385374153
 30
0.0
 40
1.349999999999997
  0
CIRCLE
  5
137
330
75
100
AcDbEntity
  8
Visible (ISO)
100
AcDbCircle
 10
322.9172568457646
 20
193.7366385374153
 30
0.0
 40
1.35
  0
CIRCLE
  5
138
330
75
100
AcDbEntity
  8
Visible (ISO)
100
AcDbCircle
 10
300.9172568457647
 20
213.3366385374154
 30
0.0
 40
2.25
  0
LINE
  5
139
330
75
100
AcDbEntity
  8
Visible (ISO)
100
AcDbLine
 10
298.7172568457646
 20
183.1366385374153
 30
0.0
 11
303.1172568457646
 21
183.1366385374153
 31
0.0
  0
LINE
  5
13A
330
75
100
AcDbEntity
  8
Visible (ISO)
100
AcDbLine
 10
298.7172568457646
 20
187.5366385374153
 30
0.0
 11
298.7172568457646
 21
183.1366385374153
 31
0.0
  0
LINE
  5
13B
330
75
100
AcDbEntity
  8
Visible (ISO)
100
AcDbLine
 10
303.1172568457646
 20
187.5366385374153
 30
0.0
 11
298.7172568457646
 21
187.5366385374153
 31
0.0
  0
LINE
  5
13C
330
75
100
AcDbEntity
  8
Visible (ISO)
100
AcDbLine
 10
303.1172568457646
 20
183.1366385374153
 30
0.0
 11
303.1172568457646
 21
187.5366385374153
 31
0.0
  0
LINE
  5
13D
330
75
100
AcDbEntity
  8
Visible (ISO)
100
AcDbLine
 10
296.7172568457646
 20
203.7366385374153
 30
0.0
 11
296.7172568457646
 21
198.3366385374153
 31
0.0
  0
LINE
  5
13E
330
75
100
AcDbEntity
  8
Visible (ISO)
100
AcDbLine
 10
305.1172568457646
 20
203.7366385374153
 30
0.0
 11
296.7172568457646
 21
203.7366385374153
 31
0.0
  0
LINE
  5
13F
330
75
100
AcDbEntity
  8
Visible (ISO)
100
AcDbLine
 10
305.1172568457646
 20
198.3366385374153
 30
0.0
 11
305.1172568457646
 21
203.7366385374153
 31
0.0
  0
LINE
  5
140
330
75
100
AcDbEntity
  8
Visible (ISO)
100
AcDbLine
 10
303.1172568457646
 20
196.3366385374153
 30
0.0
 11
305.1172568457646
 21
198.3366385374153
 31
0.0
  0
LINE
  5
141
330
75
100
AcDbEntity
  8
Visible (ISO)
100
AcDbLine
 10
303.1172568457646
 20
189.5366385374153
 30
0.0
 11
303.1172568457646
 21
196.3366385374153
 31
0.0
  0
LINE
  5
142
330
75
100
AcDbEntity
  8
Visible (ISO)
100
AcDbLine
 10
298.7172568457646
 20
189.5366385374153
 30
0.0
 11
303.1172568457646
 21
189.5366385374153
 31
0.0
  0
LINE
  5
143
330
75
100
AcDbEntity
  8
Visible (ISO)
100
AcDbLine
 10
298.7172568457646
 20
196.3366385374153
 30
0.0
 11
298.7172568457646
 21
189.5366385374153
 31
0.0
  0
LINE
  5
144
330
75
100
AcDbEntity
  8
Visible (ISO)
100
AcDbLine
 10
296.7172568457646
 20
198.3366385374153
 30
0.0
 11
298.7172568457646
 21
196.3366385374153
 31
0.0
  0
LINE
  5
145
330
75
100
AcDbEntity
  8
Visible (ISO)
100
AcDbLine
 10
296.7172568457646
 20
270.7366385374154
 30
0.0
 11
296.7172568457646
 21
265.3366385374154
 31
0.0
  0
LINE
  5
146
330
75
100
AcDbEntity
  8
Visible (ISO)
100
AcDbLine
 10
305.1172568457646
 20
270.7366385374154
 30
0.0
 11
296.7172568457646
 21
270.7366385374154
 31
0.0
  0
LINE
  5
147
330
75
100
AcDbEntity
  8
Visible (ISO)
100
AcDbLine
 10
305.1172568457646
 20
265.3366385374154
 30
0.0
 11
305.1172568457646
 21
270.7366385374154
 31
0.0
  0
LINE
  5
148
330
75
100
AcDbEntity
  8
Visible (ISO)
100
AcDbLine
 10
303.1172568457646
 20
263.3366385374154
 30
0.0
 11
305.1172568457646
 21
265.3366385374154
 31
0.0
  0
LINE
  5
149
330
75
100
AcDbEntity
  8
Visible (ISO)
100
AcDbLine
 10
303.1172568457646
 20
256.5366385374153
 30
0.0
 11
303.1172568457646
 21
263.3366385374154
 31
0.0
  0
LINE
  5
14A
330
75
100
AcDbEntity
  8
Visible (ISO)
100
AcDbLine
 10
298.7172568457647
 20
256.5366385374153
 30
0.0
 11
303.1172568457646
 21
256.5366385374153
 31
0.0
  0
LINE
  5
14B
330
75
100
AcDbEntity
  8
Visible (ISO)
100
AcDbLine
 10
298.7172568457647
 20
263.3366385374154
 30
0.0
 11
298.7172568457647
 21
256.5366385374153
 31
0.0
  0
LINE
  5
14C
330
75
100
AcDbEntity
  8
Visible (ISO)
100
AcDbLine
 10
296.7172568457646
 20
265.3366385374154
 30
0.0
 11
298.7172568457647
 21
263.3366385374154
 31
0.0
  0
LINE
  5
14D
330
75
100
AcDbEntity
  8
Visible (ISO)
100
AcDbLine
 10
268.4172568457646
 20
160.4366385374153
 30
0.0
 11
267.4172568457646
 21
160.4366385374153
 31
0.0
  0
LINE
  5
14E
330
75
100
AcDbEntity
  8
Visible (ISO)
100
AcDbLine
 10
268.4172568457646
 20
275.4366385374154
 30
0.0
 11
267.4172568457646
 21
275.4366385374154
 31
0.0
  0
LINE
  5
14F
330
75
100
AcDbEntity
  8
Visible (ISO)
100
AcDbLine
 10
265.9172568457645
 20
254.2971724433481
 30
0.0
 11
265.9172568457645
 21
181.7761046314826
 31
0.0
  0
LINE
  5
150
330
75
100
AcDbEntity
  8
Visible (ISO)
100
AcDbLine
 10
265.9172568457647
 20
254.2971724433481
 30
0.0
 11
265.9172568457644
 21
275.4366385374154
 31
0.0
  0
LINE
  5
151
330
75
100
AcDbEntity
  8
Visible (ISO)
100
AcDbLine
 10
265.9172568457644
 20
160.4366385374153
 30
0.0
 11
265.9172568457647
 21
181.7761046314826
 31
0.0
  0
LINE
  5
152
330
75
100
AcDbEntity
  8
Visible (ISO)
100
AcDbLine
 10
267.4172568457645
 20
251.7616385374155
 30
0.0
 11
267.4172568457645
 21
184.3116385374151
 31
0.0
  0
LINE
  5
153
330
75
100
AcDbEntity
  8
Visible (ISO)
100
AcDbLine
 10
267.4172568457645
 20
160.4366385374153
 30
0.0
 11
267.4172568457646
 21
181.7761046314826
 31
0.0
  0
LINE
  5
154
330
75
100
AcDbEntity
  8
Visible (ISO)
100
AcDbLine
 10
267.4172568457646
 20
254.2971724433481
 30
0.0
 11
267.4172568457645
 21
275.4366385374154
 31
0.0
  0
LINE
  5
155
330
75
100
AcDbEntity
  8
Visible (ISO)
100
AcDbLine
 10
267.4172568457645
 20
275.4366385374154
 30
0.0
 11
265.9172568457644
 21
275.4366385374154
 31
0.0
  0
LINE
  5
156
330
75
100
AcDbEntity
  8
Visible (ISO)
100
AcDbLine
 10
265.9172568457644
 20
160.4366385374153
 30
0.0
 11
267.4172568457645
 21
160.4366385374153
 31
0.0
  0
ARC
  5
157
330
75
100
AcDbEntity
  8
Visible (ISO)
100
AcDbCircle
 10
268.4172568457647
 20
181.7761046314825
 30
0.0
 40
2.500000000000062
100
AcDbArc
 50
134.9999999999994
 51
180.0
  0
ARC
  5
158
330
75
100
AcDbEntity
  8
Visible (ISO)
100
AcDbCircle
 10
268.4172568457646
 20
254.2971724433482
 30
0.0
 40
2.500000000000039
100
AcDbArc
 50
180.0
 51
225.0000000000011
  0
ARC
  5
159
330
75
100
AcDbEntity
  8
Visible (ISO)
100
AcDbCircle
 10
268.4172568457646
 20
181.7761046314825
 30
0.0
 40
1.000000000000019
100
AcDbArc
 50
134.9999999999986
 51
180.0
  0
LINE
  5
15A
330
75
100
AcDbEntity
  8
Visible (ISO)
100
AcDbLine
 10
271.185023798731
 20
185.958085146822
 30
0.0
 11
267.7101500645781
 21
182.4832114126691
 31
0.0
  0
ARC
  5
15B
330
75
100
AcDbEntity
  8
Visible (ISO)
100
AcDbCircle
 10
269.4172568457647
 20
187.7258520997884
 30
0.0
 40
2.499999999999964
100
AcDbArc
 50
315.0000000000006
 51
0.0
  0
LINE
  5
15C
330
75
100
AcDbEntity
  8
Visible (ISO)
100
AcDbLine
 10
271.9172568457647
 20
199.3116385374153
 30
0.0
 11
271.9172568457647
 21
187.7258520997884
 31
0.0
  0
LINE
  5
15D
330
75
100
AcDbEntity
  8
Visible (ISO)
100
AcDbLine
 10
270.4172568457646
 20
199.3116385374153
 30
0.0
 11
271.9172568457647
 21
199.3116385374153
 31
0.0
  0
LINE
  5
15E
330
75
100
AcDbEntity
  8
Visible (ISO)
100
AcDbLine
 10
270.4172568457646
 20
187.7258520997884
 30
0.0
 11
270.4172568457646
 21
199.3116385374153
 31
0.0
  0
ARC
  5
15F
330
75
100
AcDbEntity
  8
Visible (ISO)
100
AcDbCircle
 10
269.4172568457647
 20
187.7258520997883
 30
0.0
 40
0.9999999999999541
100
AcDbArc
 50
315.0
 51
0.0
  0
LINE
  5
160
330
75
100
AcDbEntity
  8
Visible (ISO)
100
AcDbLine
 10
266.6494898927983
 20
183.5438715844489
 30
0.0
 11
270.1243636269512
 21
187.0187453186018
 31
0.0
  0
LINE
  5
161
330
75
100
AcDbEntity
  8
Visible (ISO)
100
AcDbLine
 10
266.6494898927983
 20
252.5294054903817
 30
0.0
 11
270.1243636269512
 21
249.0545317562288
 31
0.0
  0
ARC
  5
162
330
75
100
AcDbEntity
  8
Visible (ISO)
100
AcDbCircle
 10
269.4172568457647
 20
248.3474249750424
 30
0.0
 40
0.9999999999999445
100
AcDbArc
 50
0.0
 51
45.0
  0
LINE
  5
163
330
75
100
AcDbEntity
  8
Visible (ISO)
100
AcDbLine
 10
270.4172568457646
 20
248.3474249750423
 30
0.0
 11
270.4172568457646
 21
236.7616385374154
 31
0.0
  0
LINE
  5
164
330
75
100
AcDbEntity
  8
Visible (ISO)
100
AcDbLine
 10
270.4172568457646
 20
236.7616385374154
 30
0.0
 11
271.9172568457647
 21
236.7616385374154
 31
0.0
  0
LINE
  5
165
330
75
100
AcDbEntity
  8
Visible (ISO)
100
AcDbLine
 10
271.9172568457647
 20
236.7616385374154
 30
0.0
 11
271.9172568457647
 21
248.3474249750423
 31
0.0
  0
ARC
  5
166
330
75
100
AcDbEntity
  8
Visible (ISO)
100
AcDbCircle
 10
269.4172568457647
 20
248.3474249750424
 30
0.0
 40
2.499999999999951
100
AcDbArc
 50
0.0
 51
44.99999999999944
  0
LINE
  5
167
330
75
100
AcDbEntity
  8
Visible (ISO)
100
AcDbLine
 10
271.185023798731
 20
250.1151919280087
 30
0.0
 11
267.7101500645781
 21
253.5900656621615
 31
0.0
  0
ARC
  5
168
330
75
100
AcDbEntity
  8
Visible (ISO)
100
AcDbCircle
 10
268.4172568457646
 20
254.2971724433481
 30
0.0
 40
1.000000000000013
100
AcDbArc
 50
180.0
 51
225.0000000000028
  0
LINE
  5
169
330
75
100
AcDbEntity
  8
Visible (ISO)
100
AcDbLine
 10
270.4172568457647
 20
191.4866385374153
 30
0.0
 11
269.2172568457647
 21
191.4866385374153
 31
0.0
  0
LINE
  5
16A
330
75
100
AcDbEntity
  8
Visible (ISO)
100
AcDbLine
 10
270.4172568457647
 20
195.9866385374153
 30
0.0
 11
269.2172568457647
 21
195.9866385374153
 31
0.0
  0
LINE
  5
16B
330
75
100
AcDbEntity
  8
Visible (ISO)
100
AcDbLine
 10
270.4172568457647
 20
240.0866385374154
 30
0.0
 11
269.2172568457647
 21
240.0866385374154
 31
0.0
  0
LINE
  5
16C
330
75
100
AcDbEntity
  8
Visible (ISO)
100
AcDbLine
 10
270.4172568457647
 20
244.5866385374154
 30
0.0
 11
269.2172568457647
 21
244.5866385374154
 31
0.0
  0
LINE
  5
16D
330
75
100
AcDbEntity
  8
Hidden (ISO)
100
AcDbLine
 10
267.4172568457645
 20
254.2971724433481
 30
0.0
 11
267.4172568457645
 21
251.7616385374155
 31
0.0
  0
LINE
  5
16E
330
75
100
AcDbEntity
  8
Hidden (ISO)
100
AcDbLine
 10
267.4172568457645
 20
184.3116385374151
 30
0.0
 11
267.4172568457645
 21
181.7761046314826
 31
0.0
  0
LINE
  5
16F
330
75
100
AcDbEntity
  8
Hidden (ISO)
100
AcDbLine
 10
267.4172568457645
 20
204.3116385374153
 30
0.0
 11
265.9172568457645
 21
204.3116385374153
 31
0.0
  0
LINE
  5
170
330
75
100
AcDbEntity
  8
Hidden (ISO)
100
AcDbLine
 10
267.4172568457645
 20
257.2616385374153
 30
0.0
 11
265.9172568457645
 21
257.2616385374153
 31
0.0
  0
LINE
  5
171
330
75
100
AcDbEntity
  8
Hidden (ISO)
100
AcDbLine
 10
267.4172568457645
 20
178.8116385374153
 30
0.0
 11
265.9172568457645
 21
178.8116385374153
 31
0.0
  0
LINE
  5
172
330
75
100
AcDbEntity
  8
Hidden (ISO)
100
AcDbLine
 10
267.4172568457646
 20
231.7616385374154
 30
0.0
 11
265.9172568457645
 21
231.7616385374154
 31
0.0
  0
ARC
  5
173
330
75
100
AcDbEntity
  8
Hidden (ISO)
100
AcDbCircle
 10
270.4172568457646
 20
239.2866385374154
 30
0.0
 40
1.5
100
AcDbArc
 50
0.0
 51
68.9605302186832
  0
ARC
  5
174
330
75
100
AcDbEntity
  8
Hidden (ISO)
100
AcDbCircle
 10
270.4172568457646
 20
245.3866385374154
 30
0.0
 40
1.5
100
AcDbArc
 50
291.0394697813168
 51
0.0
  0
ARC
  5
175
330
75
100
AcDbEntity
  8
Hidden (ISO)
100
AcDbCircle
 10
270.4172568457646
 20
196.7866385374153
 30
0.0
 40
1.5
100
AcDbArc
 50
291.039469781318
 51
0.0
  0
ARC
  5
176
330
75
100
AcDbEntity
  8
Hidden (ISO)
100
AcDbCircle
 10
270.4172568457646
 20
190.6866385374153
 30
0.0
 40
1.5
100
AcDbArc
 50
0.0
 51
68.9605302186832
  0
CIRCLE
  5
177
330
75
100
AcDbEntity
  8
Visible (ISO)
100
AcDbCircle
 10
394.8787771238522
 20
242.3366385374153
 30
0.0
 40
1.65
  0
CIRCLE
  5
178
330
75
100
AcDbEntity
  8
Visible (ISO)
100
AcDbCircle
 10
394.8787771238522
 20
193.7366385374152
 30
0.0
 40
1.65
  0
CIRCLE
  5
179
330
75
100
AcDbEntity
  8
Visible (ISO)
100
AcDbCircle
 10
424.3787771238521
 20
193.7366385374152
 30
0.0
 40
1.65
  0
CIRCLE
  5
17A
330
75
100
AcDbEntity
  8
Visible (ISO)
100
AcDbCircle
 10
424.3787771238521
 20
242.3366385374153
 30
0.0
 40
1.65
  0
CIRCLE
  5
17B
330
75
100
AcDbEntity
  8
Visible (ISO)
100
AcDbCircle
 10
394.8787771238522
 20
193.7366385374153
 30
0.0
 40
2.249999999999999
  0
CIRCLE
  5
17C
330
75
100
AcDbEntity
  8
Visible (ISO)
100
AcDbCircle
 10
424.3787771238521
 20
193.7366385374152
 30
0.0
 40
2.250000000000001
  0
CIRCLE
  5
17D
330
75
100
AcDbEntity
  8
Visible (ISO)
100
AcDbCircle
 10
394.8787771238522
 20
242.3366385374153
 30
0.0
 40
2.249999999999999
  0
CIRCLE
  5
17E
330
75
100
AcDbEntity
  8
Visible (ISO)
100
AcDbCircle
 10
424.3787771238521
 20
242.3366385374153
 30
0.0
 40
2.250000000000001
  0
LINE
  5
17F
330
75
100
AcDbEntity
  8
Visible (ISO)
100
AcDbLine
 10
384.1287771238536
 20
145.4366385374153
 30
0.0
 11
384.128777123853
 21
147.4366385374152
 31
0.0
  0
LINE
  5
180
330
75
100
AcDbEntity
  8
Visible (ISO)
100
AcDbLine
 10
384.128777123853
 20
160.4366385374152
 30
0.0
 11
384.128777123853
 21
147.4366385374152
 31
0.0
  0
LINE
  5
181
330
75
100
AcDbEntity
  8
Visible (ISO)
100
AcDbLine
 10
384.1287771238519
 20
160.4366385374152
 30
0.0
 11
384.1287771238519
 21
275.4366385374153
 31
0.0
  0
LINE
  5
182
330
75
100
AcDbEntity
  8
Visible (ISO)
100
AcDbLine
 10
384.128777123853
 20
288.4366385374153
 30
0.0
 11
384.128777123853
 21
275.4366385374153
 31
0.0
  0
LINE
  5
183
330
75
100
AcDbEntity
  8
Visible (ISO)
100
AcDbLine
 10
384.128777123853
 20
288.4366385374153
 30
0.0
 11
384.1287771238536
 21
290.4366385374153
 31
0.0
  0
LINE
  5
184
330
75
100
AcDbEntity
  8
Visible (ISO)
100
AcDbLine
 10
385.6287771238536
 20
290.4366385374153
 30
0.0
 11
385.628777123853
 21
288.4366385374153
 31
0.0
  0
LINE
  5
185
330
75
100
AcDbEntity
  8
Visible (ISO)
100
AcDbLine
 10
385.628777123853
 20
288.4366385374153
 30
0.0
 11
385.628777123853
 21
275.4366385374153
 31
0.0
  0
LINE
  5
186
330
75
100
AcDbEntity
  8
Visible (ISO)
100
AcDbLine
 10
385.628777123853
 20
160.4366385374152
 30
0.0
 11
385.628777123853
 21
147.4366385374152
 31
0.0
  0
LINE
  5
187
330
75
100
AcDbEntity
  8
Visible (ISO)
100
AcDbLine
 10
385.628777123853
 20
147.4366385374152
 30
0.0
 11
385.6287771238536
 21
145.4366385374153
 31
0.0
  0
LINE
  5
188
330
75
100
AcDbEntity
  8
Visible (ISO)
100
AcDbLine
 10
385.628777123853
 20
288.4366385374153
 30
0.0
 11
384.128777123853
 21
288.4366385374153
 31
0.0
  0
LINE
  5
189
330
75
100
AcDbEntity
  8
Visible (ISO)
100
AcDbLine
 10
384.1287771238536
 20
290.4366385374153
 30
0.0
 11
385.6287771238536
 21
290.4366385374153
 31
0.0
  0
LINE
  5
18A
330
75
100
AcDbEntity
  8
Visible (ISO)
100
AcDbLine
 10
386.6287771238512
 20
160.4366385374152
 30
0.0
 11
384.1287771238519
 21
160.4366385374152
 31
0.0
  0
LINE
  5
18B
330
75
100
AcDbEntity
  8
Visible (ISO)
100
AcDbLine
 10
386.6287771238512
 20
275.4366385374153
 30
0.0
 11
384.1287771238519
 21
275.4366385374153
 31
0.0
  0
LINE
  5
18C
330
75
100
AcDbEntity
  8
Visible (ISO)
100
AcDbLine
 10
384.128777123853
 20
147.4366385374152
 30
0.0
 11
385.628777123853
 21
147.4366385374152
 31
0.0
  0
LINE
  5
18D
330
75
100
AcDbEntity
  8
Visible (ISO)
100
AcDbLine
 10
385.6287771238536
 20
145.4366385374153
 30
0.0
 11
384.1287771238536
 21
145.4366385374153
 31
0.0
  0
LINE
  5
18E
330
75
100
AcDbEntity
  8
Visible (ISO)
100
AcDbLine
 10
418.6287771238512
 20
257.2616385374153
 30
0.0
 11
418.6287771238512
 21
178.8116385374153
 31
0.0
  0
LINE
  5
18F
330
75
100
AcDbEntity
  8
Visible (ISO)
100
AcDbLine
 10
420.6287771238511
 20
257.2616385374153
 30
0.0
 11
418.6287771238512
 21
257.2616385374153
 31
0.0
  0
LINE
  5
190
330
75
100
AcDbEntity
  8
Visible (ISO)
100
AcDbLine
 10
420.6287771238511
 20
257.2616385374153
 30
0.0
 11
420.6287771238511
 21
254.2971724433481
 31
0.0
  0
LINE
  5
191
330
75
100
AcDbEntity
  8
Visible (ISO)
100
AcDbLine
 10
428.1287771238511
 20
254.2971724433481
 30
0.0
 11
428.1287771238511
 21
275.4366385374153
 31
0.0
  0
LINE
  5
192
330
75
100
AcDbEntity
  8
Visible (ISO)
100
AcDbLine
 10
428.1287771238511
 20
275.4366385374153
 30
0.0
 11
386.6287771238512
 21
275.4366385374153
 31
0.0
  0
LINE
  5
193
330
75
100
AcDbEntity
  8
Visible (ISO)
100
AcDbLine
 10
428.1287771238511
 20
160.4366385374152
 30
0.0
 11
386.6287771238512
 21
160.4366385374152
 31
0.0
  0
LINE
  5
194
330
75
100
AcDbEntity
  8
Visible (ISO)
100
AcDbLine
 10
428.1287771238511
 20
160.4366385374152
 30
0.0
 11
428.1287771238511
 21
181.7761046314825
 31
0.0
  0
LINE
  5
195
330
75
100
AcDbEntity
  8
Visible (ISO)
100
AcDbLine
 10
420.6287771238511
 20
178.8116385374153
 30
0.0
 11
420.6287771238511
 21
181.7761046314825
 31
0.0
  0
LINE
  5
196
330
75
100
AcDbEntity
  8
Visible (ISO)
100
AcDbLine
 10
418.6287771238512
 20
178.8116385374153
 30
0.0
 11
420.6287771238511
 21
178.8116385374153
 31
0.0
  0
LINE
  5
197
330
75
100
AcDbEntity
  8
Visible (ISO)
100
AcDbLine
 10
389.1287771238512
 20
204.3116385374153
 30
0.0
 11
389.1287771238512
 21
178.8116385374153
 31
0.0
  0
LINE
  5
198
330
75
100
AcDbEntity
  8
Visible (ISO)
100
AcDbLine
 10
400.6287771238511
 20
204.3116385374153
 30
0.0
 11
389.1287771238512
 21
204.3116385374153
 31
0.0
  0
LINE
  5
199
330
75
100
AcDbEntity
  8
Visible (ISO)
100
AcDbLine
 10
400.6287771238511
 20
178.8116385374153
 30
0.0
 11
400.6287771238511
 21
204.3116385374153
 31
0.0
  0
LINE
  5
19A
330
75
100
AcDbEntity
  8
Visible (ISO)
100
AcDbLine
 10
398.6287771238512
 20
178.8116385374153
 30
0.0
 11
400.6287771238511
 21
178.8116385374153
 31
0.0
  0
LINE
  5
19B
330
75
100
AcDbEntity
  8
Visible (ISO)
100
AcDbLine
 10
398.6287771238512
 20
178.8116385374153
 30
0.0
 11
398.6287771238512
 21
181.7761046314825
 31
0.0
  0
LINE
  5
19C
330
75
100
AcDbEntity
  8
Visible (ISO)
100
AcDbLine
 10
391.1287771238512
 20
178.8116385374153
 30
0.0
 11
391.1287771238512
 21
181.7761046314825
 31
0.0
  0
LINE
  5
19D
330
75
100
AcDbEntity
  8
Visible (ISO)
100
AcDbLine
 10
389.1287771238512
 20
178.8116385374153
 30
0.0
 11
391.1287771238512
 21
178.8116385374153
 31
0.0
  0
LINE
  5
19E
330
75
100
AcDbEntity
  8
Visible (ISO)
100
AcDbLine
 10
389.1287771238512
 20
257.2616385374153
 30
0.0
 11
389.1287771238512
 21
231.7616385374153
 31
0.0
  0
LINE
  5
19F
330
75
100
AcDbEntity
  8
Visible (ISO)
100
AcDbLine
 10
391.1287771238512
 20
257.2616385374153
 30
0.0
 11
389.1287771238512
 21
257.2616385374153
 31
0.0
  0
LINE
  5
1A0
330
75
100
AcDbEntity
  8
Visible (ISO)
100
AcDbLine
 10
391.1287771238512
 20
257.2616385374153
 30
0.0
 11
391.1287771238512
 21
254.2971724433481
 31
0.0
  0
LINE
  5
1A1
330
75
100
AcDbEntity
  8
Visible (ISO)
100
AcDbLine
 10
398.6287771238512
 20
257.2616385374153
 30
0.0
 11
398.6287771238512
 21
254.2971724433481
 31
0.0
  0
LINE
  5
1A2
330
75
100
AcDbEntity
  8
Visible (ISO)
100
AcDbLine
 10
400.6287771238511
 20
257.2616385374153
 30
0.0
 11
398.6287771238512
 21
257.2616385374153
 31
0.0
  0
LINE
  5
1A3
330
75
100
AcDbEntity
  8
Visible (ISO)
100
AcDbLine
 10
400.6287771238511
 20
231.7616385374153
 30
0.0
 11
400.6287771238511
 21
257.2616385374153
 31
0.0
  0
LINE
  5
1A4
330
75
100
AcDbEntity
  8
Visible (ISO)
100
AcDbLine
 10
389.1287771238512
 20
231.7616385374153
 30
0.0
 11
400.6287771238511
 21
231.7616385374153
 31
0.0
  0
LINE
  5
1A5
330
75
100
AcDbEntity
  8
Visible (ISO)
100
AcDbLine
 10
428.1287771238514
 20
183.5438715844489
 30
0.0
 11
428.1287771238512
 21
181.7761046314825
 31
0.0
  0
LINE
  5
1A6
330
75
100
AcDbEntity
  8
Visible (ISO)
100
AcDbLine
 10
420.6287771238514
 20
183.5438715844489
 30
0.0
 11
420.6287771238512
 21
181.7761046314825
 31
0.0
  0
LINE
  5
1A7
330
75
100
AcDbEntity
  8
Visible (ISO)
100
AcDbLine
 10
398.6287771238514
 20
183.5438715844489
 30
0.0
 11
398.6287771238512
 21
181.7761046314825
 31
0.0
  0
LINE
  5
1A8
330
75
100
AcDbEntity
  8
Visible (ISO)
100
AcDbLine
 10
391.1287771238514
 20
183.5438715844489
 30
0.0
 11
391.1287771238512
 21
181.7761046314825
 31
0.0
  0
LINE
  5
1A9
330
75
100
AcDbEntity
  8
Visible (ISO)
100
AcDbLine
 10
428.1287771238514
 20
252.5294054903817
 30
0.0
 11
428.1287771238512
 21
254.2971724433481
 31
0.0
  0
LINE
  5
1AA
330
75
100
AcDbEntity
  8
Visible (ISO)
100
AcDbLine
 10
420.6287771238514
 20
252.5294054903817
 30
0.0
 11
420.6287771238512
 21
254.2971724433481
 31
0.0
  0
LINE
  5
1AB
330
75
100
AcDbEntity
  8
Visible (ISO)
100
AcDbLine
 10
420.6287771238526
 20
248.3474249750423
 30
0.0
 11
420.6287771238526
 21
236.7616385374154
 31
0.0
  0
LINE
  5
1AC
330
75
100
AcDbEntity
  8
Visible (ISO)
100
AcDbLine
 10
420.6287771238524
 20
249.0545317562288
 30
0.0
 11
420.6287771238525
 21
248.3474249750422
 31
0.0
  0
LINE
  5
1AD
330
75
100
AcDbEntity
  8
Visible (ISO)
100
AcDbLine
 10
420.6287771238513
 20
252.5294054903817
 30
0.0
 11
420.6287771238524
 21
249.0545317562288
 31
0.0
  0
LINE
  5
1AE
330
75
100
AcDbEntity
  8
Visible (ISO)
100
AcDbLine
 10
391.1287771238514
 20
183.5438715844489
 30
0.0
 11
391.1287771238525
 21
187.0187453186018
 31
0.0
  0
LINE
  5
1AF
330
75
100
AcDbEntity
  8
Visible (ISO)
100
AcDbLine
 10
391.1287771238525
 20
187.0187453186018
 30
0.0
 11
391.1287771238526
 21
187.7258520997884
 31
0.0
  0
LINE
  5
1B0
330
75
100
AcDbEntity
  8
Visible (ISO)
100
AcDbLine
 10
391.1287771238526
 20
187.7258520997884
 30
0.0
 11
391.1287771238526
 21
199.3116385374152
 31
0.0
  0
LINE
  5
1B1
330
75
100
AcDbEntity
  8
Visible (ISO)
100
AcDbLine
 10
428.1287771238525
 20
187.7258520997884
 30
0.0
 11
428.1287771238526
 21
199.3116385374152
 31
0.0
  0
LINE
  5
1B2
330
75
100
AcDbEntity
  8
Visible (ISO)
100
AcDbLine
 10
428.1287771238524
 20
187.0187453186017
 30
0.0
 11
428.1287771238525
 21
187.7258520997884
 31
0.0
  0
LINE
  5
1B3
330
75
100
AcDbEntity
  8
Visible (ISO)
100
AcDbLine
 10
428.1287771238514
 20
183.5438715844489
 30
0.0
 11
428.1287771238524
 21
187.0187453186018
 31
0.0
  0
LINE
  5
1B4
330
75
100
AcDbEntity
  8
Visible (ISO)
100
AcDbLine
 10
398.6287771238526
 20
187.7258520997884
 30
0.0
 11
398.6287771238526
 21
199.3116385374152
 31
0.0
  0
LINE
  5
1B5
330
75
100
AcDbEntity
  8
Visible (ISO)
100
AcDbLine
 10
398.6287771238525
 20
187.0187453186018
 30
0.0
 11
398.6287771238526
 21
187.7258520997884
 31
0.0
  0
LINE
  5
1B6
330
75
100
AcDbEntity
  8
Visible (ISO)
100
AcDbLine
 10
398.6287771238514
 20
183.5438715844489
 30
0.0
 11
398.6287771238525
 21
187.0187453186018
 31
0.0
  0
LINE
  5
1B7
330
75
100
AcDbEntity
  8
Visible (ISO)
100
AcDbLine
 10
398.6287771238514
 20
252.5294054903817
 30
0.0
 11
398.6287771238512
 21
254.2971724433481
 31
0.0
  0
LINE
  5
1B8
330
75
100
AcDbEntity
  8
Visible (ISO)
100
AcDbLine
 10
391.1287771238514
 20
252.5294054903817
 30
0.0
 11
391.1287771238512
 21
254.2971724433481
 31
0.0
  0
LINE
  5
1B9
330
75
100
AcDbEntity
  8
Visible (ISO)
100
AcDbLine
 10
420.6287771238513
 20
183.5438715844489
 30
0.0
 11
420.6287771238524
 21
187.0187453186018
 31
0.0
  0
LINE
  5
1BA
330
75
100
AcDbEntity
  8
Visible (ISO)
100
AcDbLine
 10
420.6287771238524
 20
187.0187453186017
 30
0.0
 11
420.6287771238525
 21
187.7258520997884
 31
0.0
  0
LINE
  5
1BB
330
75
100
AcDbEntity
  8
Visible (ISO)
100
AcDbLine
 10
420.6287771238526
 20
187.7258520997884
 30
0.0
 11
420.6287771238526
 21
199.3116385374152
 31
0.0
  0
LINE
  5
1BC
330
75
100
AcDbEntity
  8
Visible (ISO)
100
AcDbLine
 10
428.1287771238514
 20
252.5294054903817
 30
0.0
 11
428.1287771238524
 21
249.0545317562288
 31
0.0
  0
LINE
  5
1BD
330
75
100
AcDbEntity
  8
Visible (ISO)
100
AcDbLine
 10
428.1287771238524
 20
249.0545317562288
 30
0.0
 11
428.1287771238525
 21
248.3474249750422
 31
0.0
  0
LINE
  5
1BE
330
75
100
AcDbEntity
  8
Visible (ISO)
100
AcDbLine
 10
428.1287771238525
 20
248.3474249750423
 30
0.0
 11
428.1287771238526
 21
236.7616385374154
 31
0.0
  0
LINE
  5
1BF
330
75
100
AcDbEntity
  8
Visible (ISO)
100
AcDbLine
 10
398.6287771238514
 20
252.5294054903817
 30
0.0
 11
398.6287771238525
 21
249.0545317562288
 31
0.0
  0
LINE
  5
1C0
330
75
100
AcDbEntity
  8
Visible (ISO)
100
AcDbLine
 10
398.6287771238525
 20
249.0545317562288
 30
0.0
 11
398.6287771238526
 21
248.3474249750423
 31
0.0
  0
LINE
  5
1C1
330
75
100
AcDbEntity
  8
Visible (ISO)
100
AcDbLine
 10
398.6287771238526
 20
248.3474249750423
 30
0.0
 11
398.6287771238526
 21
236.7616385374154
 31
0.0
  0
LINE
  5
1C2
330
75
100
AcDbEntity
  8
Visible (ISO)
100
AcDbLine
 10
391.1287771238526
 20
248.3474249750423
 30
0.0
 11
391.1287771238526
 21
236.7616385374154
 31
0.0
  0
LINE
  5
1C3
330
75
100
AcDbEntity
  8
Visible (ISO)
100
AcDbLine
 10
391.1287771238525
 20
249.0545317562288
 30
0.0
 11
391.1287771238526
 21
248.3474249750423
 31
0.0
  0
LINE
  5
1C4
330
75
100
AcDbEntity
  8
Visible (ISO)
100
AcDbLine
 10
391.1287771238514
 20
252.5294054903817
 30
0.0
 11
391.1287771238525
 21
249.0545317562288
 31
0.0
  0
LINE
  5
1C5
330
75
100
AcDbEntity
  8
Visible (ISO)
100
AcDbLine
 10
420.6287771238526
 20
236.7616385374154
 30
0.0
 11
428.1287771238526
 21
236.7616385374154
 31
0.0
  0
LINE
  5
1C6
330
75
100
AcDbEntity
  8
Visible (ISO)
100
AcDbLine
 10
391.1287771238526
 20
199.3116385374152
 30
0.0
 11
398.6287771238526
 21
199.3116385374152
 31
0.0
  0
LINE
  5
1C7
330
75
100
AcDbEntity
  8
Visible (ISO)
100
AcDbLine
 10
420.6287771238526
 20
199.3116385374152
 30
0.0
 11
428.1287771238526
 21
199.3116385374152
 31
0.0
  0
LINE
  5
1C8
330
75
100
AcDbEntity
  8
Visible (ISO)
100
AcDbLine
 10
391.1287771238526
 20
236.7616385374154
 30
0.0
 11
398.6287771238526
 21
236.7616385374154
 31
0.0
  0
LINE
  5
1C9
330
75
100
AcDbEntity
  8
Hidden (ISO)
100
AcDbLine
 10
385.6287771238519
 20
160.4366385374152
 30
0.0
 11
385.6287771238519
 21
275.4366385374153
 31
0.0
  0
LINE
  5
1CA
330
75
100
AcDbEntity
  8
Hidden (ISO)
100
AcDbLine
 10
385.6287771238609
 20
256.5366385374153
 30
0.0
 11
384.1287771238609
 21
256.5366385374153
 31
0.0
  0
LINE
  5
1CB
330
75
100
AcDbEntity
  8
Hidden (ISO)
100
AcDbLine
 10
385.6287771238609
 20
263.3366385374154
 30
0.0
 11
384.1287771238609
 21
263.3366385374154
 31
0.0
  0
LINE
  5
1CC
330
75
100
AcDbEntity
  8
Hidden (ISO)
100
AcDbLine
 10
385.6287771238577
 20
279.9366385374153
 30
0.0
 11
384.1287771238577
 21
279.9366385374153
 31
0.0
  0
LINE
  5
1CD
330
75
100
AcDbEntity
  8
Hidden (ISO)
100
AcDbLine
 10
385.6287771238609
 20
187.5366385374153
 30
0.0
 11
384.1287771238609
 21
187.5366385374153
 31
0.0
  0
LINE
  5
1CE
330
75
100
AcDbEntity
  8
Hidden (ISO)
100
AcDbLine
 10
385.6287771238551
 20
198.5666385374153
 30
0.0
 11
384.1287771238551
 21
198.5666385374153
 31
0.0
  0
LINE
  5
1CF
330
75
100
AcDbEntity
  8
Hidden (ISO)
100
AcDbLine
 10
385.6287771238551
 20
200.3666385374153
 30
0.0
 11
384.1287771238551
 21
200.3666385374153
 31
0.0
  0
LINE
  5
1D0
330
75
100
AcDbEntity
  8
Hidden (ISO)
100
AcDbLine
 10
385.6287771238577
 20
155.9366385374153
 30
0.0
 11
384.1287771238577
 21
155.9366385374153
 31
0.0
  0
LINE
  5
1D1
330
75
100
AcDbEntity
  8
Hidden (ISO)
100
AcDbLine
 10
385.6287771238604
 20
265.3366385374153
 30
0.0
 11
384.1287771238603
 21
265.3366385374153
 31
0.0
  0
LINE
  5
1D2
330
75
100
AcDbEntity
  8
Hidden (ISO)
100
AcDbLine
 10
385.6287771238604
 20
270.7366385374153
 30
0.0
 11
384.1287771238603
 21
270.7366385374153
 31
0.0
  0
LINE
  5
1D3
330
75
100
AcDbEntity
  8
Hidden (ISO)
100
AcDbLine
 10
385.6287771238604
 20
203.7366385374153
 30
0.0
 11
384.1287771238603
 21
203.7366385374153
 31
0.0
  0
LINE
  5
1D4
330
75
100
AcDbEntity
  8
Hidden (ISO)
100
AcDbLine
 10
385.6287771238604
 20
198.3366385374153
 30
0.0
 11
384.1287771238603
 21
198.3366385374153
 31
0.0
  0
LINE
  5
1D5
330
75
100
AcDbEntity
  8
Hidden (ISO)
100
AcDbLine
 10
385.6287771238609
 20
189.5366385374153
 30
0.0
 11
384.1287771238609
 21
189.5366385374153
 31
0.0
  0
LINE
  5
1D6
330
75
100
AcDbEntity
  8
Hidden (ISO)
100
AcDbLine
 10
385.6287771238609
 20
196.3366385374153
 30
0.0
 11
384.1287771238609
 21
196.3366385374153
 31
0.0
  0
LINE
  5
1D7
330
75
100
AcDbEntity
  8
Hidden (ISO)
100
AcDbLine
 10
385.6287771238609
 20
183.1366385374153
 30
0.0
 11
384.1287771238609
 21
183.1366385374153
 31
0.0
  0
LINE
  5
1D8
330
75
100
AcDbEntity
  8
Hidden (ISO)
100
AcDbLine
 10
385.6287771238681
 20
147.8366385374153
 30
0.0
 11
384.1287771238681
 21
147.8366385374153
 31
0.0
  0
LINE
  5
1D9
330
75
100
AcDbEntity
  8
Hidden (ISO)
100
AcDbLine
 10
385.6287771238681
 20
153.0366385374153
 30
0.0
 11
384.1287771238681
 21
153.0366385374153
 31
0.0
  0
LINE
  5
1DA
330
75
100
AcDbEntity
  8
Hidden (ISO)
100
AcDbLine
 10
385.6287771238562
 20
192.3866385374153
 30
0.0
 11
384.1287771238563
 21
192.3866385374153
 31
0.0
  0
LINE
  5
1DB
330
75
100
AcDbEntity
  8
Hidden (ISO)
100
AcDbLine
 10
385.6287771238562
 20
195.0866385374153
 30
0.0
 11
384.1287771238563
 21
195.0866385374153
 31
0.0
  0
LINE
  5
1DC
330
75
100
AcDbEntity
  8
Hidden (ISO)
100
AcDbLine
 10
385.6287771238553
 20
282.8366385374153
 30
0.0
 11
384.1287771238553
 21
282.8366385374153
 31
0.0
  0
LINE
  5
1DD
330
75
100
AcDbEntity
  8
Hidden (ISO)
100
AcDbLine
 10
385.6287771238553
 20
288.0366385374153
 30
0.0
 11
384.1287771238553
 21
288.0366385374153
 31
0.0
  0
LINE
  5
1DE
330
75
100
AcDbEntity
  8
Hidden (ISO)
100
AcDbLine
 10
385.6287771238562
 20
240.9866385374153
 30
0.0
 11
384.1287771238563
 21
240.9866385374153
 31
0.0
  0
LINE
  5
1DF
330
75
100
AcDbEntity
  8
Hidden (ISO)
100
AcDbLine
 10
385.6287771238562
 20
243.6866385374153
 30
0.0
 11
384.1287771238563
 21
243.6866385374153
 31
0.0
  0
LINE
  5
1E0
330
75
100
AcDbEntity
  8
Hidden (ISO)
100
AcDbLine
 10
385.6287771238616
 20
211.0866385374153
 30
0.0
 11
384.1287771238615
 21
211.0866385374153
 31
0.0
  0
LINE
  5
1E1
330
75
100
AcDbEntity
  8
Hidden (ISO)
100
AcDbLine
 10
385.6287771238616
 20
215.5866385374153
 30
0.0
 11
384.1287771238615
 21
215.5866385374153
 31
0.0
  0
LINE
  5
1E2
330
75
100
AcDbEntity
  8
Hidden (ISO)
100
AcDbLine
 10
385.6287771238553
 20
148.0366385374153
 30
0.0
 11
384.1287771238553
 21
148.0366385374153
 31
0.0
  0
LINE
  5
1E3
330
75
100
AcDbEntity
  8
Hidden (ISO)
100
AcDbLine
 10
385.6287771238553
 20
153.2366385374153
 30
0.0
 11
384.1287771238553
 21
153.2366385374153
 31
0.0
  0
CIRCLE
  5
1E4
330
75
100
AcDbEntity
  8
Visible (ISO)
100
AcDbCircle
 10
203.0895420442714
 20
242.3366385374152
 30
0.0
 40
1.65
  0
CIRCLE
  5
1E5
330
75
100
AcDbEntity
  8
Visible (ISO)
100
AcDbCircle
 10
203.0895420442714
 20
193.7366385374152
 30
0.0
 40
1.65
  0
CIRCLE
  5
1E6
330
75
100
AcDbEntity
  8
Visible (ISO)
100
AcDbCircle
 10
173.5895420442713
 20
193.7366385374152
 30
0.0
 40
1.65
  0
CIRCLE
  5
1E7
330
75
100
AcDbEntity
  8
Visible (ISO)
100
AcDbCircle
 10
173.5895420442713
 20
242.3366385374152
 30
0.0
 40
1.65
  0
CIRCLE
  5
1E8
330
75
100
AcDbEntity
  8
Hidden (ISO)
100
AcDbCircle
 10
203.0895420442712
 20
193.7366385374152
 30
0.0
 40
2.249999999999999
  0
CIRCLE
  5
1E9
330
75
100
AcDbEntity
  8
Hidden (ISO)
100
AcDbCircle
 10
173.5895420442712
 20
193.7366385374152
 30
0.0
 40
2.249999999999995
  0
CIRCLE
  5
1EA
330
75
100
AcDbEntity
  8
Hidden (ISO)
100
AcDbCircle
 10
203.0895420442712
 20
242.3366385374152
 30
0.0
 40
2.249999999999999
  0
CIRCLE
  5
1EB
330
75
100
AcDbEntity
  8
Hidden (ISO)
100
AcDbCircle
 10
173.5895420442712
 20
242.3366385374152
 30
0.0
 40
2.249999999999995
  0
LINE
  5
1EC
330
75
100
AcDbEntity
  8
Hidden (ISO)
100
AcDbLine
 10
212.3395420442844
 20
155.9366385374152
 30
0.0
 11
213.8395420442844
 21
155.9366385374152
 31
0.0
  0
LINE
  5
1ED
330
75
100
AcDbEntity
  8
Hidden (ISO)
100
AcDbLine
 10
212.3395420442844
 20
279.9366385374153
 30
0.0
 11
213.8395420442844
 21
279.9366385374153
 31
0.0
  0
LINE
  5
1EE
330
75
100
AcDbEntity
  8
Hidden (ISO)
100
AcDbLine
 10
212.3395420442809
 20
256.5366385374152
 30
0.0
 11
213.8395420442809
 21
256.5366385374152
 31
0.0
  0
LINE
  5
1EF
330
75
100
AcDbEntity
  8
Hidden (ISO)
100
AcDbLine
 10
212.3395420442809
 20
187.5366385374152
 30
0.0
 11
213.8395420442809
 21
187.5366385374152
 31
0.0
  0
LINE
  5
1F0
330
75
100
AcDbEntity
  8
Hidden (ISO)
100
AcDbLine
 10
212.3395420442809
 20
183.1366385374152
 30
0.0
 11
213.8395420442809
 21
183.1366385374152
 31
0.0
  0
LINE
  5
1F1
330
75
100
AcDbEntity
  8
Hidden (ISO)
100
AcDbLine
 10
212.339542044288
 20
198.5666385374152
 30
0.0
 11
213.839542044288
 21
198.5666385374152
 31
0.0
  0
LINE
  5
1F2
330
75
100
AcDbEntity
  8
Hidden (ISO)
100
AcDbLine
 10
213.8395420442717
 20
275.4366385374153
 30
0.0
 11
212.3395420442717
 21
275.4366385374153
 31
0.0
  0
LINE
  5
1F3
330
75
100
AcDbEntity
  8
Hidden (ISO)
100
AcDbLine
 10
212.3395420442717
 20
160.4366385374152
 30
0.0
 11
213.8395420442717
 21
160.4366385374152
 31
0.0
  0
LINE
  5
1F4
330
75
100
AcDbEntity
  8
Hidden (ISO)
100
AcDbLine
 10
212.3395420442815
 20
203.7366385374153
 30
0.0
 11
213.8395420442815
 21
203.7366385374153
 31
0.0
  0
LINE
  5
1F5
330
75
100
AcDbEntity
  8
Hidden (ISO)
100
AcDbLine
 10
212.3395420442815
 20
270.7366385374153
 30
0.0
 11
213.8395420442815
 21
270.7366385374153
 31
0.0
  0
LINE
  5
1F6
330
75
100
AcDbEntity
  8
Hidden (ISO)
100
AcDbLine
 10
212.3395420442815
 20
198.3366385374152
 30
0.0
 11
213.8395420442815
 21
198.3366385374152
 31
0.0
  0
LINE
  5
1F7
330
75
100
AcDbEntity
  8
Hidden (ISO)
100
AcDbLine
 10
212.339542044288
 20
200.3666385374152
 30
0.0
 11
213.839542044288
 21
200.3666385374152
 31
0.0
  0
LINE
  5
1F8
330
75
100
AcDbEntity
  8
Hidden (ISO)
100
AcDbLine
 10
212.3395420442815
 20
265.3366385374152
 30
0.0
 11
213.8395420442815
 21
265.3366385374152
 31
0.0
  0
LINE
  5
1F9
330
75
100
AcDbEntity
  8
Hidden (ISO)
100
AcDbLine
 10
212.3395420442809
 20
263.3366385374153
 30
0.0
 11
213.8395420442809
 21
263.3366385374153
 31
0.0
  0
LINE
  5
1FA
330
75
100
AcDbEntity
  8
Hidden (ISO)
100
AcDbLine
 10
212.3395420442809
 20
196.3366385374152
 30
0.0
 11
213.8395420442809
 21
196.3366385374152
 31
0.0
  0
LINE
  5
1FB
330
75
100
AcDbEntity
  8
Hidden (ISO)
100
AcDbLine
 10
212.3395420442809
 20
189.5366385374152
 30
0.0
 11
213.8395420442809
 21
189.5366385374152
 31
0.0
  0
LINE
  5
1FC
330
75
100
AcDbEntity
  8
Hidden (ISO)
100
AcDbLine
 10
212.3395420442867
 20
288.0366385374152
 30
0.0
 11
213.8395420442868
 21
288.0366385374152
 31
0.0
  0
LINE
  5
1FD
330
75
100
AcDbEntity
  8
Hidden (ISO)
100
AcDbLine
 10
212.3395420442867
 20
282.8366385374152
 30
0.0
 11
213.8395420442868
 21
282.8366385374152
 31
0.0
  0
LINE
  5
1FE
330
75
100
AcDbEntity
  8
Hidden (ISO)
100
AcDbLine
 10
212.3395420442867
 20
153.0366385374153
 30
0.0
 11
213.8395420442868
 21
153.0366385374153
 31
0.0
  0
LINE
  5
1FF
330
75
100
AcDbEntity
  8
Hidden (ISO)
100
AcDbLine
 10
212.3395420442867
 20
147.8366385374152
 30
0.0
 11
213.8395420442868
 21
147.8366385374152
 31
0.0
  0
LINE
  5
200
330
75
100
AcDbEntity
  8
Hidden (ISO)
100
AcDbLine
 10
212.3395420442867
 20
243.6866385374152
 30
0.0
 11
213.8395420442868
 21
243.6866385374152
 31
0.0
  0
LINE
  5
201
330
75
100
AcDbEntity
  8
Hidden (ISO)
100
AcDbLine
 10
212.3395420442867
 20
240.9866385374152
 30
0.0
 11
213.8395420442868
 21
240.9866385374152
 31
0.0
  0
LINE
  5
202
330
75
100
AcDbEntity
  8
Hidden (ISO)
100
AcDbLine
 10
212.3395420442867
 20
195.0866385374152
 30
0.0
 11
213.8395420442868
 21
195.0866385374152
 31
0.0
  0
LINE
  5
203
330
75
100
AcDbEntity
  8
Hidden (ISO)
100
AcDbLine
 10
212.3395420442867
 20
192.3866385374152
 30
0.0
 11
213.8395420442868
 21
192.3866385374152
 31
0.0
  0
LINE
  5
204
330
75
100
AcDbEntity
  8
Hidden (ISO)
100
AcDbLine
 10
212.3395420442802
 20
215.5866385374153
 30
0.0
 11
213.8395420442802
 21
215.5866385374153
 31
0.0
  0
LINE
  5
205
330
75
100
AcDbEntity
  8
Hidden (ISO)
100
AcDbLine
 10
212.3395420442802
 20
211.0866385374152
 30
0.0
 11
213.8395420442802
 21
211.0866385374152
 31
0.0
  0
LINE
  5
206
330
75
100
AcDbEntity
  8
Hidden (ISO)
100
AcDbLine
 10
212.339542044274
 20
153.2366385374152
 30
0.0
 11
213.839542044274
 21
153.2366385374152
 31
0.0
  0
LINE
  5
207
330
75
100
AcDbEntity
  8
Hidden (ISO)
100
AcDbLine
 10
212.339542044274
 20
148.0366385374152
 30
0.0
 11
213.839542044274
 21
148.0366385374152
 31
0.0
  0
LINE
  5
208
330
75
100
AcDbEntity
  8
Visible (ISO)
100
AcDbLine
 10
213.8395420442886
 20
290.4366385374153
 30
0.0
 11
213.8395420442892
 21
288.4366385374153
 31
0.0
  0
LINE
  5
209
330
75
100
AcDbEntity
  8
Visible (ISO)
100
AcDbLine
 10
213.8395420442892
 20
147.4366385374153
 30
0.0
 11
213.8395420442892
 21
288.4366385374153
 31
0.0
  0
LINE
  5
20A
330
75
100
AcDbEntity
  8
Visible (ISO)
100
AcDbLine
 10
213.8395420442892
 20
147.4366385374153
 30
0.0
 11
213.8395420442886
 21
145.4366385374152
 31
0.0
  0
LINE
  5
20B
330
75
100
AcDbEntity
  8
Visible (ISO)
100
AcDbLine
 10
212.3395420442885
 20
145.4366385374152
 30
0.0
 11
212.3395420442891
 21
147.4366385374153
 31
0.0
  0
LINE
  5
20C
330
75
100
AcDbEntity
  8
Visible (ISO)
100
AcDbLine
 10
212.3395420442891
 20
147.4366385374153
 30
0.0
 11
212.3395420442891
 21
288.4366385374152
 31
0.0
  0
LINE
  5
20D
330
75
100
AcDbEntity
  8
Visible (ISO)
100
AcDbLine
 10
212.3395420442891
 20
288.4366385374152
 30
0.0
 11
212.3395420442885
 21
290.4366385374153
 31
0.0
  0
LINE
  5
20E
330
75
100
AcDbEntity
  8
Visible (ISO)
100
AcDbLine
 10
213.8395420442886
 20
145.4366385374152
 30
0.0
 11
212.3395420442885
 21
145.4366385374152
 31
0.0
  0
LINE
  5
20F
330
75
100
AcDbEntity
  8
Visible (ISO)
100
AcDbLine
 10
212.3395420442885
 20
290.4366385374153
 30
0.0
 11
213.8395420442886
 21
290.4366385374153
 31
0.0
  0
LINE
  5
210
330
75
100
AcDbEntity
  8
Visible (ISO)
100
AcDbLine
 10
213.8395420442892
 20
288.4366385374153
 30
0.0
 11
212.3395420442891
 21
288.4366385374152
 31
0.0
  0
LINE
  5
211
330
75
100
AcDbEntity
  8
Visible (ISO)
100
AcDbLine
 10
212.3395420442891
 20
147.4366385374153
 30
0.0
 11
213.8395420442892
 21
147.4366385374153
 31
0.0
  0
LINE
  5
212
330
75
100
AcDbEntity
  8
Visible (ISO)
100
AcDbLine
 10
212.3395420442706
 20
160.4366385374152
 30
0.0
 11
211.3395420442703
 21
160.4366385374152
 31
0.0
  0
LINE
  5
213
330
75
100
AcDbEntity
  8
Visible (ISO)
100
AcDbLine
 10
212.3395420442706
 20
275.4366385374153
 30
0.0
 11
211.3395420442703
 21
275.4366385374153
 31
0.0
  0
LINE
  5
214
330
75
100
AcDbEntity
  8
Visible (ISO)
100
AcDbLine
 10
177.3395420442703
 20
257.2616385374153
 30
0.0
 11
179.3395420442703
 21
257.2616385374153
 31
0.0
  0
LINE
  5
215
330
75
100
AcDbEntity
  8
Visible (ISO)
100
AcDbLine
 10
179.3395420442703
 20
257.2616385374153
 30
0.0
 11
179.3395420442703
 21
178.8116385374152
 31
0.0
  0
LINE
  5
216
330
75
100
AcDbEntity
  8
Visible (ISO)
100
AcDbLine
 10
179.3395420442703
 20
178.8116385374152
 30
0.0
 11
177.3395420442703
 21
178.8116385374152
 31
0.0
  0
LINE
  5
217
330
75
100
AcDbEntity
  8
Visible (ISO)
100
AcDbLine
 10
177.3395420442703
 20
181.7761046314825
 30
0.0
 11
177.3395420442703
 21
178.8116385374152
 31
0.0
  0
LINE
  5
218
330
75
100
AcDbEntity
  8
Visible (ISO)
100
AcDbLine
 10
169.8395420442702
 20
160.4366385374152
 30
0.0
 11
169.8395420442703
 21
181.7761046314825
 31
0.0
  0
LINE
  5
219
330
75
100
AcDbEntity
  8
Visible (ISO)
100
AcDbLine
 10
169.8395420442702
 20
160.4366385374152
 30
0.0
 11
211.3395420442703
 21
160.4366385374152
 31
0.0
  0
LINE
  5
21A
330
75
100
AcDbEntity
  8
Visible (ISO)
100
AcDbLine
 10
169.8395420442702
 20
275.4366385374153
 30
0.0
 11
211.3395420442703
 21
275.4366385374153
 31
0.0
  0
LINE
  5
21B
330
75
100
AcDbEntity
  8
Visible (ISO)
100
AcDbLine
 10
169.8395420442703
 20
254.297172443348
 30
0.0
 11
169.8395420442702
 21
275.4366385374153
 31
0.0
  0
LINE
  5
21C
330
75
100
AcDbEntity
  8
Visible (ISO)
100
AcDbLine
 10
177.3395420442703
 20
254.297172443348
 30
0.0
 11
177.3395420442703
 21
257.2616385374153
 31
0.0
  0
LINE
  5
21D
330
75
100
AcDbEntity
  8
Visible (ISO)
100
AcDbLine
 10
197.3395420442703
 20
257.2616385374153
 30
0.0
 11
199.3395420442703
 21
257.2616385374153
 31
0.0
  0
LINE
  5
21E
330
75
100
AcDbEntity
  8
Visible (ISO)
100
AcDbLine
 10
199.3395420442703
 20
254.297172443348
 30
0.0
 11
199.3395420442703
 21
257.2616385374153
 31
0.0
  0
LINE
  5
21F
330
75
100
AcDbEntity
  8
Visible (ISO)
100
AcDbLine
 10
206.8395420442703
 20
254.297172443348
 30
0.0
 11
206.8395420442703
 21
257.2616385374153
 31
0.0
  0
LINE
  5
220
330
75
100
AcDbEntity
  8
Visible (ISO)
100
AcDbLine
 10
206.8395420442703
 20
257.2616385374153
 30
0.0
 11
208.8395420442703
 21
257.2616385374153
 31
0.0
  0
LINE
  5
221
330
75
100
AcDbEntity
  8
Visible (ISO)
100
AcDbLine
 10
208.8395420442703
 20
257.2616385374153
 30
0.0
 11
208.8395420442703
 21
231.7616385374153
 31
0.0
  0
LINE
  5
222
330
75
100
AcDbEntity
  8
Visible (ISO)
100
AcDbLine
 10
208.8395420442703
 20
231.7616385374153
 30
0.0
 11
197.3395420442701
 21
231.7616385374153
 31
0.0
  0
LINE
  5
223
330
75
100
AcDbEntity
  8
Visible (ISO)
100
AcDbLine
 10
197.3395420442701
 20
231.7616385374153
 30
0.0
 11
197.3395420442703
 21
257.2616385374153
 31
0.0
  0
LINE
  5
224
330
75
100
AcDbEntity
  8
Visible (ISO)
100
AcDbLine
 10
197.3395420442703
 20
204.3116385374152
 30
0.0
 11
208.8395420442703
 21
204.3116385374152
 31
0.0
  0
LINE
  5
225
330
75
100
AcDbEntity
  8
Visible (ISO)
100
AcDbLine
 10
208.8395420442703
 20
204.3116385374152
 30
0.0
 11
208.8395420442703
 21
178.8116385374152
 31
0.0
  0
LINE
  5
226
330
75
100
AcDbEntity
  8
Visible (ISO)
100
AcDbLine
 10
208.8395420442703
 20
178.8116385374152
 30
0.0
 11
206.8395420442703
 21
178.8116385374152
 31
0.0
  0
LINE
  5
227
330
75
100
AcDbEntity
  8
Visible (ISO)
100
AcDbLine
 10
206.8395420442703
 20
181.7761046314825
 30
0.0
 11
206.8395420442703
 21
178.8116385374152
 31
0.0
  0
LINE
  5
228
330
75
100
AcDbEntity
  8
Visible (ISO)
100
AcDbLine
 10
199.3395420442703
 20
181.7761046314825
 30
0.0
 11
199.3395420442703
 21
178.8116385374152
 31
0.0
  0
LINE
  5
229
330
75
100
AcDbEntity
  8
Visible (ISO)
100
AcDbLine
 10
199.3395420442703
 20
178.8116385374152
 30
0.0
 11
197.3395420442701
 21
178.8116385374152
 31
0.0
  0
LINE
  5
22A
330
75
100
AcDbEntity
  8
Visible (ISO)
100
AcDbLine
 10
197.3395420442701
 20
178.8116385374152
 30
0.0
 11
197.3395420442703
 21
204.3116385374152
 31
0.0
  0
LINE
  5
22B
330
75
100
AcDbEntity
  8
Visible (ISO)
100
AcDbLine
 10
177.3395420442704
 20
253.5900656621615
 30
0.0
 11
177.3395420442703
 21
254.2971724433479
 31
0.0
  0
LINE
  5
22C
330
75
100
AcDbEntity
  8
Visible (ISO)
100
AcDbLine
 10
177.3395420442714
 20
250.1151919280086
 30
0.0
 11
177.3395420442704
 21
253.5900656621615
 31
0.0
  0
LINE
  5
22D
330
75
100
AcDbEntity
  8
Visible (ISO)
100
AcDbLine
 10
177.3395420442714
 20
250.1151919280085
 30
0.0
 11
177.3395420442716
 21
248.3474249750421
 31
0.0
  0
LINE
  5
22E
330
75
100
AcDbEntity
  8
Visible (ISO)
100
AcDbLine
 10
177.3395420442716
 20
236.7616385374153
 30
0.0
 11
177.3395420442716
 21
248.3474249750422
 31
0.0
  0
LINE
  5
22F
330
75
100
AcDbEntity
  8
Visible (ISO)
100
AcDbLine
 10
206.8395420442716
 20
199.3116385374152
 30
0.0
 11
206.8395420442716
 21
187.7258520997883
 31
0.0
  0
LINE
  5
230
330
75
100
AcDbEntity
  8
Visible (ISO)
100
AcDbLine
 10
206.8395420442715
 20
185.9580851468219
 30
0.0
 11
206.8395420442717
 21
187.7258520997883
 31
0.0
  0
LINE
  5
231
330
75
100
AcDbEntity
  8
Visible (ISO)
100
AcDbLine
 10
206.8395420442714
 20
185.9580851468219
 30
0.0
 11
206.8395420442704
 21
182.483211412669
 31
0.0
  0
LINE
  5
232
330
75
100
AcDbEntity
  8
Visible (ISO)
100
AcDbLine
 10
206.8395420442704
 20
182.483211412669
 30
0.0
 11
206.8395420442703
 21
181.7761046314825
 31
0.0
  0
LINE
  5
233
330
75
100
AcDbEntity
  8
Visible (ISO)
100
AcDbLine
 10
169.8395420442704
 20
182.483211412669
 30
0.0
 11
169.8395420442703
 21
181.7761046314825
 31
0.0
  0
LINE
  5
234
330
75
100
AcDbEntity
  8
Visible (ISO)
100
AcDbLine
 10
169.8395420442714
 20
185.9580851468219
 30
0.0
 11
169.8395420442704
 21
182.483211412669
 31
0.0
  0
LINE
  5
235
330
75
100
AcDbEntity
  8
Visible (ISO)
100
AcDbLine
 10
169.8395420442714
 20
185.9580851468219
 30
0.0
 11
169.8395420442716
 21
187.7258520997883
 31
0.0
  0
LINE
  5
236
330
75
100
AcDbEntity
  8
Visible (ISO)
100
AcDbLine
 10
169.8395420442716
 20
199.3116385374152
 30
0.0
 11
169.8395420442716
 21
187.7258520997883
 31
0.0
  0
LINE
  5
237
330
75
100
AcDbEntity
  8
Visible (ISO)
100
AcDbLine
 10
199.3395420442704
 20
182.483211412669
 30
0.0
 11
199.3395420442703
 21
181.7761046314825
 31
0.0
  0
LINE
  5
238
330
75
100
AcDbEntity
  8
Visible (ISO)
100
AcDbLine
 10
199.3395420442714
 20
185.9580851468219
 30
0.0
 11
199.3395420442704
 21
182.483211412669
 31
0.0
  0
LINE
  5
239
330
75
100
AcDbEntity
  8
Visible (ISO)
100
AcDbLine
 10
199.3395420442714
 20
185.9580851468219
 30
0.0
 11
199.3395420442716
 21
187.7258520997883
 31
0.0
  0
LINE
  5
23A
330
75
100
AcDbEntity
  8
Visible (ISO)
100
AcDbLine
 10
199.3395420442716
 20
199.3116385374152
 30
0.0
 11
199.3395420442716
 21
187.7258520997883
 31
0.0
  0
LINE
  5
23B
330
75
100
AcDbEntity
  8
Visible (ISO)
100
AcDbLine
 10
177.3395420442716
 20
199.3116385374152
 30
0.0
 11
177.3395420442716
 21
187.7258520997883
 31
0.0
  0
LINE
  5
23C
330
75
100
AcDbEntity
  8
Visible (ISO)
100
AcDbLine
 10
177.3395420442714
 20
185.9580851468219
 30
0.0
 11
177.3395420442716
 21
187.7258520997883
 31
0.0
  0
LINE
  5
23D
330
75
100
AcDbEntity
  8
Visible (ISO)
100
AcDbLine
 10
177.3395420442714
 20
185.9580851468219
 30
0.0
 11
177.3395420442704
 21
182.483211412669
 31
0.0
  0
LINE
  5
23E
330
75
100
AcDbEntity
  8
Visible (ISO)
100
AcDbLine
 10
177.3395420442704
 20
182.483211412669
 30
0.0
 11
177.3395420442703
 21
181.7761046314825
 31
0.0
  0
LINE
  5
23F
330
75
100
AcDbEntity
  8
Visible (ISO)
100
AcDbLine
 10
169.8395420442716
 20
236.7616385374153
 30
0.0
 11
169.8395420442716
 21
248.3474249750422
 31
0.0
  0
LINE
  5
240
330
75
100
AcDbEntity
  8
Visible (ISO)
100
AcDbLine
 10
169.8395420442714
 20
250.1151919280086
 30
0.0
 11
169.8395420442716
 21
248.3474249750421
 31
0.0
  0
LINE
  5
241
330
75
100
AcDbEntity
  8
Visible (ISO)
100
AcDbLine
 10
169.8395420442714
 20
250.1151919280086
 30
0.0
 11
169.8395420442704
 21
253.5900656621615
 31
0.0
  0
LINE
  5
242
330
75
100
AcDbEntity
  8
Visible (ISO)
100
AcDbLine
 10
169.8395420442704
 20
253.5900656621615
 30
0.0
 11
169.8395420442703
 21
254.2971724433479
 31
0.0
  0
LINE
  5
243
330
75
100
AcDbEntity
  8
Visible (ISO)
100
AcDbLine
 10
199.3395420442716
 20
236.7616385374153
 30
0.0
 11
199.3395420442716
 21
248.3474249750422
 31
0.0
  0
LINE
  5
244
330
75
100
AcDbEntity
  8
Visible (ISO)
100
AcDbLine
 10
199.3395420442714
 20
250.1151919280086
 30
0.0
 11
199.3395420442716
 21
248.3474249750421
 31
0.0
  0
LINE
  5
245
330
75
100
AcDbEntity
  8
Visible (ISO)
100
AcDbLine
 10
199.3395420442714
 20
250.1151919280086
 30
0.0
 11
199.3395420442704
 21
253.5900656621615
 31
0.0
  0
LINE
  5
246
330
75
100
AcDbEntity
  8
Visible (ISO)
100
AcDbLine
 10
199.3395420442704
 20
253.5900656621615
 30
0.0
 11
199.3395420442703
 21
254.2971724433479
 31
0.0
  0
LINE
  5
247
330
75
100
AcDbEntity
  8
Visible (ISO)
100
AcDbLine
 10
206.8395420442704
 20
253.5900656621615
 30
0.0
 11
206.8395420442703
 21
254.2971724433479
 31
0.0
  0
LINE
  5
248
330
75
100
AcDbEntity
  8
Visible (ISO)
100
AcDbLine
 10
206.8395420442714
 20
250.1151919280086
 30
0.0
 11
206.8395420442704
 21
253.5900656621615
 31
0.0
  0
LINE
  5
249
330
75
100
AcDbEntity
  8
Visible (ISO)
100
AcDbLine
 10
206.8395420442715
 20
250.1151919280086
 30
0.0
 11
206.8395420442717
 21
248.3474249750421
 31
0.0
  0
LINE
  5
24A
330
75
100
AcDbEntity
  8
Visible (ISO)
100
AcDbLine
 10
206.8395420442716
 20
236.7616385374153
 30
0.0
 11
206.8395420442716
 21
248.3474249750422
 31
0.0
  0
LINE
  5
24B
330
75
100
AcDbEntity
  8
Visible (ISO)
100
AcDbLine
 10
177.3395420442716
 20
236.7616385374153
 30
0.0
 11
169.8395420442716
 21
236.7616385374153
 31
0.0
  0
LINE
  5
24C
330
75
100
AcDbEntity
  8
Visible (ISO)
100
AcDbLine
 10
206.8395420442716
 20
199.3116385374152
 30
0.0
 11
199.3395420442716
 21
199.3116385374152
 31
0.0
  0
LINE
  5
24D
330
75
100
AcDbEntity
  8
Visible (ISO)
100
AcDbLine
 10
177.3395420442716
 20
199.3116385374152
 30
0.0
 11
169.8395420442716
 21
199.3116385374152
 31
0.0
  0
LINE
  5
24E
330
75
100
AcDbEntity
  8
Visible (ISO)
100
AcDbLine
 10
206.8395420442716
 20
236.7616385374153
 30
0.0
 11
199.3395420442716
 21
236.7616385374153
 31
0.0
  0
LINE
  5
24F
330
75
100
AcDbEntity
  8
Hidden (ISO)
100
AcDbLine
 10
270.9557733266168
 20
346.0940074368364
 30
0.0
 11
270.9557733266168
 21
342.7940074368365
 31
0.0
  0
LINE
  5
250
330
75
100
AcDbEntity
  8
Hidden (ISO)
100
AcDbLine
 10
270.9557733266168
 20
375.5940074368364
 30
0.0
 11
270.9557733266168
 21
372.2940074368364
 31
0.0
  0
LINE
  5
251
330
75
100
AcDbEntity
  8
Hidden (ISO)
100
AcDbLine
 10
269.2172568459034
 20
346.0940074368364
 30
0.0
 11
270.9557733266168
 21
346.0940074368364
 31
0.0
  0
LINE
  5
252
330
75
100
AcDbEntity
  8
Hidden (ISO)
100
AcDbLine
 10
269.2172568459034
 20
342.7940074368364
 30
0.0
 11
270.9557733266168
 21
342.7940074368364
 31
0.0
  0
LINE
  5
253
330
75
100
AcDbEntity
  8
Hidden (ISO)
100
AcDbLine
 10
269.2172568459035
 20
375.5940074368364
 30
0.0
 11
270.9557733266168
 21
375.5940074368364
 31
0.0
  0
LINE
  5
254
330
75
100
AcDbEntity
  8
Hidden (ISO)
100
AcDbLine
 10
269.2172568459035
 20
372.2940074368364
 30
0.0
 11
270.9557733266168
 21
372.2940074368364
 31
0.0
  0
LINE
  5
255
330
75
100
AcDbEntity
  8
Hidden (ISO)
100
AcDbLine
 10
269.2172568459034
 20
346.6940074368364
 30
0.0
 11
269.2172568459034
 21
342.1940074368365
 31
0.0
  0
LINE
  5
256
330
75
100
AcDbEntity
  8
Hidden (ISO)
100
AcDbLine
 10
269.2172568459035
 20
376.1940074368364
 30
0.0
 11
269.2172568459035
 21
371.6940074368364
 31
0.0
  0
LINE
  5
257
330
75
100
AcDbEntity
  8
Hidden (ISO)
100
AcDbLine
 10
303.1172568459033
 20
335.1940074368333
 30
0.0
 11
303.1172568459033
 21
333.6940074368333
 31
0.0
  0
LINE
  5
258
330
75
100
AcDbEntity
  8
Hidden (ISO)
100
AcDbLine
 10
326.9172568459034
 20
335.1940074368378
 30
0.0
 11
326.9172568459034
 21
333.6940074368379
 31
0.0
  0
LINE
  5
259
330
75
100
AcDbEntity
  8
Hidden (ISO)
100
AcDbLine
 10
318.9172568459034
 20
335.1940074368378
 30
0.0
 11
318.9172568459034
 21
333.6940074368379
 31
0.0
  0
LINE
  5
25A
330
75
100
AcDbEntity
  8
Hidden (ISO)
100
AcDbLine
 10
278.9172568459033
 20
335.1940074368378
 30
0.0
 11
278.9172568459033
 21
333.6940074368379
 31
0.0
  0
LINE
  5
25B
330
75
100
AcDbEntity
  8
Hidden (ISO)
100
AcDbLine
 10
286.9172568459033
 20
335.1940074368378
 30
0.0
 11
286.9172568459033
 21
333.6940074368379
 31
0.0
  0
LINE
  5
25C
330
75
100
AcDbEntity
  8
Hidden (ISO)
100
AcDbLine
 10
305.1172568459033
 20
335.1940074368378
 30
0.0
 11
305.1172568459033
 21
333.6940074368377
 31
0.0
  0
LINE
  5
25D
330
75
100
AcDbEntity
  8
Hidden (ISO)
100
AcDbLine
 10
296.7172568459034
 20
335.1940074368378
 30
0.0
 11
296.7172568459034
 21
333.6940074368377
 31
0.0
  0
LINE
  5
25E
330
75
100
AcDbEntity
  8
Hidden (ISO)
100
AcDbLine
 10
298.7172568459034
 20
335.1940074368333
 30
0.0
 11
298.7172568459034
 21
333.6940074368333
 31
0.0
  0
LINE
  5
25F
330
75
100
AcDbEntity
  8
Hidden (ISO)
100
AcDbLine
 10
267.4172568459034
 20
338.694007436832
 30
0.0
 11
265.9172568459033
 21
338.694007436832
 31
0.0
  0
LINE
  5
260
330
75
100
AcDbEntity
  8
Hidden (ISO)
100
AcDbLine
 10
267.4172568459032
 20
368.1940074368319
 30
0.0
 11
265.9172568459033
 21
368.1940074368319
 31
0.0
  0
LINE
  5
261
330
75
100
AcDbEntity
  8
Hidden (ISO)
100
AcDbLine
 10
267.4172568459033
 20
340.694007436832
 30
0.0
 11
265.9172568459033
 21
340.694007436832
 31
0.0
  0
LINE
  5
262
330
75
100
AcDbEntity
  8
Hidden (ISO)
100
AcDbLine
 10
267.4172568459032
 20
370.194007436832
 30
0.0
 11
265.9172568459033
 21
370.194007436832
 31
0.0
  0
LINE
  5
263
330
75
100
AcDbEntity
  8
Hidden (ISO)
100
AcDbLine
 10
267.4172568459033
 20
348.194007436832
 30
0.0
 11
265.9172568459033
 21
348.194007436832
 31
0.0
  0
LINE
  5
264
330
75
100
AcDbEntity
  8
Hidden (ISO)
100
AcDbLine
 10
267.4172568459033
 20
350.1940074368322
 30
0.0
 11
265.9172568459033
 21
350.194007436832
 31
0.0
  0
LINE
  5
265
330
75
100
AcDbEntity
  8
Hidden (ISO)
100
AcDbLine
 10
270.4172568459033
 20
340.6940074368347
 30
0.0
 11
270.4172568459033
 21
348.1940074368347
 31
0.0
  0
LINE
  5
266
330
75
100
AcDbEntity
  8
Hidden (ISO)
100
AcDbLine
 10
270.4172568459034
 20
370.1940074368346
 30
0.0
 11
270.4172568459033
 21
377.6940074368346
 31
0.0
  0
LINE
  5
267
330
75
100
AcDbEntity
  8
Hidden (ISO)
100
AcDbLine
 10
270.4172568459033
 20
342.1940074368365
 30
0.0
 11
269.2172568459034
 21
342.1940074368365
 31
0.0
  0
LINE
  5
268
330
75
100
AcDbEntity
  8
Hidden (ISO)
100
AcDbLine
 10
270.4172568459033
 20
346.6940074368364
 30
0.0
 11
269.2172568459034
 21
346.6940074368364
 31
0.0
  0
LINE
  5
269
330
75
100
AcDbEntity
  8
Hidden (ISO)
100
AcDbLine
 10
270.4172568459034
 20
371.6940074368364
 30
0.0
 11
269.2172568459035
 21
371.6940074368364
 31
0.0
  0
LINE
  5
26A
330
75
100
AcDbEntity
  8
Hidden (ISO)
100
AcDbLine
 10
270.4172568459034
 20
376.1940074368364
 30
0.0
 11
269.2172568459035
 21
376.1940074368364
 31
0.0
  0
LINE
  5
26B
330
75
100
AcDbEntity
  8
Hidden (ISO)
100
AcDbLine
 10
325.5172568459034
 20
335.1940074368235
 30
0.0
 11
325.5172568459034
 21
333.6940074368235
 31
0.0
  0
LINE
  5
26C
330
75
100
AcDbEntity
  8
Hidden (ISO)
100
AcDbLine
 10
320.3172568459033
 20
335.1940074368235
 30
0.0
 11
320.3172568459033
 21
333.6940074368235
 31
0.0
  0
LINE
  5
26D
330
75
100
AcDbEntity
  8
Hidden (ISO)
100
AcDbLine
 10
284.2672568459034
 20
335.1940074368364
 30
0.0
 11
284.2672568459034
 21
333.6940074368364
 31
0.0
  0
LINE
  5
26E
330
75
100
AcDbEntity
  8
Hidden (ISO)
100
AcDbLine
 10
281.5672568459034
 20
335.1940074368364
 30
0.0
 11
281.5672568459034
 21
333.6940074368364
 31
0.0
  0
LINE
  5
26F
330
75
100
AcDbEntity
  8
Hidden (ISO)
100
AcDbLine
 10
324.2672568459034
 20
335.1940074368364
 30
0.0
 11
324.2672568459034
 21
333.6940074368364
 31
0.0
  0
LINE
  5
270
330
75
100
AcDbEntity
  8
Hidden (ISO)
100
AcDbLine
 10
321.5672568459033
 20
335.1940074368364
 30
0.0
 11
321.5672568459033
 21
333.6940074368364
 31
0.0
  0
LINE
  5
271
330
75
100
AcDbEntity
  8
Hidden (ISO)
100
AcDbLine
 10
303.1672568459033
 20
335.1940074368422
 30
0.0
 11
303.1672568459033
 21
333.6940074368422
 31
0.0
  0
LINE
  5
272
330
75
100
AcDbEntity
  8
Hidden (ISO)
100
AcDbLine
 10
298.6672568459034
 20
335.1940074368422
 30
0.0
 11
298.6672568459034
 21
333.6940074368422
 31
0.0
  0
LINE
  5
273
330
75
100
AcDbEntity
  8
Hidden (ISO)
100
AcDbLine
 10
282.5172568459033
 20
335.1940074368236
 30
0.0
 11
282.5172568459033
 21
333.6940074368237
 31
0.0
  0
LINE
  5
274
330
75
100
AcDbEntity
  8
Hidden (ISO)
100
AcDbLine
 10
277.3172568459033
 20
335.1940074368236
 30
0.0
 11
277.3172568459033
 21
333.6940074368237
 31
0.0
  0
ARC
  5
275
330
75
100
AcDbEntity
  8
Hidden (ISO)
100
AcDbCircle
 10
270.4172568459033
 20
347.4940074368364
 30
0.0
 40
1.5
100
AcDbArc
 50
291.0394697813168
 51
0.0
  0
ARC
  5
276
330
75
100
AcDbEntity
  8
Hidden (ISO)
100
AcDbCircle
 10
270.4172568459033
 20
341.3940074368364
 30
0.0
 40
1.5
100
AcDbArc
 50
0.0
 51
68.96053021868448
  0
ARC
  5
277
330
75
100
AcDbEntity
  8
Hidden (ISO)
100
AcDbCircle
 10
270.4172568459034
 20
376.9940074368364
 30
0.0
 40
1.5
100
AcDbArc
 50
291.0394697813168
 51
0.0
  0
ARC
  5
278
330
75
100
AcDbEntity
  8
Hidden (ISO)
100
AcDbCircle
 10
270.4172568459034
 20
370.8940074368364
 30
0.0
 40
1.5
100
AcDbArc
 50
0.0
 51
68.96053021868197
  0
LINE
  5
279
330
75
100
AcDbEntity
  8
Visible (ISO)
100
AcDbLine
 10
314.9172568459034
 20
335.1940074368227
 30
0.0
 11
316.9172568459034
 21
335.1940074368221
 31
0.0
  0
LINE
  5
27A
330
75
100
AcDbEntity
  8
Visible (ISO)
100
AcDbLine
 10
314.9172568459034
 20
333.6940074368227
 30
0.0
 11
314.9172568459034
 21
335.1940074368227
 31
0.0
  0
LINE
  5
27B
330
75
100
AcDbEntity
  8
Visible (ISO)
100
AcDbLine
 10
316.9172568459034
 20
333.6940074368221
 30
0.0
 11
314.9172568459034
 21
333.6940074368227
 31
0.0
  0
LINE
  5
27C
330
75
100
AcDbEntity
  8
Visible (ISO)
100
AcDbLine
 10
316.9172568459034
 20
335.1940074368221
 30
0.0
 11
316.9172568459034
 21
333.6940074368221
 31
0.0
  0
LINE
  5
27D
330
75
100
AcDbEntity
  8
Visible (ISO)
100
AcDbLine
 10
316.9172568459034
 20
333.6940074368221
 30
0.0
 11
328.9172568459033
 21
333.6940074368221
 31
0.0
  0
LINE
  5
27E
330
75
100
AcDbEntity
  8
Visible (ISO)
100
AcDbLine
 10
287.9172568459034
 20
333.6940074368252
 30
0.0
 11
314.9172568459034
 21
333.6940074368252
 31
0.0
  0
LINE
  5
27F
330
75
100
AcDbEntity
  8
Visible (ISO)
100
AcDbLine
 10
287.9172568459034
 20
333.6940074368227
 30
0.0
 11
285.9172568459034
 21
333.6940074368221
 31
0.0
  0
LINE
  5
280
330
75
100
AcDbEntity
  8
Visible (ISO)
100
AcDbLine
 10
273.9172568459034
 20
333.6940074368221
 30
0.0
 11
285.9172568459034
 21
333.6940074368221
 31
0.0
  0
LINE
  5
281
330
75
100
AcDbEntity
  8
Visible (ISO)
100
AcDbLine
 10
273.9172568459034
 20
333.6940074368221
 30
0.0
 11
271.9172568459033
 21
333.6940074368227
 31
0.0
  0
LINE
  5
282
330
75
100
AcDbEntity
  8
Visible (ISO)
100
AcDbLine
 10
268.4172568459033
 20
333.6940074368266
 30
0.0
 11
271.9172568459033
 21
333.6940074368266
 31
0.0
  0
LINE
  5
283
330
75
100
AcDbEntity
  8
Visible (ISO)
100
AcDbLine
 10
330.9172568459033
 20
333.6940074368227
 30
0.0
 11
328.9172568459033
 21
333.6940074368221
 31
0.0
  0
LINE
  5
284
330
75
100
AcDbEntity
  8
Visible (ISO)
100
AcDbLine
 10
316.9172568459034
 20
335.1940074368221
 30
0.0
 11
328.9172568459032
 21
335.1940074368221
 31
0.0
  0
LINE
  5
285
330
75
100
AcDbEntity
  8
Visible (ISO)
100
AcDbLine
 10
328.9172568459032
 20
335.1940074368221
 30
0.0
 11
330.9172568459033
 21
335.1940074368227
 31
0.0
  0
LINE
  5
286
330
75
100
AcDbEntity
  8
Visible (ISO)
100
AcDbLine
 10
268.4172568459033
 20
335.1940074368265
 30
0.0
 11
271.9172568459033
 21
335.1940074368265
 31
0.0
  0
LINE
  5
287
330
75
100
AcDbEntity
  8
Visible (ISO)
100
AcDbLine
 10
271.9172568459033
 20
335.1940074368227
 30
0.0
 11
273.9172568459032
 21
335.1940074368221
 31
0.0
  0
LINE
  5
288
330
75
100
AcDbEntity
  8
Visible (ISO)
100
AcDbLine
 10
273.9172568459032
 20
335.1940074368221
 30
0.0
 11
285.9172568459033
 21
335.1940074368221
 31
0.0
  0
LINE
  5
289
330
75
100
AcDbEntity
  8
Visible (ISO)
100
AcDbLine
 10
285.9172568459033
 20
335.1940074368221
 30
0.0
 11
287.9172568459034
 21
335.1940074368227
 31
0.0
  0
LINE
  5
28A
330
75
100
AcDbEntity
  8
Visible (ISO)
100
AcDbLine
 10
287.9172568459034
 20
335.1940074368252
 30
0.0
 11
314.9172568459034
 21
335.1940074368252
 31
0.0
  0
LINE
  5
28B
330
75
100
AcDbEntity
  8
Visible (ISO)
100
AcDbLine
 10
328.9172568459033
 20
333.6940074368221
 30
0.0
 11
328.9172568459032
 21
335.1940074368221
 31
0.0
  0
ARC
  5
28C
330
75
100
AcDbEntity
  8
Visible (ISO)
100
AcDbCircle
 10
268.4172568459033
 20
336.1940074368265
 30
0.0
 40
2.499999999999998
100
AcDbArc
 50
180.0
 51
270.0
  0
LINE
  5
28D
330
75
100
AcDbEntity
  8
Visible (ISO)
100
AcDbLine
 10
271.9172568459033
 20
333.6940074368227
 30
0.0
 11
271.9172568459033
 21
335.1940074368227
 31
0.0
  0
LINE
  5
28E
330
75
100
AcDbEntity
  8
Visible (ISO)
100
AcDbLine
 10
287.9172568459034
 20
335.1940074368227
 30
0.0
 11
287.9172568459034
 21
333.6940074368227
 31
0.0
  0
LINE
  5
28F
330
75
100
AcDbEntity
  8
Visible (ISO)
100
AcDbLine
 10
330.9172568459033
 20
335.1940074368227
 30
0.0
 11
330.9172568459033
 21
333.6940074368227
 31
0.0
  0
LINE
  5
290
330
75
100
AcDbEntity
  8
Visible (ISO)
100
AcDbLine
 10
285.9172568459034
 20
333.6940074368221
 30
0.0
 11
285.9172568459033
 21
335.1940074368221
 31
0.0
  0
LINE
  5
291
330
75
100
AcDbEntity
  8
Visible (ISO)
100
AcDbLine
 10
273.9172568459032
 20
335.1940074368221
 30
0.0
 11
273.9172568459034
 21
333.6940074368221
 31
0.0
  0
ARC
  5
292
330
75
100
AcDbEntity
  8
Visible (ISO)
100
AcDbCircle
 10
268.4172568459033
 20
336.1940074368265
 30
0.0
 40
1.0
100
AcDbArc
 50
180.0
 51
270.0
  0
LINE
  5
293
330
75
100
AcDbEntity
  8
Visible (ISO)
100
AcDbLine
 10
265.9172568459033
 20
377.6940074368265
 30
0.0
 11
265.9172568459031
 21
336.1940074368265
 31
0.0
  0
LINE
  5
294
330
75
100
AcDbEntity
  8
Visible (ISO)
100
AcDbLine
 10
267.4172568459032
 20
377.6940074368265
 30
0.0
 11
267.4172568459034
 21
336.1940074368265
 31
0.0
  0
LINE
  5
295
330
75
100
AcDbEntity
  8
Visible (ISO)
100
AcDbLine
 10
265.9172568459033
 20
377.6940074368265
 30
0.0
 11
267.4172568459032
 21
377.6940074368265
 31
0.0
  0
LINE
  5
296
330
75
100
AcDbEntity
  8
Visible (ISO)
100
AcDbLine
 10
271.1850237988697
 20
340.6940074368342
 30
0.0
 11
271.9172568459033
 21
340.6940074368347
 31
0.0
  0
LINE
  5
297
330
75
100
AcDbEntity
  8
Visible (ISO)
100
AcDbLine
 10
271.1850237988697
 20
340.6940074368341
 30
0.0
 11
267.7101500647168
 21
340.6940074368331
 31
0.0
  0
LINE
  5
298
330
75
100
AcDbEntity
  8
Visible (ISO)
100
AcDbLine
 10
267.7101500647168
 20
340.6940074368331
 30
0.0
 11
267.4172568459034
 21
340.6940074368329
 31
0.0
  0
LINE
  5
299
330
75
100
AcDbEntity
  8
Visible (ISO)
100
AcDbLine
 10
267.7101500647168
 20
377.6940074368331
 30
0.0
 11
267.4172568459034
 21
377.6940074368329
 31
0.0
  0
LINE
  5
29A
330
75
100
AcDbEntity
  8
Visible (ISO)
100
AcDbLine
 10
271.1850237988698
 20
377.6940074368341
 30
0.0
 11
267.7101500647169
 21
377.6940074368331
 31
0.0
  0
LINE
  5
29B
330
75
100
AcDbEntity
  8
Visible (ISO)
100
AcDbLine
 10
271.1850237988698
 20
377.6940074368341
 30
0.0
 11
271.9172568459033
 21
377.6940074368346
 31
0.0
  0
LINE
  5
29C
330
75
100
AcDbEntity
  8
Visible (ISO)
100
AcDbLine
 10
267.7101500647168
 20
348.1940074368331
 30
0.0
 11
267.4172568459033
 21
348.1940074368329
 31
0.0
  0
LINE
  5
29D
330
75
100
AcDbEntity
  8
Visible (ISO)
100
AcDbLine
 10
271.1850237988697
 20
348.1940074368341
 30
0.0
 11
267.7101500647168
 21
348.194007436833
 31
0.0
  0
LINE
  5
29E
330
75
100
AcDbEntity
  8
Visible (ISO)
100
AcDbLine
 10
271.1850237988697
 20
348.1940074368341
 30
0.0
 11
271.9172568459033
 21
348.1940074368346
 31
0.0
  0
LINE
  5
29F
330
75
100
AcDbEntity
  8
Visible (ISO)
100
AcDbLine
 10
271.1850237988698
 20
370.1940074368341
 30
0.0
 11
271.9172568459033
 21
370.1940074368346
 31
0.0
  0
LINE
  5
2A0
330
75
100
AcDbEntity
  8
Visible (ISO)
100
AcDbLine
 10
271.1850237988698
 20
370.1940074368341
 30
0.0
 11
267.7101500647169
 21
370.1940074368331
 31
0.0
  0
LINE
  5
2A1
330
75
100
AcDbEntity
  8
Visible (ISO)
100
AcDbLine
 10
267.7101500647169
 20
370.1940074368331
 30
0.0
 11
267.4172568459034
 21
370.1940074368329
 31
0.0
  0
LINE
  5
2A2
330
75
100
AcDbEntity
  8
Visible (ISO)
100
AcDbLine
 10
271.9172568459033
 20
340.6940074368347
 30
0.0
 11
271.9172568459033
 21
348.1940074368347
 31
0.0
  0
LINE
  5
2A3
330
75
100
AcDbEntity
  8
Visible (ISO)
100
AcDbLine
 10
271.9172568459034
 20
370.1940074368346
 30
0.0
 11
271.9172568459033
 21
377.6940074368346
 31
0.0
  0
LINE
  5
2A4
330
75
100
AcDbEntity
  8
Hidden (ISO)
100
AcDbLine
 10
270.9557733263362
 20
85.14263110059165
 30
0.0
 11
270.9557733263362
 21
81.84263110059166
 31
0.0
  0
LINE
  5
2A5
330
75
100
AcDbEntity
  8
Hidden (ISO)
100
AcDbLine
 10
270.9557733263363
 20
55.64263110059165
 30
0.0
 11
270.9557733263363
 21
52.34263110059166
 31
0.0
  0
LINE
  5
2A6
330
75
100
AcDbEntity
  8
Hidden (ISO)
100
AcDbLine
 10
269.2172568456227
 20
85.14263110059165
 30
0.0
 11
270.9557733263362
 21
85.14263110059165
 31
0.0
  0
LINE
  5
2A7
330
75
100
AcDbEntity
  8
Hidden (ISO)
100
AcDbLine
 10
269.2172568456227
 20
81.84263110059164
 30
0.0
 11
270.9557733263362
 21
81.84263110059164
 31
0.0
  0
LINE
  5
2A8
330
75
100
AcDbEntity
  8
Hidden (ISO)
100
AcDbLine
 10
269.2172568456228
 20
55.64263110059167
 30
0.0
 11
270.9557733263363
 21
55.64263110059167
 31
0.0
  0
LINE
  5
2A9
330
75
100
AcDbEntity
  8
Hidden (ISO)
100
AcDbLine
 10
269.2172568456228
 20
52.34263110059167
 30
0.0
 11
270.9557733263363
 21
52.34263110059167
 31
0.0
  0
LINE
  5
2AA
330
75
100
AcDbEntity
  8
Hidden (ISO)
100
AcDbLine
 10
269.2172568456227
 20
81.24263110059166
 30
0.0
 11
269.2172568456227
 21
85.74263110059165
 31
0.0
  0
LINE
  5
2AB
330
75
100
AcDbEntity
  8
Hidden (ISO)
100
AcDbLine
 10
269.2172568456228
 20
51.74263110059165
 30
0.0
 11
269.2172568456228
 21
56.24263110059168
 31
0.0
  0
LINE
  5
2AC
330
75
100
AcDbEntity
  8
Hidden (ISO)
100
AcDbLine
 10
298.7172568456227
 20
92.7426311005979
 30
0.0
 11
298.7172568456227
 21
94.24263110059788
 31
0.0
  0
LINE
  5
2AD
330
75
100
AcDbEntity
  8
Hidden (ISO)
100
AcDbLine
 10
278.9172568456228
 20
92.74263110057921
 30
0.0
 11
278.9172568456228
 21
94.24263110057921
 31
0.0
  0
LINE
  5
2AE
330
75
100
AcDbEntity
  8
Hidden (ISO)
100
AcDbLine
 10
286.9172568456228
 20
92.74263110057921
 30
0.0
 11
286.9172568456228
 21
94.24263110057921
 31
0.0
  0
LINE
  5
2AF
330
75
100
AcDbEntity
  8
Hidden (ISO)
100
AcDbLine
 10
296.7172568456227
 20
92.74263110060008
 30
0.0
 11
296.7172568456227
 21
94.24263110060008
 31
0.0
  0
LINE
  5
2B0
330
75
100
AcDbEntity
  8
Hidden (ISO)
100
AcDbLine
 10
305.1172568456227
 20
92.74263110060008
 30
0.0
 11
305.1172568456227
 21
94.24263110060008
 31
0.0
  0
LINE
  5
2B1
330
75
100
AcDbEntity
  8
Hidden (ISO)
100
AcDbLine
 10
318.9172568456228
 20
92.74263110057921
 30
0.0
 11
318.9172568456228
 21
94.24263110057921
 31
0.0
  0
LINE
  5
2B2
330
75
100
AcDbEntity
  8
Hidden (ISO)
100
AcDbLine
 10
326.9172568456227
 20
92.74263110057921
 30
0.0
 11
326.9172568456227
 21
94.24263110057921
 31
0.0
  0
LINE
  5
2B3
330
75
100
AcDbEntity
  8
Hidden (ISO)
100
AcDbLine
 10
303.1172568456227
 20
92.7426311005979
 30
0.0
 11
303.1172568456227
 21
94.24263110059788
 31
0.0
  0
LINE
  5
2B4
330
75
100
AcDbEntity
  8
Hidden (ISO)
100
AcDbLine
 10
267.4172568456227
 20
89.24263110059611
 30
0.0
 11
265.9172568456227
 21
89.24263110059611
 31
0.0
  0
LINE
  5
2B5
330
75
100
AcDbEntity
  8
Hidden (ISO)
100
AcDbLine
 10
267.4172568456226
 20
57.7426311005961
 30
0.0
 11
265.9172568456226
 21
57.7426311005961
 31
0.0
  0
LINE
  5
2B6
330
75
100
AcDbEntity
  8
Hidden (ISO)
100
AcDbLine
 10
267.4172568456226
 20
59.74263110059609
 30
0.0
 11
265.9172568456226
 21
59.74263110059609
 31
0.0
  0
LINE
  5
2B7
330
75
100
AcDbEntity
  8
Hidden (ISO)
100
AcDbLine
 10
267.4172568456226
 20
87.24263110059609
 30
0.0
 11
265.9172568456227
 21
87.24263110059609
 31
0.0
  0
LINE
  5
2B8
330
75
100
AcDbEntity
  8
Hidden (ISO)
100
AcDbLine
 10
267.4172568456226
 20
79.74263110059609
 30
0.0
 11
265.9172568456227
 21
79.74263110059609
 31
0.0
  0
LINE
  5
2B9
330
75
100
AcDbEntity
  8
Hidden (ISO)
100
AcDbLine
 10
267.4172568456226
 20
77.74263110059608
 30
0.0
 11
265.9172568456227
 21
77.74263110059608
 31
0.0
  0
LINE
  5
2BA
330
75
100
AcDbEntity
  8
Hidden (ISO)
100
AcDbLine
 10
270.4172568456228
 20
57.74263110059343
 30
0.0
 11
270.4172568456227
 21
50.24263110059344
 31
0.0
  0
LINE
  5
2BB
330
75
100
AcDbEntity
  8
Hidden (ISO)
100
AcDbLine
 10
270.4172568456227
 20
87.24263110059343
 30
0.0
 11
270.4172568456227
 21
79.74263110059343
 31
0.0
  0
LINE
  5
2BC
330
75
100
AcDbEntity
  8
Hidden (ISO)
100
AcDbLine
 10
270.4172568456227
 20
81.24263110059168
 30
0.0
 11
269.2172568456227
 21
81.24263110059168
 31
0.0
  0
LINE
  5
2BD
330
75
100
AcDbEntity
  8
Hidden (ISO)
100
AcDbLine
 10
270.4172568456227
 20
85.74263110059167
 30
0.0
 11
269.2172568456227
 21
85.74263110059167
 31
0.0
  0
LINE
  5
2BE
330
75
100
AcDbEntity
  8
Hidden (ISO)
100
AcDbLine
 10
270.4172568456228
 20
51.74263110059168
 30
0.0
 11
269.2172568456228
 21
51.74263110059168
 31
0.0
  0
LINE
  5
2BF
330
75
100
AcDbEntity
  8
Hidden (ISO)
100
AcDbLine
 10
270.4172568456228
 20
56.24263110059168
 30
0.0
 11
269.2172568456228
 21
56.24263110059168
 31
0.0
  0
LINE
  5
2C0
330
75
100
AcDbEntity
  8
Hidden (ISO)
100
AcDbLine
 10
320.3172568456228
 20
92.74263110060443
 30
0.0
 11
320.3172568456228
 21
94.24263110060444
 31
0.0
  0
LINE
  5
2C1
330
75
100
AcDbEntity
  8
Hidden (ISO)
100
AcDbLine
 10
325.5172568456227
 20
92.74263110060443
 30
0.0
 11
325.5172568456227
 21
94.24263110060444
 31
0.0
  0
LINE
  5
2C2
330
75
100
AcDbEntity
  8
Hidden (ISO)
100
AcDbLine
 10
321.5672568456227
 20
92.74263110059166
 30
0.0
 11
321.5672568456227
 21
94.24263110059165
 31
0.0
  0
LINE
  5
2C3
330
75
100
AcDbEntity
  8
Hidden (ISO)
100
AcDbLine
 10
324.2672568456227
 20
92.74263110059166
 30
0.0
 11
324.2672568456227
 21
94.24263110059165
 31
0.0
  0
LINE
  5
2C4
330
75
100
AcDbEntity
  8
Hidden (ISO)
100
AcDbLine
 10
277.3172568456227
 20
92.74263110060443
 30
0.0
 11
277.3172568456227
 21
94.24263110060444
 31
0.0
  0
LINE
  5
2C5
330
75
100
AcDbEntity
  8
Hidden (ISO)
100
AcDbLine
 10
282.5172568456228
 20
92.74263110060443
 30
0.0
 11
282.5172568456228
 21
94.24263110060444
 31
0.0
  0
LINE
  5
2C6
330
75
100
AcDbEntity
  8
Hidden (ISO)
100
AcDbLine
 10
281.5672568456228
 20
92.74263110059166
 30
0.0
 11
281.5672568456228
 21
94.24263110059165
 31
0.0
  0
LINE
  5
2C7
330
75
100
AcDbEntity
  8
Hidden (ISO)
100
AcDbLine
 10
284.2672568456227
 20
92.74263110059166
 30
0.0
 11
284.2672568456227
 21
94.24263110059165
 31
0.0
  0
LINE
  5
2C8
330
75
100
AcDbEntity
  8
Hidden (ISO)
100
AcDbLine
 10
298.6672568456227
 20
92.74263110058305
 30
0.0
 11
298.6672568456227
 21
94.24263110058305
 31
0.0
  0
LINE
  5
2C9
330
75
100
AcDbEntity
  8
Hidden (ISO)
100
AcDbLine
 10
303.1672568456227
 20
92.74263110058305
 30
0.0
 11
303.1672568456227
 21
94.24263110058305
 31
0.0
  0
ARC
  5
2CA
330
75
100
AcDbEntity
  8
Hidden (ISO)
100
AcDbCircle
 10
270.4172568456228
 20
50.94263110059166
 30
0.0
 40
1.5
100
AcDbArc
 50
0.0
 51
68.96053021868173
  0
ARC
  5
2CB
330
75
100
AcDbEntity
  8
Hidden (ISO)
100
AcDbCircle
 10
270.4172568456228
 20
57.04263110059166
 30
0.0
 40
1.5
100
AcDbArc
 50
291.0394697813182
 51
0.0
  0
ARC
  5
2CC
330
75
100
AcDbEntity
  8
Hidden (ISO)
100
AcDbCircle
 10
270.4172568456227
 20
80.44263110059166
 30
0.0
 40
1.5
100
AcDbArc
 50
0.0
 51
68.96053021868197
  0
ARC
  5
2CD
330
75
100
AcDbEntity
  8
Hidden (ISO)
100
AcDbCircle
 10
270.4172568456227
 20
86.54263110059165
 30
0.0
 40
1.5
100
AcDbArc
 50
291.0394697813183
 51
0.0
  0
LINE
  5
2CE
330
75
100
AcDbEntity
  8
Visible (ISO)
100
AcDbLine
 10
271.9172568456227
 20
94.24263110060147
 30
0.0
 11
268.4172568456227
 21
94.24263110060147
 31
0.0
  0
LINE
  5
2CF
330
75
100
AcDbEntity
  8
Visible (ISO)
100
AcDbLine
 10
271.9172568456227
 20
94.24263110060534
 30
0.0
 11
273.9172568456228
 21
94.24263110060593
 31
0.0
  0
LINE
  5
2D0
330
75
100
AcDbEntity
  8
Visible (ISO)
100
AcDbLine
 10
285.9172568456227
 20
94.24263110060593
 30
0.0
 11
273.9172568456228
 21
94.24263110060593
 31
0.0
  0
LINE
  5
2D1
330
75
100
AcDbEntity
  8
Visible (ISO)
100
AcDbLine
 10
285.9172568456227
 20
94.24263110060593
 30
0.0
 11
287.9172568456227
 21
94.24263110060534
 31
0.0
  0
LINE
  5
2D2
330
75
100
AcDbEntity
  8
Visible (ISO)
100
AcDbLine
 10
314.9172568456227
 20
94.2426311006028
 30
0.0
 11
287.9172568456227
 21
94.2426311006028
 31
0.0
  0
LINE
  5
2D3
330
75
100
AcDbEntity
  8
Visible (ISO)
100
AcDbLine
 10
314.9172568456227
 20
94.24263110060534
 30
0.0
 11
316.9172568456228
 21
94.24263110060593
 31
0.0
  0
LINE
  5
2D4
330
75
100
AcDbEntity
  8
Visible (ISO)
100
AcDbLine
 10
328.9172568456228
 20
94.24263110060593
 30
0.0
 11
316.9172568456228
 21
94.24263110060593
 31
0.0
  0
LINE
  5
2D5
330
75
100
AcDbEntity
  8
Visible (ISO)
100
AcDbLine
 10
328.9172568456228
 20
94.24263110060593
 30
0.0
 11
330.9172568456227
 21
94.24263110060534
 31
0.0
  0
LINE
  5
2D6
330
75
100
AcDbEntity
  8
Visible (ISO)
100
AcDbLine
 10
330.9172568456227
 20
92.74263110060534
 30
0.0
 11
328.9172568456228
 21
92.74263110060593
 31
0.0
  0
LINE
  5
2D7
330
75
100
AcDbEntity
  8
Visible (ISO)
100
AcDbLine
 10
328.9172568456228
 20
92.74263110060593
 30
0.0
 11
316.9172568456228
 21
92.74263110060593
 31
0.0
  0
LINE
  5
2D8
330
75
100
AcDbEntity
  8
Visible (ISO)
100
AcDbLine
 10
316.9172568456228
 20
92.74263110060593
 30
0.0
 11
314.9172568456227
 21
92.74263110060534
 31
0.0
  0
LINE
  5
2D9
330
75
100
AcDbEntity
  8
Visible (ISO)
100
AcDbLine
 10
314.9172568456227
 20
92.74263110060282
 30
0.0
 11
287.9172568456227
 21
92.74263110060282
 31
0.0
  0
LINE
  5
2DA
330
75
100
AcDbEntity
  8
Visible (ISO)
100
AcDbLine
 10
287.9172568456227
 20
92.74263110060534
 30
0.0
 11
285.9172568456227
 21
92.74263110060593
 31
0.0
  0
LINE
  5
2DB
330
75
100
AcDbEntity
  8
Visible (ISO)
100
AcDbLine
 10
285.9172568456227
 20
92.74263110060593
 30
0.0
 11
273.9172568456227
 21
92.74263110060593
 31
0.0
  0
LINE
  5
2DC
330
75
100
AcDbEntity
  8
Visible (ISO)
100
AcDbLine
 10
273.9172568456227
 20
92.74263110060593
 30
0.0
 11
271.9172568456227
 21
92.74263110060534
 31
0.0
  0
LINE
  5
2DD
330
75
100
AcDbEntity
  8
Visible (ISO)
100
AcDbLine
 10
271.9172568456227
 20
92.74263110060147
 30
0.0
 11
268.4172568456227
 21
92.74263110060147
 31
0.0
  0
LINE
  5
2DE
330
75
100
AcDbEntity
  8
Visible (ISO)
100
AcDbLine
 10
314.9172568456227
 20
92.74263110060534
 30
0.0
 11
314.9172568456227
 21
94.24263110060534
 31
0.0
  0
LINE
  5
2DF
330
75
100
AcDbEntity
  8
Visible (ISO)
100
AcDbLine
 10
271.9172568456227
 20
92.74263110060534
 30
0.0
 11
271.9172568456227
 21
94.24263110060534
 31
0.0
  0
LINE
  5
2E0
330
75
100
AcDbEntity
  8
Visible (ISO)
100
AcDbLine
 10
273.9172568456228
 20
94.24263110060593
 30
0.0
 11
273.9172568456227
 21
92.74263110060593
 31
0.0
  0
LINE
  5
2E1
330
75
100
AcDbEntity
  8
Visible (ISO)
100
AcDbLine
 10
316.9172568456228
 20
94.24263110060593
 30
0.0
 11
316.9172568456228
 21
92.74263110060593
 31
0.0
  0
LINE
  5
2E2
330
75
100
AcDbEntity
  8
Visible (ISO)
100
AcDbLine
 10
328.9172568456228
 20
92.74263110060593
 30
0.0
 11
328.9172568456228
 21
94.24263110060593
 31
0.0
  0
ARC
  5
2E3
330
75
100
AcDbEntity
  8
Visible (ISO)
100
AcDbCircle
 10
268.4172568456227
 20
91.74263110060147
 30
0.0
 40
2.499999999999999
100
AcDbArc
 50
90.0
 51
180.0
  0
LINE
  5
2E4
330
75
100
AcDbEntity
  8
Visible (ISO)
100
AcDbLine
 10
287.9172568456227
 20
94.24263110060534
 30
0.0
 11
287.9172568456227
 21
92.74263110060534
 31
0.0
  0
LINE
  5
2E5
330
75
100
AcDbEntity
  8
Visible (ISO)
100
AcDbLine
 10
285.9172568456227
 20
92.74263110060593
 30
0.0
 11
285.9172568456227
 21
94.24263110060593
 31
0.0
  0
LINE
  5
2E6
330
75
100
AcDbEntity
  8
Visible (ISO)
100
AcDbLine
 10
330.9172568456227
 20
94.24263110060534
 30
0.0
 11
330.9172568456227
 21
92.74263110060534
 31
0.0
  0
ARC
  5
2E7
330
75
100
AcDbEntity
  8
Visible (ISO)
100
AcDbCircle
 10
268.4172568456227
 20
91.74263110060147
 30
0.0
 40
1.000000000000001
100
AcDbArc
 50
90.0
 51
180.0
  0
LINE
  5
2E8
330
75
100
AcDbEntity
  8
Visible (ISO)
100
AcDbLine
 10
265.9172568456225
 20
50.24263110060148
 30
0.0
 11
265.9172568456227
 21
91.74263110060151
 31
0.0
  0
LINE
  5
2E9
330
75
100
AcDbEntity
  8
Visible (ISO)
100
AcDbLine
 10
267.4172568456226
 20
50.24263110060147
 30
0.0
 11
267.4172568456227
 21
91.74263110060147
 31
0.0
  0
LINE
  5
2EA
330
75
100
AcDbEntity
  8
Visible (ISO)
100
AcDbLine
 10
267.4172568456226
 20
50.24263110060147
 30
0.0
 11
265.9172568456225
 21
50.24263110060148
 31
0.0
  0
LINE
  5
2EB
330
75
100
AcDbEntity
  8
Visible (ISO)
100
AcDbLine
 10
267.7101500644363
 20
57.742631100595
 30
0.0
 11
267.4172568456228
 21
57.74263110059521
 31
0.0
  0
LINE
  5
2EC
330
75
100
AcDbEntity
  8
Visible (ISO)
100
AcDbLine
 10
271.1850237985891
 20
57.74263110059395
 30
0.0
 11
267.7101500644362
 21
57.74263110059501
 31
0.0
  0
LINE
  5
2ED
330
75
100
AcDbEntity
  8
Visible (ISO)
100
AcDbLine
 10
271.1850237985891
 20
57.74263110059394
 30
0.0
 11
271.9172568456228
 21
57.74263110059343
 31
0.0
  0
LINE
  5
2EE
330
75
100
AcDbEntity
  8
Visible (ISO)
100
AcDbLine
 10
271.1850237985891
 20
50.24263110059397
 30
0.0
 11
271.9172568456228
 21
50.24263110059344
 31
0.0
  0
LINE
  5
2EF
330
75
100
AcDbEntity
  8
Visible (ISO)
100
AcDbLine
 10
271.1850237985891
 20
50.24263110059395
 30
0.0
 11
267.7101500644362
 21
50.242631100595
 31
0.0
  0
LINE
  5
2F0
330
75
100
AcDbEntity
  8
Visible (ISO)
100
AcDbLine
 10
267.7101500644362
 20
50.24263110059499
 30
0.0
 11
267.4172568456227
 21
50.2426311005952
 31
0.0
  0
LINE
  5
2F1
330
75
100
AcDbEntity
  8
Visible (ISO)
100
AcDbLine
 10
271.1850237985891
 20
79.74263110059396
 30
0.0
 11
271.9172568456226
 21
79.74263110059344
 31
0.0
  0
LINE
  5
2F2
330
75
100
AcDbEntity
  8
Visible (ISO)
100
AcDbLine
 10
271.1850237985891
 20
79.74263110059395
 30
0.0
 11
267.7101500644361
 21
79.74263110059499
 31
0.0
  0
LINE
  5
2F3
330
75
100
AcDbEntity
  8
Visible (ISO)
100
AcDbLine
 10
267.7101500644361
 20
79.74263110059499
 30
0.0
 11
267.4172568456226
 21
79.74263110059522
 31
0.0
  0
LINE
  5
2F4
330
75
100
AcDbEntity
  8
Visible (ISO)
100
AcDbLine
 10
267.7101500644362
 20
87.24263110059499
 30
0.0
 11
267.4172568456226
 21
87.24263110059522
 31
0.0
  0
LINE
  5
2F5
330
75
100
AcDbEntity
  8
Visible (ISO)
100
AcDbLine
 10
271.1850237985891
 20
87.24263110059396
 30
0.0
 11
267.7101500644361
 21
87.24263110059499
 31
0.0
  0
LINE
  5
2F6
330
75
100
AcDbEntity
  8
Visible (ISO)
100
AcDbLine
 10
271.1850237985891
 20
87.24263110059396
 30
0.0
 11
271.9172568456227
 21
87.24263110059343
 31
0.0
  0
LINE
  5
2F7
330
75
100
AcDbEntity
  8
Visible (ISO)
100
AcDbLine
 10
271.9172568456228
 20
57.74263110059343
 30
0.0
 11
271.9172568456228
 21
50.24263110059344
 31
0.0
  0
LINE
  5
2F8
330
75
100
AcDbEntity
  8
Visible (ISO)
100
AcDbLine
 10
271.9172568456227
 20
87.24263110059343
 30
0.0
 11
271.9172568456226
 21
79.74263110059343
 31
0.0
  0
ELLIPSE
  5
2F9
330
75
100
AcDbEntity
  8
Visible (ISO)
100
AcDbEllipse
 10
69.26335540676297
 20
250.8134247838057
 30
0.0
 11
0.823403149113901
 21
1.429862669639751
 31
0.0
210
0.0
220
0.0
230
1.0
 40
0.5780931159156389
 41
2.881066455884215
 42
6.543711504885156
  0
ELLIPSE
  5
2FA
330
75
100
AcDbEntity
  8
Visible (ISO)
100
AcDbEllipse
 10
68.03403861404577
 20
251.5213412431094
 30
0.0
 11
0.8234031491138066
 21
1.429862669639784
 31
0.0
210
0.0
220
0.0
230
1.0
 40
0.578093115915639
 41
4.170364932779371
 42
5.254413027989782
  0
ELLIPSE
  5
2FB
330
75
100
AcDbEntity
  8
Visible (ISO)
100
AcDbEllipse
 10
69.26335540676297
 20
211.0806345164582
 30
0.0
 11
0.823403149113901
 21
1.42986266963975
 31
0.0
210
0.0
220
0.0
230
0.9999999999999998
 40
0.5780931159156389
 41
2.881066455884216
 42
6.543711504885179
  0
ELLIPSE
  5
2FC
330
75
100
AcDbEntity
  8
Visible (ISO)
100
AcDbEllipse
 10
68.03403861404575
 20
211.7885509757619
 30
0.0
 11
0.8234031491138113
 21
1.429862669639792
 31
0.0
210
0.0
220
0.0
230
0.9999999999999998
 40
0.5780931159156392
 41
4.170364932779358
 42
5.25441302798978
  0
ELLIPSE
  5
2FD
330
75
100
AcDbEntity
  8
Visible (ISO)
100
AcDbEllipse
 10
48.40370536176298
 20
199.0683609595825
 30
0.0
 11
0.8234031491139008
 21
1.42986266963975
 31
0.0
210
0.0
220
0.0
230
0.9999999999999998
 40
0.578093115915639
 41
2.881066455884223
 42
6.543711504885156
  0
ELLIPSE
  5
2FE
330
75
100
AcDbEntity
  8
Visible (ISO)
100
AcDbEllipse
 10
47.17438856904578
 20
199.7762774188863
 30
0.0
 11
0.823403149113807
 21
1.429862669639784
 31
0.0
210
0.0
220
0.0
230
1.0
 40
0.5780931159156389
 41
4.170364932779346
 42
5.254413027989782
  0
ELLIPSE
  5
2FF
330
75
100
AcDbEntity
  8
Visible (ISO)
100
AcDbEllipse
 10
48.40370536176296
 20
238.80115122693
 30
0.0
 11
0.8234031491138997
 21
1.429862669639748
 31
0.0
210
0.0
220
0.0
230
1.0
 40
0.578093115915639
 41
2.881066455884223
 42
6.543711504885156
  0
ELLIPSE
  5
300
330
75
100
AcDbEntity
  8
Visible (ISO)
100
AcDbEllipse
 10
47.17438856904577
 20
239.5090676862338
 30
0.0
 11
0.8234031491138139
 21
1.429862669639796
 31
0.0
210
0.0
220
0.0
230
1.0
 40
0.578093115915639
 41
4.170364932779353
 42
5.254413027989778
  0
LINE
  5
301
330
75
100
AcDbEntity
  8
Visible (ISO)
100
AcDbLine
 10
106.8895562402504
 20
159.0938353278251
 30
0.0
 11
108.3037698026237
 21
156.6443496505555
 31
0.0
  0
LINE
  5
302
330
75
100
AcDbEntity
  8
Visible (ISO)
100
AcDbLine
 10
88.85833331999041
 20
170.6989131709051
 30
0.0
 11
88.85833331999041
 21
176.4264765906899
 31
0.0
  0
LINE
  5
303
330
75
100
AcDbEntity
  8
Visible (ISO)
100
AcDbLine
 10
88.85833331999041
 20
170.6989131709051
 30
0.0
 11
87.44411975761709
 21
169.8782103488046
 31
0.0
  0
LINE
  5
304
330
75
100
AcDbEntity
  8
Visible (ISO)
100
AcDbLine
 10
76.48396464922431
 20
282.4708701421148
 30
0.0
 11
75.06975108685067
 21
283.2852615696996
 31
0.0
  0
LINE
  5
305
330
75
100
AcDbEntity
  8
Visible (ISO)
100
AcDbLine
 10
87.4441197576171
 20
288.4225434509728
 30
0.0
 11
78.95883838337727
 21
293.3088920164802
 31
0.0
  0
LINE
  5
306
330
75
100
AcDbEntity
  8
Visible (ISO)
100
AcDbLine
 10
87.4441197576171
 20
288.4225434509728
 30
0.0
 11
88.85833331999041
 21
285.9730577737032
 31
0.0
  0
LINE
  5
307
330
75
100
AcDbEntity
  8
Visible (ISO)
100
AcDbLine
 10
88.85833331999041
 20
279.0239072125416
 30
0.0
 11
88.85833331999041
 21
285.9730577737032
 31
0.0
  0
LINE
  5
308
330
75
100
AcDbEntity
  8
Visible (ISO)
100
AcDbLine
 10
106.8895562402503
 20
268.6404165108385
 30
0.0
 11
88.85833331999041
 21
279.0239072125416
 31
0.0
  0
LINE
  5
309
330
75
100
AcDbEntity
  8
Visible (ISO)
100
AcDbLine
 10
117.8497113486431
 20
270.9131277579051
 30
0.0
 11
109.3644299744033
 21
275.7994763234123
 31
0.0
  0
LINE
  5
30A
330
75
100
AcDbEntity
  8
Visible (ISO)
100
AcDbLine
 10
117.8497113486431
 20
270.9131277579051
 30
0.0
 11
119.2639249110164
 21
268.4636420806355
 31
0.0
  0
LINE
  5
30B
330
75
100
AcDbEntity
  8
Visible (ISO)
100
AcDbLine
 10
119.2639249110165
 20
153.1894974778374
 30
0.0
 11
119.2639249110164
 21
268.4636420806355
 31
0.0
  0
LINE
  5
30C
330
75
100
AcDbEntity
  8
Visible (ISO)
100
AcDbLine
 10
119.2639249110165
 20
153.1894974778374
 30
0.0
 11
117.8497113486431
 21
152.3687946557368
 31
0.0
  0
ELLIPSE
  5
30D
330
75
100
AcDbEntity
  8
Visible (ISO)
100
AcDbEllipse
 10
83.20147907049717
 20
286.7779821095138
 30
0.0
 11
-1.297483750119321
 21
2.253116933977537
 31
0.0
210
0.0
220
0.0
230
1.0
 40
0.5780931159158107
 41
0.4193421108859346
 42
2.72225054270469
  0
ELLIPSE
  5
30E
330
75
100
AcDbEntity
  8
Visible (ISO)
100
AcDbEllipse
 10
113.6070706615232
 20
269.2685664164461
 30
0.0
 11
-1.29748375011932
 21
2.253116933977535
 31
0.0
210
0.0
220
0.0
230
1.0
 40
0.5780931159158107
 41
0.4193421108859337
 42
2.72225054270469
  0
ELLIPSE
  5
30F
330
75
100
AcDbEntity
  8
Visible (ISO)
100
AcDbEllipse
 10
113.6070706615232
 20
158.8997045627032
 30
0.0
 11
-1.297483750119323
 21
2.253116933977541
 31
0.0
210
0.0
220
0.0
230
1.0
 40
0.5780931159158106
 41
0.4193421108859497
 42
2.72225054270469
  0
LINE
  5
310
330
75
100
AcDbEntity
  8
Visible (ISO)
100
AcDbLine
 10
82.49437228931055
 20
216.1648590882346
 30
0.0
 11
82.49437228931055
 21
216.4148567715744
 31
0.0
  0
LINE
  5
311
330
75
100
AcDbEntity
  8
Visible (ISO)
100
AcDbLine
 10
87.09056636702412
 20
213.5180869485846
 30
0.0
 11
82.49437228931055
 21
216.1648590882346
 31
0.0
  0
LINE
  5
312
330
75
100
AcDbEntity
  8
Visible (ISO)
100
AcDbLine
 10
110.7786435367766
 20
199.8770305365436
 30
0.0
 11
110.7786435367766
 21
200.1270282198834
 31
0.0
  0
LINE
  5
313
330
75
100
AcDbEntity
  8
Visible (ISO)
100
AcDbLine
 10
115.3748376144902
 20
197.2302583968937
 30
0.0
 11
110.7786435367766
 21
199.8770305365436
 31
0.0
  0
ELLIPSE
  5
314
330
75
100
AcDbEntity
  8
Visible (ISO)
100
AcDbEllipse
 10
85.32279941405716
 20
250.3201138874235
 30
0.0
 11
-0.6736934856388727
 21
1.169887638796018
 31
0.0
210
0.0
220
0.0
230
0.9999999999999998
 40
0.5780931159158106
 41
0.9013402729254007
 42
2.240252380664738
  0
ELLIPSE
  5
315
330
75
100
AcDbEntity
  8
Visible (ISO)
100
AcDbEllipse
 10
85.32279941405716
 20
210.587323620076
 30
0.0
 11
-0.6736934856388768
 21
1.169887638796026
 31
0.0
210
0.0
220
0.0
230
1.0
 40
0.5780931159158106
 41
0.9013402729254087
 42
2.240252380664756
  0
ELLIPSE
  5
316
330
75
100
AcDbEntity
  8
Visible (ISO)
100
AcDbEllipse
 10
113.6070706615232
 20
234.0322853357326
 30
0.0
 11
-0.6736934856388796
 21
1.169887638796031
 31
0.0
210
0.0
220
0.0
230
1.0
 40
0.5780931159158107
 41
0.9013402729254087
 42
2.240252380664738
  0
ELLIPSE
  5
317
330
75
100
AcDbEntity
  8
Visible (ISO)
100
AcDbEllipse
 10
113.6070706615232
 20
194.2994950683851
 30
0.0
 11
-0.673693485638872
 21
1.169887638796018
 31
0.0
210
0.0
220
0.0
230
1.0
 40
0.5780931159158105
 41
0.9013402729254016
 42
2.240252380664738
  0
ELLIPSE
  5
318
330
75
100
AcDbEntity
  8
Visible (ISO)
100
AcDbEllipse
 10
98.05072147541691
 20
219.2817244187289
 30
0.0
 11
-1.122822476064794
 21
1.94981273132671
 31
0.0
210
0.0
220
0.0
230
1.0
 40
0.5780931159158105
 41
0.489852342184963
 42
2.651740311405601
  0
LINE
  5
319
330
75
100
AcDbEntity
  8
Visible (ISO)
100
AcDbLine
 10
96.49508655680627
 20
195.4876318188272
 30
0.0
 11
96.49508655680627
 21
197.8632520267576
 31
0.0
  0
LINE
  5
31A
330
75
100
AcDbEntity
  8
Visible (ISO)
100
AcDbLine
 10
98.54569622224786
 20
194.3067642488294
 30
0.0
 11
96.49508655680627
 21
195.4876318188272
 31
0.0
  0
LINE
  5
31B
330
75
100
AcDbEntity
  8
Visible (ISO)
100
AcDbLine
 10
95.08087299443294
 20
208.7287395440184
 30
0.0
 11
95.08087299443294
 21
211.9219068767913
 31
0.0
  0
LINE
  5
31C
330
75
100
AcDbEntity
  8
Visible (ISO)
100
AcDbLine
 10
96.49508655680627
 20
206.2792538667487
 30
0.0
 11
95.08087299443294
 21
208.7287395440184
 31
0.0
  0
LINE
  5
31D
330
75
100
AcDbEntity
  8
Visible (ISO)
100
AcDbLine
 10
96.49508655680627
 20
200.7199334178195
 30
0.0
 11
96.49508655680627
 21
206.2792538667487
 31
0.0
  0
LINE
  5
31E
330
75
100
AcDbEntity
  8
Visible (ISO)
100
AcDbLine
 10
98.54569622224786
 20
199.5390658478217
 30
0.0
 11
96.49508655680627
 21
200.7199334178195
 31
0.0
  0
LINE
  5
31F
330
75
100
AcDbEntity
  8
Visible (ISO)
100
AcDbLine
 10
95.08087299443294
 20
263.5043969084685
 30
0.0
 11
95.08087299443294
 21
266.6975642412415
 31
0.0
  0
LINE
  5
320
330
75
100
AcDbEntity
  8
Visible (ISO)
100
AcDbLine
 10
96.49508655680627
 20
261.054911231199
 30
0.0
 11
95.08087299443294
 21
263.5043969084685
 31
0.0
  0
LINE
  5
321
330
75
100
AcDbEntity
  8
Visible (ISO)
100
AcDbLine
 10
96.49508655680627
 20
255.4955907822696
 30
0.0
 11
96.49508655680627
 21
261.054911231199
 31
0.0
  0
LINE
  5
322
330
75
100
AcDbEntity
  8
Visible (ISO)
100
AcDbLine
 10
98.54569622224786
 20
254.3147232122719
 30
0.0
 11
96.49508655680627
 21
255.4955907822696
 31
0.0
  0
ELLIPSE
  5
323
330
75
100
AcDbEntity
  8
Visible (ISO)
100
AcDbEllipse
 10
83.20147907049717
 20
176.5726296807394
 30
0.0
 11
-1.297483750119321
 21
2.253116933977537
 31
0.0
210
0.0
220
0.0
230
1.0
 40
0.5780931159158105
 41
0.4193421108859346
 42
2.72225054270469
  0
LINE
  5
324
330
75
100
AcDbEntity
  8
Visible (ISO)
100
AcDbLine
 10
106.8895562402503
 20
166.0429858889867
 30
0.0
 11
106.8895562402504
 21
159.0938353278251
 31
0.0
  0
LINE
  5
325
330
75
100
AcDbEntity
  8
Visible (ISO)
100
AcDbLine
 10
108.3037698026237
 20
156.6443496505555
 30
0.0
 11
116.7890511768634
 21
151.7580010850483
 31
0.0
  0
LINE
  5
326
330
75
100
AcDbEntity
  8
Visible (ISO)
100
AcDbLine
 10
116.7890511768634
 20
151.7580010850483
 30
0.0
 11
118.2032647392368
 21
152.5787039071488
 31
0.0
  0
LINE
  5
327
330
75
100
AcDbEntity
  8
Visible (ISO)
100
AcDbLine
 10
118.2032647392368
 20
152.5787039071488
 30
0.0
 11
118.2032647392368
 21
267.8528485099469
 31
0.0
  0
LINE
  5
328
330
75
100
AcDbEntity
  8
Visible (ISO)
100
AcDbLine
 10
118.2032647392368
 20
267.8528485099469
 30
0.0
 11
116.7890511768635
 21
270.3023341872165
 31
0.0
  0
LINE
  5
329
330
75
100
AcDbEntity
  8
Visible (ISO)
100
AcDbLine
 10
116.7890511768635
 20
270.3023341872165
 30
0.0
 11
108.3037698026236
 21
275.1886827527238
 31
0.0
  0
LINE
  5
32A
330
75
100
AcDbEntity
  8
Visible (ISO)
100
AcDbLine
 10
108.3037698026236
 20
275.1886827527238
 30
0.0
 11
106.8895562402503
 21
274.3679799306232
 31
0.0
  0
LINE
  5
32B
330
75
100
AcDbEntity
  8
Visible (ISO)
100
AcDbLine
 10
106.8895562402503
 20
274.3679799306232
 30
0.0
 11
106.8895562402503
 21
267.4188293694617
 31
0.0
  0
LINE
  5
32C
330
75
100
AcDbEntity
  8
Visible (ISO)
100
AcDbLine
 10
106.8895562402503
 20
267.4188293694617
 30
0.0
 11
87.79767314821075
 21
278.4131136418531
 31
0.0
  0
LINE
  5
32D
330
75
100
AcDbEntity
  8
Visible (ISO)
100
AcDbLine
 10
87.79767314821075
 20
278.4131136418531
 30
0.0
 11
87.79767314821075
 21
285.3622642030146
 31
0.0
  0
LINE
  5
32E
330
75
100
AcDbEntity
  8
Visible (ISO)
100
AcDbLine
 10
87.79767314821075
 20
285.3622642030146
 30
0.0
 11
86.38345958583744
 21
287.8117498802843
 31
0.0
  0
LINE
  5
32F
330
75
100
AcDbEntity
  8
Visible (ISO)
100
AcDbLine
 10
86.38345958583744
 20
287.8117498802843
 30
0.0
 11
77.89817821159759
 21
292.6980984457916
 31
0.0
  0
LINE
  5
330
330
75
100
AcDbEntity
  8
Visible (ISO)
100
AcDbLine
 10
77.89817821159759
 20
292.6980984457916
 30
0.0
 11
76.48396464922431
 21
291.877395623691
 31
0.0
  0
LINE
  5
331
330
75
100
AcDbEntity
  8
Visible (ISO)
100
AcDbLine
 10
76.48396464922431
 20
291.877395623691
 30
0.0
 11
76.48396464922431
 21
281.249283000738
 31
0.0
  0
LINE
  5
332
330
75
100
AcDbEntity
  8
Visible (ISO)
100
AcDbLine
 10
76.48396464922431
 20
281.249283000738
 30
0.0
 11
74.00909091507101
 21
282.674467999011
 31
0.0
  0
LINE
  5
333
330
75
100
AcDbEntity
  8
Visible Narrow (ISO)
100
AcDbLine
 10
74.00909091507102
 20
188.6565486421188
 30
0.0
 11
74.00909091507101
 21
282.674467999011
 31
0.0
  0
LINE
  5
334
330
75
100
AcDbEntity
  8
Visible (ISO)
100
AcDbLine
 10
74.00909091507102
 20
188.6565486421188
 30
0.0
 11
76.48396464922431
 21
187.2313636438459
 31
0.0
  0
LINE
  5
335
330
75
100
AcDbEntity
  8
Visible (ISO)
100
AcDbLine
 10
76.48396464922431
 20
187.2313636438459
 30
0.0
 11
76.48396464922431
 21
176.6032510208929
 31
0.0
  0
LINE
  5
336
330
75
100
AcDbEntity
  8
Visible (ISO)
100
AcDbLine
 10
76.48396464922431
 20
176.6032510208929
 30
0.0
 11
77.89817821159757
 21
174.1537653436233
 31
0.0
  0
LINE
  5
337
330
75
100
AcDbEntity
  8
Visible (ISO)
100
AcDbLine
 10
77.89817821159757
 20
174.1537653436233
 30
0.0
 11
86.38345958583739
 21
169.267416778116
 31
0.0
  0
LINE
  5
338
330
75
100
AcDbEntity
  8
Visible (ISO)
100
AcDbLine
 10
86.38345958583739
 20
169.267416778116
 30
0.0
 11
87.79767314821075
 21
170.0881196002165
 31
0.0
  0
LINE
  5
339
330
75
100
AcDbEntity
  8
Visible (ISO)
100
AcDbLine
 10
87.79767314821075
 20
170.0881196002165
 30
0.0
 11
87.79767314821073
 21
177.0372701613781
 31
0.0
  0
LINE
  5
33A
330
75
100
AcDbEntity
  8
Visible (ISO)
100
AcDbLine
 10
87.79767314821073
 20
177.0372701613781
 30
0.0
 11
106.8895562402503
 21
166.0429858889867
 31
0.0
  0
ELLIPSE
  5
33B
330
75
100
AcDbEntity
  8
Visible (ISO)
100
AcDbEllipse
 10
82.14081889871751
 20
175.9618361100508
 30
0.0
 11
1.297483750119319
 21
-2.253116933977535
 31
0.0
210
0.0
220
0.0
230
1.0
 40
0.5780931159158106
 41
0.0
 42
6.283185307179586
  0
ELLIPSE
  5
33C
330
75
100
AcDbEntity
  8
Visible (ISO)
100
AcDbEllipse
 10
82.14081889871751
 20
286.1671885388252
 30
0.0
 11
1.297483750119319
 21
-2.253116933977535
 31
0.0
210
0.0
220
0.0
230
1.0
 40
0.5780931159158106
 41
0.0
 42
6.283185307179586
  0
ELLIPSE
  5
33D
330
75
100
AcDbEntity
  8
Visible (ISO)
100
AcDbEllipse
 10
112.5464104897436
 20
268.6577728457574
 30
0.0
 11
1.297483750119319
 21
-2.253116933977535
 31
0.0
210
0.0
220
0.0
230
1.0
 40
0.5780931159158106
 41
0.0
 42
6.283185307179586
  0
ELLIPSE
  5
33E
330
75
100
AcDbEntity
  8
Visible (ISO)
100
AcDbEllipse
 10
112.5464104897436
 20
158.2889109920146
 30
0.0
 11
1.297483750119319
 21
-2.253116933977535
 31
0.0
210
0.0
220
0.0
230
1.0
 40
0.5780931159158106
 41
0.0
 42
6.283185307179586
  0
LINE
  5
33F
330
75
100
AcDbEntity
  8
Visible (ISO)
100
AcDbLine
 10
81.43371211753089
 20
215.554065517546
 30
0.0
 11
81.43371211753089
 21
217.0256503422625
 31
0.0
  0
LINE
  5
340
330
75
100
AcDbEntity
  8
Visible (ISO)
100
AcDbLine
 10
81.43371211753089
 20
217.0256503422625
 30
0.0
 11
87.09056636702412
 21
213.7680846319244
 31
0.0
  0
LINE
  5
341
330
75
100
AcDbEntity
  8
Visible (ISO)
100
AcDbLine
 10
87.09056636702412
 20
213.7680846319244
 30
0.0
 11
87.09056636702412
 21
212.2964998072078
 31
0.0
  0
LINE
  5
342
330
75
100
AcDbEntity
  8
Visible (ISO)
100
AcDbLine
 10
87.09056636702412
 20
212.2964998072078
 30
0.0
 11
81.43371211753089
 21
215.554065517546
 31
0.0
  0
LINE
  5
343
330
75
100
AcDbEntity
  8
Visible (ISO)
100
AcDbLine
 10
109.717983364997
 20
199.2662369658551
 30
0.0
 11
109.717983364997
 21
200.7378217905717
 31
0.0
  0
LINE
  5
344
330
75
100
AcDbEntity
  8
Visible (ISO)
100
AcDbLine
 10
109.717983364997
 20
200.7378217905717
 30
0.0
 11
115.3748376144902
 21
197.4802560802334
 31
0.0
  0
LINE
  5
345
330
75
100
AcDbEntity
  8
Visible (ISO)
100
AcDbLine
 10
115.3748376144902
 20
197.4802560802334
 30
0.0
 11
115.3748376144902
 21
196.0086712555169
 31
0.0
  0
LINE
  5
346
330
75
100
AcDbEntity
  8
Visible (ISO)
100
AcDbLine
 10
115.3748376144902
 20
196.0086712555169
 30
0.0
 11
109.717983364997
 21
199.2662369658551
 31
0.0
  0
ELLIPSE
  5
347
330
75
100
AcDbEntity
  8
Visible (ISO)
100
AcDbEllipse
 10
84.2621392422775
 20
249.7093203167349
 30
0.0
 11
0.6736934856388756
 21
-1.169887638796023
 31
0.0
210
0.0
220
0.0
230
1.0
 40
0.5780931159158107
 41
0.0
 42
6.283185307179586
  0
ELLIPSE
  5
348
330
75
100
AcDbEntity
  8
Visible (ISO)
100
AcDbEllipse
 10
84.2621392422775
 20
209.9765300493874
 30
0.0
 11
0.673693485638877
 21
-1.169887638796026
 31
0.0
210
0.0
220
0.0
230
1.0
 40
0.5780931159158107
 41
0.0
 42
6.283185307179586
  0
ELLIPSE
  5
349
330
75
100
AcDbEntity
  8
Visible (ISO)
100
AcDbEllipse
 10
112.5464104897436
 20
233.4214917650439
 30
0.0
 11
0.6736934856388756
 21
-1.169887638796023
 31
0.0
210
0.0
220
0.0
230
1.0
 40
0.5780931159158107
 41
0.0
 42
6.283185307179586
  0
ELLIPSE
  5
34A
330
75
100
AcDbEntity
  8
Visible (ISO)
100
AcDbEllipse
 10
112.5464104897436
 20
193.6887014976965
 30
0.0
 11
0.673693485638877
 21
-1.169887638796026
 31
0.0
210
0.0
220
0.0
230
1.0
 40
0.5780931159158107
 41
0.0
 42
6.283185307179586
  0
ELLIPSE
  5
34B
330
75
100
AcDbEntity
  8
Visible (ISO)
100
AcDbEllipse
 10
96.99006130363722
 20
218.6709308480403
 30
0.0
 11
1.122822476064911
 21
-1.949812731326644
 31
0.0
210
0.0
220
0.0
230
1.0
 40
0.5780931159158105
 41
0.0
 42
6.283185307179586
  0
LINE
  5
34C
330
75
100
AcDbEntity
  8
Visible (ISO)
100
AcDbLine
 10
95.43442638502659
 20
194.8768382481386
 30
0.0
 11
98.54569622224786
 21
193.0851771074526
 31
0.0
  0
LINE
  5
34D
330
75
100
AcDbEntity
  8
Visible (ISO)
100
AcDbLine
 10
95.43442638502659
 20
198.4740455974458
 30
0.0
 11
95.43442638502659
 21
194.8768382481386
 31
0.0
  0
LINE
  5
34E
330
75
100
AcDbEntity
  8
Visible (ISO)
100
AcDbLine
 10
98.54569622224786
 20
196.6823844567598
 30
0.0
 11
95.43442638502659
 21
198.4740455974458
 31
0.0
  0
LINE
  5
34F
330
75
100
AcDbEntity
  8
Visible (ISO)
100
AcDbLine
 10
98.54569622224786
 20
193.0851771074526
 30
0.0
 11
98.54569622224786
 21
196.6823844567598
 31
0.0
  0
LINE
  5
350
330
75
100
AcDbEntity
  8
Visible (ISO)
100
AcDbLine
 10
94.02021282265328
 20
212.5327004474795
 30
0.0
 11
94.02021282265328
 21
208.1179459733298
 31
0.0
  0
LINE
  5
351
330
75
100
AcDbEntity
  8
Visible (ISO)
100
AcDbLine
 10
99.95990978462117
 20
209.1122564516244
 30
0.0
 11
94.02021282265328
 21
212.5327004474795
 31
0.0
  0
LINE
  5
352
330
75
100
AcDbEntity
  8
Visible (ISO)
100
AcDbLine
 10
99.95990978462117
 20
204.6975019774747
 30
0.0
 11
99.95990978462117
 21
209.1122564516244
 31
0.0
  0
LINE
  5
353
330
75
100
AcDbEntity
  8
Visible (ISO)
100
AcDbLine
 10
98.54569622224786
 20
203.8767991553742
 30
0.0
 11
99.95990978462117
 21
204.6975019774747
 31
0.0
  0
LINE
  5
354
330
75
100
AcDbEntity
  8
Visible (ISO)
100
AcDbLine
 10
98.54569622224786
 20
198.3174787064449
 30
0.0
 11
98.54569622224786
 21
203.8767991553742
 31
0.0
  0
LINE
  5
355
330
75
100
AcDbEntity
  8
Visible (ISO)
100
AcDbLine
 10
95.43442638502659
 20
200.1091398471309
 30
0.0
 11
98.54569622224786
 21
198.3174787064449
 31
0.0
  0
LINE
  5
356
330
75
100
AcDbEntity
  8
Visible (ISO)
100
AcDbLine
 10
95.43442638502659
 20
205.6684602960602
 30
0.0
 11
95.43442638502659
 21
200.1091398471309
 31
0.0
  0
LINE
  5
357
330
75
100
AcDbEntity
  8
Visible (ISO)
100
AcDbLine
 10
94.02021282265328
 20
208.1179459733298
 30
0.0
 11
95.43442638502659
 21
205.6684602960602
 31
0.0
  0
LINE
  5
358
330
75
100
AcDbEntity
  8
Visible (ISO)
100
AcDbLine
 10
94.02021282265328
 20
267.3083578119297
 30
0.0
 11
94.02021282265328
 21
262.89360333778
 31
0.0
  0
LINE
  5
359
330
75
100
AcDbEntity
  8
Visible (ISO)
100
AcDbLine
 10
99.95990978462117
 20
263.8879138160746
 30
0.0
 11
94.02021282265328
 21
267.3083578119297
 31
0.0
  0
LINE
  5
35A
330
75
100
AcDbEntity
  8
Visible (ISO)
100
AcDbLine
 10
99.95990978462117
 20
259.4731593419248
 30
0.0
 11
99.95990978462117
 21
263.8879138160746
 31
0.0
  0
LINE
  5
35B
330
75
100
AcDbEntity
  8
Visible (ISO)
100
AcDbLine
 10
98.54569622224786
 20
258.6524565198244
 30
0.0
 11
99.95990978462117
 21
259.4731593419248
 31
0.0
  0
LINE
  5
35C
330
75
100
AcDbEntity
  8
Visible (ISO)
100
AcDbLine
 10
98.54569622224786
 20
253.0931360708951
 30
0.0
 11
98.54569622224786
 21
258.6524565198244
 31
0.0
  0
LINE
  5
35D
330
75
100
AcDbEntity
  8
Visible (ISO)
100
AcDbLine
 10
95.43442638502659
 20
254.8847972115811
 30
0.0
 11
98.54569622224786
 21
253.0931360708951
 31
0.0
  0
LINE
  5
35E
330
75
100
AcDbEntity
  8
Visible (ISO)
100
AcDbLine
 10
95.43442638502659
 20
260.4441176605103
 30
0.0
 11
95.43442638502659
 21
254.8847972115811
 31
0.0
  0
LINE
  5
35F
330
75
100
AcDbEntity
  8
Visible (ISO)
100
AcDbLine
 10
94.02021282265328
 20
262.89360333778
 30
0.0
 11
95.43442638502659
 21
260.4441176605103
 31
0.0
  0
LINE
  5
360
330
75
100
AcDbEntity
  8
Visible (ISO)
100
AcDbLine
 10
117.8497113486431
 20
152.3687946557368
 30
0.0
 11
116.7890511768634
 21
151.7580010850483
 31
0.0
  0
LINE
  5
361
330
75
100
AcDbEntity
  8
Visible (ISO)
100
AcDbLine
 10
78.95883838337727
 20
293.3088920164802
 30
0.0
 11
77.89817821159759
 21
292.6980984457916
 31
0.0
  0
LINE
  5
362
330
75
100
AcDbEntity
  8
Visible (ISO)
100
AcDbLine
 10
95.43442638502659
 20
254.8847972115811
 30
0.0
 11
96.49508655680627
 21
255.4955907822696
 31
0.0
  0
LINE
  5
363
330
75
100
AcDbEntity
  8
Visible (ISO)
100
AcDbLine
 10
95.43442638502659
 20
260.4441176605103
 30
0.0
 11
96.49508655680627
 21
261.054911231199
 31
0.0
  0
LINE
  5
364
330
75
100
AcDbEntity
  8
Visible (ISO)
100
AcDbLine
 10
87.79767314821075
 20
278.4131136418531
 30
0.0
 11
88.85833331999041
 21
279.0239072125416
 31
0.0
  0
LINE
  5
365
330
75
100
AcDbEntity
  8
Visible (ISO)
100
AcDbLine
 10
109.717983364997
 20
199.2662369658551
 30
0.0
 11
110.7786435367766
 21
199.8770305365436
 31
0.0
  0
LINE
  5
366
330
75
100
AcDbEntity
  8
Visible (ISO)
100
AcDbLine
 10
109.3644299744033
 20
275.7994763234123
 30
0.0
 11
108.3037698026236
 21
275.1886827527238
 31
0.0
  0
LINE
  5
367
330
75
100
AcDbEntity
  8
Visible (ISO)
100
AcDbLine
 10
116.7890511768635
 20
270.3023341872165
 30
0.0
 11
117.8497113486431
 21
270.9131277579051
 31
0.0
  0
ELLIPSE
  5
368
330
75
100
AcDbEntity
  8
Visible (ISO)
100
AcDbEllipse
 10
73.30198413388457
 20
282.2672722852186
 30
0.0
 11
-2.499999999999998
 21
-0.0000000000001484
 31
0.0
210
0.0
220
0.0
230
1.0
 40
0.5758617009853121
 41
3.926990816987141
 42
5.497787143782037
  0
LINE
  5
369
330
75
100
AcDbEntity
  8
Visible Narrow (ISO)
100
AcDbLine
 10
75.06975108685067
 20
283.2852615696996
 30
0.0
 11
74.00909091507101
 21
282.674467999011
 31
0.0
  0
LINE
  5
36A
330
75
100
AcDbEntity
  8
Visible (ISO)
100
AcDbLine
 10
88.85833331999041
 20
285.9730577737032
 30
0.0
 11
87.79767314821075
 21
285.3622642030146
 31
0.0
  0
LINE
  5
36B
330
75
100
AcDbEntity
  8
Visible (ISO)
100
AcDbLine
 10
86.38345958583744
 20
287.8117498802843
 30
0.0
 11
87.4441197576171
 21
288.4225434509728
 31
0.0
  0
LINE
  5
36C
330
75
100
AcDbEntity
  8
Visible (ISO)
100
AcDbLine
 10
81.43371211753089
 20
215.554065517546
 30
0.0
 11
82.49437228931055
 21
216.1648590882346
 31
0.0
  0
LINE
  5
36D
330
75
100
AcDbEntity
  8
Visible (ISO)
100
AcDbLine
 10
87.79767314821075
 20
170.0881196002165
 30
0.0
 11
88.85833331999041
 21
170.6989131709051
 31
0.0
  0
LINE
  5
36E
330
75
100
AcDbEntity
  8
Visible (ISO)
100
AcDbLine
 10
94.02021282265328
 20
262.89360333778
 30
0.0
 11
95.08087299443294
 21
263.5043969084685
 31
0.0
  0
LINE
  5
36F
330
75
100
AcDbEntity
  8
Visible (ISO)
100
AcDbLine
 10
119.2639249110164
 20
268.4636420806355
 30
0.0
 11
118.2032647392368
 21
267.8528485099469
 31
0.0
  0
LINE
  5
370
330
75
100
AcDbEntity
  8
Visible (ISO)
100
AcDbLine
 10
118.2032647392368
 20
152.5787039071488
 30
0.0
 11
119.2639249110165
 21
153.1894974778374
 31
0.0
  0
LINE
  5
371
330
75
100
AcDbEntity
  8
Visible (ISO)
100
AcDbLine
 10
87.44411975761709
 20
169.8782103488046
 30
0.0
 11
86.38345958583739
 21
169.267416778116
 31
0.0
  0
LINE
  5
372
330
75
100
AcDbEntity
  8
Visible (ISO)
100
AcDbLine
 10
94.02021282265328
 20
208.1179459733298
 30
0.0
 11
95.08087299443294
 21
208.7287395440184
 31
0.0
  0
LINE
  5
373
330
75
100
AcDbEntity
  8
Visible (ISO)
100
AcDbLine
 10
95.43442638502659
 20
200.1091398471309
 30
0.0
 11
96.49508655680627
 21
200.7199334178195
 31
0.0
  0
LINE
  5
374
330
75
100
AcDbEntity
  8
Visible (ISO)
100
AcDbLine
 10
95.43442638502659
 20
205.6684602960602
 30
0.0
 11
96.49508655680627
 21
206.2792538667487
 31
0.0
  0
LINE
  5
375
330
75
100
AcDbEntity
  8
Visible (ISO)
100
AcDbLine
 10
95.43442638502659
 20
194.8768382481386
 30
0.0
 11
96.49508655680627
 21
195.4876318188272
 31
0.0
  0
ELLIPSE
  5
376
330
75
100
AcDbEntity
  8
Visible (ISO)
100
AcDbEllipse
 10
73.30198413388457
 20
188.2493529283264
 30
0.0
 11
-1.0
 21
-0.0000000000000593
 31
0.0
210
0.0
220
0.0
230
1.0
 40
0.5758617009853121
 41
3.926990816987117
 42
5.497787143782022
  0
ELLIPSE
  5
377
330
75
100
AcDbEntity
  8
Visible (ISO)
100
AcDbEllipse
 10
73.30198413388457
 20
282.2672722852186
 30
0.0
 11
-1.000000000000001
 21
-0.0000000000000593
 31
0.0
210
0.0
220
0.0
230
1.0
 40
0.5758617009853121
 41
3.926990816987117
 42
5.497787143782022
  0
LINE
  5
378
330
75
100
AcDbEntity
  8
Visible Narrow (ISO)
100
AcDbLine
 10
72.59487735269792
 20
282.6744679990109
 30
0.0
 11
72.59487735269792
 21
256.8629979127162
 31
0.0
  0
LINE
  5
379
330
75
100
AcDbEntity
  8
Visible Narrow (ISO)
100
AcDbLine
 10
72.59487735269792
 20
247.3910715215946
 30
0.0
 11
72.59487735269792
 21
216.7739316962414
 31
0.0
  0
LINE
  5
37A
330
75
100
AcDbEntity
  8
Visible Narrow (ISO)
100
AcDbLine
 10
72.59487735269792
 20
207.3020053051199
 30
0.0
 11
72.59487735269793
 21
188.6565486421187
 31
0.0
  0
LINE
  5
37B
330
75
100
AcDbEntity
  8
Visible Narrow (ISO)
100
AcDbLine
 10
72.59487735269792
 20
282.6744679990109
 30
0.0
 11
71.53421718091795
 21
283.2852615696993
 31
0.0
  0
LINE
  5
37C
330
75
100
AcDbEntity
  8
Visible (ISO)
100
AcDbLine
 10
48.90680018295171
 20
254.1744925929523
 30
0.0
 11
48.90680018295171
 21
250.596293477853
 31
0.0
  0
LINE
  5
37D
330
75
100
AcDbEntity
  8
Visible (ISO)
100
AcDbLine
 10
48.90680018295171
 20
233.7500151095486
 30
0.0
 11
48.90680018295171
 21
204.3544624255726
 31
0.0
  0
LINE
  5
37E
330
75
100
AcDbEntity
  8
Visible (ISO)
100
AcDbLine
 10
48.90680018295171
 20
192.8017283365706
 30
0.0
 11
48.90680018295171
 21
191.2595077904322
 31
0.0
  0
LINE
  5
37F
330
75
100
AcDbEntity
  8
Visible (ISO)
100
AcDbLine
 10
42.18928576168061
 20
249.1041297214039
 30
0.0
 11
42.18928576168047
 21
266.386639447315
 31
0.0
  0
LINE
  5
380
330
75
100
AcDbEntity
  8
Visible (ISO)
100
AcDbLine
 10
42.18928576168047
 20
266.386639447315
 30
0.0
 11
71.53421718091795
 21
283.2852615696993
 31
0.0
  0
LINE
  5
381
330
75
100
AcDbEntity
  8
Visible (ISO)
100
AcDbLine
 10
42.18928576168048
 20
172.3687200904228
 30
0.0
 11
42.18928576168061
 21
189.8147392413023
 31
0.0
  0
LINE
  5
382
330
75
100
AcDbEntity
  8
Visible (ISO)
100
AcDbLine
 10
48.90680018295171
 20
191.2595077904322
 30
0.0
 11
48.55324679235886
 21
191.0559099335362
 31
0.0
  0
LINE
  5
383
330
75
100
AcDbEntity
  8
Visible (ISO)
100
AcDbLine
 10
69.76645022795183
 20
222.8976458894154
 30
0.0
 11
69.76645022795183
 21
216.3667359824483
 31
0.0
  0
LINE
  5
384
330
75
100
AcDbEntity
  8
Visible (ISO)
100
AcDbLine
 10
69.76645022795183
 20
204.8140018934463
 30
0.0
 11
69.76645022795183
 21
203.2717813473079
 31
0.0
  0
LINE
  5
385
330
75
100
AcDbEntity
  8
Visible (ISO)
100
AcDbLine
 10
63.04893580668061
 20
199.4034220662801
 30
0.0
 11
62.69538241608753
 21
199.199824209384
 31
0.0
  0
LINE
  5
386
330
75
100
AcDbEntity
  8
Visible (ISO)
100
AcDbLine
 10
63.04893580668061
 20
199.4034220662801
 30
0.0
 11
63.04893580668061
 21
201.827012798178
 31
0.0
  0
LINE
  5
387
330
75
100
AcDbEntity
  8
Visible (ISO)
100
AcDbLine
 10
69.76645022795183
 20
203.2717813473079
 30
0.0
 11
69.41289683735892
 21
203.0681834904118
 31
0.0
  0
LINE
  5
388
330
75
100
AcDbEntity
  8
Visible (ISO)
100
AcDbLine
 10
69.76645022795183
 20
266.1867661498279
 30
0.0
 11
69.76645022795183
 21
262.6085670347284
 31
0.0
  0
LINE
  5
389
330
75
100
AcDbEntity
  8
Visible (ISO)
100
AcDbLine
 10
63.04893580668063
 20
262.3184068688002
 30
0.0
 11
63.04893580668061
 21
261.1164032782795
 31
0.0
  0
LINE
  5
38A
330
75
100
AcDbEntity
  8
Visible (ISO)
100
AcDbLine
 10
66.59816960467286
 20
244.7364101387996
 30
0.0
 11
62.69538241608755
 21
242.4889444697964
 31
0.0
  0
LINE
  5
38B
330
75
100
AcDbEntity
  8
Visible (ISO)
100
AcDbLine
 10
48.55324679235881
 20
253.9708947360563
 30
0.0
 11
49.96746035473169
 21
254.7852861636411
 31
0.0
  0
LINE
  5
38C
330
75
100
AcDbEntity
  8
Visible (ISO)
100
AcDbLine
 10
49.96746035473169
 20
254.7852861636411
 30
0.0
 11
49.96746035473169
 21
248.7591792199008
 31
0.0
  0
LINE
  5
38D
330
75
100
AcDbEntity
  8
Visible (ISO)
100
AcDbLine
 10
49.96746035473169
 20
234.3608086802374
 30
0.0
 11
49.96746035473169
 21
204.9652559962614
 31
0.0
  0
LINE
  5
38E
330
75
100
AcDbEntity
  8
Visible (ISO)
100
AcDbLine
 10
49.96746035473169
 20
193.4172554531459
 30
0.0
 11
49.96746035473169
 21
190.6487142197438
 31
0.0
  0
LINE
  5
38F
330
75
100
AcDbEntity
  8
Visible (ISO)
100
AcDbLine
 10
49.96746035473169
 20
190.6487142197438
 30
0.0
 11
48.55324679235881
 21
189.834322792159
 31
0.0
  0
LINE
  5
390
330
75
100
AcDbEntity
  8
Visible (ISO)
100
AcDbLine
 10
48.55324679235891
 20
192.2579135240568
 30
0.0
 11
48.55324679235881
 21
189.834322792159
 31
0.0
  0
LINE
  5
391
330
75
100
AcDbEntity
  8
Visible Narrow (ISO)
100
AcDbLine
 10
48.55324679235891
 20
192.2579135240568
 30
0.0
 11
43.24994593346056
 21
189.2039456706139
 31
0.0
  0
LINE
  5
392
330
75
100
AcDbEntity
  8
Visible (ISO)
100
AcDbLine
 10
43.24994593346047
 20
171.7579265197344
 30
0.0
 11
43.24994593346056
 21
189.2039456706139
 31
0.0
  0
LINE
  5
393
330
75
100
AcDbEntity
  8
Visible (ISO)
100
AcDbLine
 10
43.24994593346047
 20
171.7579265197344
 30
0.0
 11
72.59487735269793
 21
188.6565486421187
 31
0.0
  0
LINE
  5
394
330
75
100
AcDbEntity
  8
Visible (ISO)
100
AcDbLine
 10
43.24994593346044
 20
265.7758458766265
 30
0.0
 11
72.59487735269792
 21
282.6744679990109
 31
0.0
  0
LINE
  5
395
330
75
100
AcDbEntity
  8
Visible (ISO)
100
AcDbLine
 10
43.24994593346056
 20
248.4933361507154
 30
0.0
 11
43.24994593346044
 21
265.7758458766265
 31
0.0
  0
LINE
  5
396
330
75
100
AcDbEntity
  8
Visible Narrow (ISO)
100
AcDbLine
 10
48.55324679235891
 20
251.5473040041584
 30
0.0
 11
43.24994593346056
 21
248.4933361507154
 31
0.0
  0
LINE
  5
397
330
75
100
AcDbEntity
  8
Visible (ISO)
100
AcDbLine
 10
48.55324679235891
 20
251.5473040041584
 30
0.0
 11
48.55324679235881
 21
253.9708947360563
 31
0.0
  0
LINE
  5
398
330
75
100
AcDbEntity
  8
Visible (ISO)
100
AcDbLine
 10
62.69538241608768
 20
262.1148090119042
 30
0.0
 11
64.1095959784606
 21
262.929200439489
 31
0.0
  0
LINE
  5
399
330
75
100
AcDbEntity
  8
Visible (ISO)
100
AcDbLine
 10
64.10959597846058
 20
260.5056097075911
 30
0.0
 11
64.1095959784606
 21
262.929200439489
 31
0.0
  0
LINE
  5
39A
330
75
100
AcDbEntity
  8
Visible Narrow (ISO)
100
AcDbLine
 10
69.41289683735892
 20
263.559577561034
 30
0.0
 11
64.10959597846058
 21
260.5056097075911
 31
0.0
  0
LINE
  5
39B
330
75
100
AcDbEntity
  8
Visible (ISO)
100
AcDbLine
 10
69.41289683735892
 20
263.559577561034
 30
0.0
 11
69.41289683735892
 21
265.9831682929319
 31
0.0
  0
LINE
  5
39C
330
75
100
AcDbEntity
  8
Visible (ISO)
100
AcDbLine
 10
69.41289683735892
 20
265.9831682929319
 30
0.0
 11
70.82711039973182
 21
266.7975597205167
 31
0.0
  0
LINE
  5
39D
330
75
100
AcDbEntity
  8
Visible (ISO)
100
AcDbLine
 10
70.82711039973182
 20
266.7975597205167
 30
0.0
 11
70.82711039973182
 21
260.7714527767762
 31
0.0
  0
LINE
  5
39E
330
75
100
AcDbEntity
  8
Visible (ISO)
100
AcDbLine
 10
70.82711039973182
 20
246.3730822371131
 30
0.0
 11
70.82711039973182
 21
245.9501080370319
 31
0.0
  0
LINE
  5
39F
330
75
100
AcDbEntity
  8
Visible (ISO)
100
AcDbLine
 10
70.82711039973182
 20
245.9501080370319
 30
0.0
 11
62.69538241608754
 21
241.2673573284193
 31
0.0
  0
LINE
  5
3A0
330
75
100
AcDbEntity
  8
Visible (ISO)
100
AcDbLine
 10
62.69538241608754
 20
241.2673573284193
 30
0.0
 11
62.69538241608768
 21
262.1148090119042
 31
0.0
  0
LINE
  5
3A1
330
75
100
AcDbEntity
  8
Visible (ISO)
100
AcDbLine
 10
62.69538241608768
 20
218.8256887514917
 30
0.0
 11
70.82711039973182
 21
223.5084394601042
 31
0.0
  0
LINE
  5
3A2
330
75
100
AcDbEntity
  8
Visible (ISO)
100
AcDbLine
 10
70.82711039973182
 20
223.5084394601042
 30
0.0
 11
70.82711039973182
 21
216.9775295531371
 31
0.0
  0
LINE
  5
3A3
330
75
100
AcDbEntity
  8
Visible (ISO)
100
AcDbLine
 10
70.82711039973182
 20
205.4295290100217
 30
0.0
 11
70.82711039973182
 21
202.6609877766194
 31
0.0
  0
LINE
  5
3A4
330
75
100
AcDbEntity
  8
Visible (ISO)
100
AcDbLine
 10
70.82711039973182
 20
202.6609877766194
 30
0.0
 11
69.41289683735892
 21
201.8465963490347
 31
0.0
  0
LINE
  5
3A5
330
75
100
AcDbEntity
  8
Visible (ISO)
100
AcDbLine
 10
69.41289683735892
 20
204.2701870809326
 30
0.0
 11
69.41289683735892
 21
201.8465963490347
 31
0.0
  0
LINE
  5
3A6
330
75
100
AcDbEntity
  8
Visible Narrow (ISO)
100
AcDbLine
 10
69.41289683735892
 20
204.2701870809326
 30
0.0
 11
64.10959597846058
 21
201.2162192274896
 31
0.0
  0
LINE
  5
3A7
330
75
100
AcDbEntity
  8
Visible (ISO)
100
AcDbLine
 10
64.10959597846058
 20
201.2162192274896
 30
0.0
 11
64.1095959784606
 21
198.7926284955916
 31
0.0
  0
LINE
  5
3A8
330
75
100
AcDbEntity
  8
Visible (ISO)
100
AcDbLine
 10
64.1095959784606
 20
198.7926284955916
 30
0.0
 11
62.69538241608754
 21
197.9782370680068
 31
0.0
  0
LINE
  5
3A9
330
75
100
AcDbEntity
  8
Visible (ISO)
100
AcDbLine
 10
62.69538241608754
 20
197.9782370680068
 30
0.0
 11
62.69538241608768
 21
218.8256887514917
 31
0.0
  0
LINE
  5
3AA
330
75
100
AcDbEntity
  8
Visible (ISO)
100
AcDbLine
 10
43.24994593346044
 20
265.7758458766265
 30
0.0
 11
42.18928576168047
 21
266.386639447315
 31
0.0
  0
LINE
  5
3AB
330
75
100
AcDbEntity
  8
Visible (ISO)
100
AcDbLine
 10
42.18928576168048
 20
172.3687200904228
 30
0.0
 11
43.24994593346047
 21
171.7579265197344
 31
0.0
  0
LINE
  5
3AC
330
75
100
AcDbEntity
  8
Visible (ISO)
100
AcDbLine
 10
70.82711039973182
 20
245.9501080370319
 30
0.0
 11
70.45985711707951
 21
246.1615951370724
 31
0.0
  0
ELLIPSE
  5
3AD
330
75
100
AcDbEntity
  8
Visible (ISO)
100
AcDbEllipse
 10
43.95705271464726
 20
188.7967499568215
 30
0.0
 11
-1.247580528961042
 21
2.16645859036299
 31
0.0
210
0.0
220
0.0
230
1.0
 40
0.5780931159158105
 41
0.0019337084228868
 42
0.7873318718203049
  0
ELLIPSE
  5
3AE
330
75
100
AcDbEntity
  8
Visible (ISO)
100
AcDbEllipse
 10
64.81670275964724
 20
200.8090235136973
 30
0.0
 11
-1.247580528961023
 21
2.166458590362955
 31
0.0
210
0.0
220
0.0
230
1.0
 40
0.5780931159158106
 41
0.0019337084228752
 42
0.7873318718203173
  0
LINE
  5
3AF
330
75
100
AcDbEntity
  8
Visible (ISO)
100
AcDbLine
 10
70.82711039973182
 20
202.6609877766194
 30
0.0
 11
69.76645022795183
 21
203.2717813473079
 31
0.0
  0
ELLIPSE
  5
3B0
330
75
100
AcDbEntity
  8
Visible (ISO)
100
AcDbEllipse
 10
43.95705271464726
 20
248.0861404369232
 30
0.0
 11
1.247580528961161
 21
-2.166458590362896
 31
0.0
210
0.0
220
0.0
230
1.0
 40
0.5780931159158107
 41
3.928924525409923
 42
4.714322688807493
  0
ELLIPSE
  5
3B1
330
75
100
AcDbEntity
  8
Visible (ISO)
100
AcDbEllipse
 10
49.2603535735456
 20
251.1401082903661
 30
0.0
 11
-0.4990322115844274
 21
0.8665834361452141
 31
0.0
210
0.0
220
0.0
230
1.0
 40
0.5780931159158106
 41
0.7873318718204417
 42
1.572730035217841
  0
LINE
  5
3B2
330
75
100
AcDbEntity
  8
Visible (ISO)
100
AcDbLine
 10
51.21746035473241
 20
246.594119303879
 30
0.0
 11
48.76035357354552
 21
250.849946024943
 31
0.0
  0
ELLIPSE
  5
3B3
330
75
100
AcDbEntity
  8
Visible (ISO)
100
AcDbEllipse
 10
49.96746035473224
 20
245.8687136403213
 30
0.0
 11
-1.247580528961117
 21
2.166458590362819
 31
0.0
210
0.0
220
0.0
230
0.9999999999999998
 40
0.5780931159158105
 41
3.928924525409888
 42
4.714322688807473
  0
LINE
  5
3B4
330
75
100
AcDbEntity
  8
Visible (ISO)
100
AcDbLine
 10
51.73522730769886
 20
235.378797964719
 30
0.0
 11
51.73522730769885
 21
244.8507243558405
 31
0.0
  0
LINE
  5
3B5
330
75
100
AcDbEntity
  8
Visible (ISO)
100
AcDbLine
 10
49.96746035473169
 20
190.6487142197438
 30
0.0
 11
48.90680018295171
 21
191.2595077904322
 31
0.0
  0
LINE
  5
3B6
330
75
100
AcDbEntity
  8
Visible (ISO)
100
AcDbLine
 10
71.53421718091888
 20
217.3847252669299
 30
0.0
 11
72.59487735269885
 21
216.7739316962414
 31
0.0
  0
LINE
  5
3B7
330
75
100
AcDbEntity
  8
Visible (ISO)
100
AcDbLine
 10
72.59487735269885
 20
216.7739316962414
 30
0.0
 11
72.59487735269885
 21
207.3020053051199
 31
0.0
  0
ELLIPSE
  5
3B8
330
75
100
AcDbEntity
  8
Visible (ISO)
100
AcDbEllipse
 10
70.82711039973222
 20
208.3199945896005
 30
0.0
 11
1.247580528961005
 21
-2.166458590362925
 31
0.0
210
0.0
220
0.0
230
1.0
 40
0.5780931159158105
 41
0.001933708422893
 42
0.7873318718203617
  0
LINE
  5
3B9
330
75
100
AcDbEntity
  8
Visible (ISO)
100
AcDbLine
 10
72.07711039973242
 20
206.1549346735797
 30
0.0
 11
69.62000361854551
 21
204.7290153335486
 31
0.0
  0
ELLIPSE
  5
3BA
330
75
100
AcDbEntity
  8
Visible (ISO)
100
AcDbEllipse
 10
70.1200036185456
 20
203.8629913671402
 30
0.0
 11
-0.4990322115844193
 21
0.8665834361452001
 31
0.0
210
0.0
220
0.0
230
1.0
 40
0.5780931159158107
 41
0.0019337084228373
 42
0.7873318718202552
  0
ELLIPSE
  5
3BB
330
75
100
AcDbEntity
  8
Visible (ISO)
100
AcDbEllipse
 10
43.95705271464724
 20
188.7967499568216
 30
0.0
 11
-0.4990322115844148
 21
0.8665834361451921
 31
0.0
210
0.0
220
0.0
230
1.0
 40
0.5780931159158107
 41
0.0019337084228104
 42
0.7873318718202924
  0
LINE
  5
3BC
330
75
100
AcDbEntity
  8
Visible (ISO)
100
AcDbLine
 10
45.91415949583407
 20
191.088693263261
 30
0.0
 11
43.45705271464716
 21
189.6627739232299
 31
0.0
  0
ELLIPSE
  5
3BD
330
75
100
AcDbEntity
  8
Visible (ISO)
100
AcDbEllipse
 10
44.66415949583391
 20
193.2537531792819
 30
0.0
 11
1.247580528960994
 21
-2.166458590362906
 31
0.0
210
0.0
220
0.0
230
0.9999999999999998
 40
0.5780931159158104
 41
0.0019337084228948
 42
0.7873318718203564
  0
LINE
  5
3BE
330
75
100
AcDbEntity
  8
Visible (ISO)
100
AcDbLine
 10
46.43192644880052
 20
201.7076902859228
 30
0.0
 11
46.43192644880051
 21
192.2357638948012
 31
0.0
  0
LINE
  5
3BF
330
75
100
AcDbEntity
  8
Visible (ISO)
100
AcDbLine
 10
45.37126627702054
 20
202.3184838566112
 30
0.0
 11
46.43192644880052
 21
201.7076902859228
 31
0.0
  0
LINE
  5
3C0
330
75
100
AcDbEntity
  8
Visible (ISO)
100
AcDbLine
 10
45.37126627702052
 20
192.8465574654896
 30
0.0
 11
45.37126627702054
 21
202.3184838566112
 31
0.0
  0
ELLIPSE
  5
3C1
330
75
100
AcDbEntity
  8
Visible (ISO)
100
AcDbEllipse
 10
44.66415949583391
 20
193.2537531792819
 30
0.0
 11
0.4990322115843821
 21
-0.866583436145135
 31
0.0
210
0.0
220
0.0
230
0.9999999999999998
 40
0.5780931159158105
 41
0.0019337084229293
 42
0.7873318718203916
  0
LINE
  5
3C2
330
75
100
AcDbEntity
  8
Visible (ISO)
100
AcDbLine
 10
42.70705271464706
 20
190.9618098728424
 30
0.0
 11
45.16415949583396
 21
192.3877292128736
 31
0.0
  0
LINE
  5
3C3
330
75
100
AcDbEntity
  8
Visible (ISO)
100
AcDbLine
 10
64.1095959784606
 20
198.7926284955916
 30
0.0
 11
63.04893580668061
 21
199.4034220662801
 31
0.0
  0
ELLIPSE
  5
3C4
330
75
100
AcDbEntity
  8
Visible (ISO)
100
AcDbEllipse
 10
64.81670275964724
 20
200.8090235136973
 30
0.0
 11
-0.4990322115844193
 21
0.8665834361452001
 31
0.0
210
0.0
220
0.0
230
1.0
 40
0.5780931159158107
 41
0.0019337084228373
 42
0.7873318718202552
  0
LINE
  5
3C5
330
75
100
AcDbEntity
  8
Visible (ISO)
100
AcDbLine
 10
66.77380954083407
 20
203.1009668201368
 30
0.0
 11
64.31670275964717
 21
201.6750474801057
 31
0.0
  0
ELLIPSE
  5
3C6
330
75
100
AcDbEntity
  8
Visible (ISO)
100
AcDbEllipse
 10
65.52380954083388
 20
205.2660267361575
 30
0.0
 11
1.247580528961005
 21
-2.166458590362925
 31
0.0
210
0.0
220
0.0
230
1.0
 40
0.5780931159158105
 41
0.0019337084229001
 42
0.7873318718203617
  0
LINE
  5
3C7
330
75
100
AcDbEntity
  8
Visible (ISO)
100
AcDbLine
 10
67.29157649380052
 20
213.7199638427985
 30
0.0
 11
67.2915764938005
 21
204.2480374516769
 31
0.0
  0
LINE
  5
3C8
330
75
100
AcDbEntity
  8
Visible (ISO)
100
AcDbLine
 10
66.23091632202054
 20
214.3307574134869
 30
0.0
 11
67.29157649380052
 21
213.7199638427985
 31
0.0
  0
LINE
  5
3C9
330
75
100
AcDbEntity
  8
Visible (ISO)
100
AcDbLine
 10
66.23091632202053
 20
204.8588310223653
 30
0.0
 11
66.23091632202054
 21
214.3307574134869
 31
0.0
  0
ELLIPSE
  5
3CA
330
75
100
AcDbEntity
  8
Visible (ISO)
100
AcDbEllipse
 10
65.52380954083393
 20
205.2660267361575
 30
0.0
 11
0.4990322115843677
 21
-0.8665834361451103
 31
0.0
210
0.0
220
0.0
230
1.0
 40
0.5780931159158107
 41
0.0019337084228763
 42
0.7873318718203791
  0
LINE
  5
3CB
330
75
100
AcDbEntity
  8
Visible (ISO)
100
AcDbLine
 10
63.56670275964707
 20
202.9740834297181
 30
0.0
 11
66.02380954083395
 21
204.4000027697493
 31
0.0
  0
ELLIPSE
  5
3CC
330
75
100
AcDbEntity
  8
Visible (ISO)
100
AcDbEllipse
 10
64.81670275964724
 20
260.0984139937989
 30
0.0
 11
1.247580528961152
 21
-2.166458590362881
 31
0.0
210
0.0
220
0.0
230
1.0
 40
0.5780931159158106
 41
3.928924525409904
 42
4.714322688807496
  0
LINE
  5
3CD
330
75
100
AcDbEntity
  8
Visible (ISO)
100
AcDbLine
 10
50.67456713591887
 20
205.3724517100542
 30
0.0
 11
51.73522730769886
 21
204.7616581393657
 31
0.0
  0
LINE
  5
3CE
330
75
100
AcDbEntity
  8
Visible (ISO)
100
AcDbLine
 10
51.73522730769886
 20
204.7616581393657
 30
0.0
 11
51.73522730769885
 21
195.2897317482442
 31
0.0
  0
ELLIPSE
  5
3CF
330
75
100
AcDbEntity
  8
Visible (ISO)
100
AcDbEllipse
 10
49.96746035473221
 20
196.3077210327248
 30
0.0
 11
1.247580528961012
 21
-2.166458590362937
 31
0.0
210
0.0
220
0.0
230
1.0
 40
0.5780931159158105
 41
0.0019337084229001
 42
0.7873318718203475
  0
LINE
  5
3D0
330
75
100
AcDbEntity
  8
Visible (ISO)
100
AcDbLine
 10
51.21746035473242
 20
194.142661116704
 30
0.0
 11
48.76035357354552
 21
192.7167417766729
 31
0.0
  0
ELLIPSE
  5
3D1
330
75
100
AcDbEntity
  8
Visible (ISO)
100
AcDbEllipse
 10
49.26035357354557
 20
191.8507178102645
 30
0.0
 11
-0.4990322115844085
 21
0.8665834361451812
 31
0.0
210
0.0
220
0.0
230
1.0
 40
0.5780931159158106
 41
0.0019337084228237
 42
0.7873318718202925
  0
LINE
  5
3D2
330
75
100
AcDbEntity
  8
Visible (ISO)
100
AcDbLine
 10
42.70705271464706
 20
247.3607347733654
 30
0.0
 11
45.16415949583396
 21
243.1049080523014
 31
0.0
  0
ELLIPSE
  5
3D3
330
75
100
AcDbEntity
  8
Visible (ISO)
100
AcDbEllipse
 10
44.66415949583391
 20
242.8147457868783
 30
0.0
 11
0.4990322115843772
 21
-0.8665834361451263
 31
0.0
210
0.0
220
0.0
230
1.0
 40
0.5780931159158107
 41
0.7873318718203475
 42
1.572730035217792
  0
LINE
  5
3D4
330
75
100
AcDbEntity
  8
Visible (ISO)
100
AcDbLine
 10
45.37126627702052
 20
242.407550073086
 30
0.0
 11
45.37126627702054
 21
232.9356236819644
 31
0.0
  0
LINE
  5
3D5
330
75
100
AcDbEntity
  8
Visible (ISO)
100
AcDbLine
 10
45.37126627702054
 20
232.9356236819644
 30
0.0
 11
46.43192644880052
 21
232.324830111276
 31
0.0
  0
LINE
  5
3D6
330
75
100
AcDbEntity
  8
Visible (ISO)
100
AcDbLine
 10
46.43192644880052
 20
232.324830111276
 30
0.0
 11
46.43192644880051
 21
241.7967565023976
 31
0.0
  0
ELLIPSE
  5
3D7
330
75
100
AcDbEntity
  8
Visible (ISO)
100
AcDbEllipse
 10
44.66415949583391
 20
242.8147457868783
 30
0.0
 11
-1.247580528961117
 21
2.166458590362819
 31
0.0
210
0.0
220
0.0
230
0.9999999999999998
 40
0.5780931159158105
 41
3.928924525409854
 42
4.714322688807459
  0
LINE
  5
3D8
330
75
100
AcDbEntity
  8
Visible (ISO)
100
AcDbLine
 10
45.91415949583407
 20
243.5401514504361
 30
0.0
 11
43.45705271464716
 21
247.7959781715
 31
0.0
  0
ELLIPSE
  5
3D9
330
75
100
AcDbEntity
  8
Visible (ISO)
100
AcDbEllipse
 10
43.95705271464723
 20
248.0861404369232
 30
0.0
 11
-0.4990322115844118
 21
0.8665834361451867
 31
0.0
210
0.0
220
0.0
230
1.0
 40
0.5780931159158105
 41
0.787331871820423
 42
1.572730035217849
  0
LINE
  5
3DA
330
75
100
AcDbEntity
  8
Visible (ISO)
100
AcDbLine
 10
63.56670275964707
 20
259.373008330241
 30
0.0
 11
66.02380954083395
 21
255.1171816091771
 31
0.0
  0
ELLIPSE
  5
3DB
330
75
100
AcDbEntity
  8
Visible (ISO)
100
AcDbEllipse
 10
65.52380954083393
 20
254.827019343754
 30
0.0
 11
0.4990322115843632
 21
-0.8665834361451024
 31
0.0
210
0.0
220
0.0
230
0.9999999999999998
 40
0.5780931159158107
 41
0.7873318718202916
 42
1.572730035217805
  0
LINE
  5
3DC
330
75
100
AcDbEntity
  8
Visible (ISO)
100
AcDbLine
 10
66.23091632202052
 20
254.4198236299617
 30
0.0
 11
66.23091632202054
 21
244.9478972388401
 31
0.0
  0
LINE
  5
3DD
330
75
100
AcDbEntity
  8
Visible (ISO)
100
AcDbLine
 10
66.23091632202054
 20
244.9478972388401
 30
0.0
 11
67.29157649380052
 21
244.3371036681517
 31
0.0
  0
LINE
  5
3DE
330
75
100
AcDbEntity
  8
Visible (ISO)
100
AcDbLine
 10
67.29157649380052
 20
244.3371036681517
 30
0.0
 11
67.2915764938005
 21
253.8090300592732
 31
0.0
  0
ELLIPSE
  5
3DF
330
75
100
AcDbEntity
  8
Visible (ISO)
100
AcDbEllipse
 10
65.52380954083388
 20
254.827019343754
 30
0.0
 11
-1.247580528961141
 21
2.166458590362862
 31
0.0
210
0.0
220
0.0
230
0.9999999999999998
 40
0.5780931159158105
 41
3.928924525409863
 42
4.714322688807466
  0
LINE
  5
3E0
330
75
100
AcDbEntity
  8
Visible (ISO)
100
AcDbLine
 10
66.77380954083407
 20
255.5524250073117
 30
0.0
 11
64.31670275964717
 21
259.8082517283757
 31
0.0
  0
ELLIPSE
  5
3E1
330
75
100
AcDbEntity
  8
Visible (ISO)
100
AcDbEllipse
 10
64.81670275964723
 20
260.0984139937989
 30
0.0
 11
-0.499032211584413
 21
0.8665834361451892
 31
0.0
210
0.0
220
0.0
230
1.0
 40
0.5780931159158107
 41
0.7873318718203351
 42
1.572730035217809
  0
ELLIPSE
  5
3E2
330
75
100
AcDbEntity
  8
Visible (ISO)
100
AcDbEllipse
 10
70.12000361854558
 20
263.1523818472418
 30
0.0
 11
-0.4990322115844118
 21
0.8665834361451867
 31
0.0
210
0.0
220
0.0
230
1.0
 40
0.5780931159158105
 41
0.7873318718203795
 42
1.572730035217849
  0
LINE
  5
3E3
330
75
100
AcDbEntity
  8
Visible (ISO)
100
AcDbLine
 10
72.07711039973242
 20
258.6063928607547
 30
0.0
 11
69.62000361854551
 21
262.8622195818187
 31
0.0
  0
ELLIPSE
  5
3E4
330
75
100
AcDbEntity
  8
Visible (ISO)
100
AcDbEllipse
 10
70.82711039973222
 20
257.8809871971969
 30
0.0
 11
-1.247580528961141
 21
2.166458590362862
 31
0.0
210
0.0
220
0.0
230
0.9999999999999998
 40
0.5780931159158105
 41
3.928924525409863
 42
4.714322688807466
  0
LINE
  5
3E5
330
75
100
AcDbEntity
  8
Visible (ISO)
100
AcDbLine
 10
72.59487735269885
 20
247.3910715215946
 30
0.0
 11
72.59487735269885
 21
256.8629979127162
 31
0.0
  0
LINE
  5
3E6
330
75
100
AcDbEntity
  8
Visible Narrow (ISO)
100
AcDbLine
 10
48.76035357354552
 20
250.849946024943
 30
0.0
 11
43.45705271464716
 21
247.7959781715
 31
0.0
  0
LINE
  5
3E7
330
75
100
AcDbEntity
  8
Visible Narrow (ISO)
100
AcDbLine
 10
69.62000361854551
 20
204.7290153335486
 30
0.0
 11
64.31670275964717
 21
201.6750474801057
 31
0.0
  0
LINE
  5
3E8
330
75
100
AcDbEntity
  8
Visible Narrow (ISO)
100
AcDbLine
 10
69.62000361854551
 20
262.8622195818187
 30
0.0
 11
64.31670275964717
 21
259.8082517283757
 31
0.0
  0
LINE
  5
3E9
330
75
100
AcDbEntity
  8
Visible Narrow (ISO)
100
AcDbLine
 10
48.76035357354552
 20
192.7167417766729
 30
0.0
 11
43.45705271464716
 21
189.6627739232299
 31
0.0
  0
LINE
  5
3EA
330
75
100
AcDbEntity
  8
Visible Narrow (ISO)
100
AcDbLine
 10
51.21746035473241
 20
246.594119303879
 30
0.0
 11
45.91415949583407
 21
243.5401514504361
 31
0.0
  0
LINE
  5
3EB
330
75
100
AcDbEntity
  8
Visible Narrow (ISO)
100
AcDbLine
 10
51.73522730769885
 20
244.8507243558405
 30
0.0
 11
46.43192644880051
 21
241.7967565023976
 31
0.0
  0
LINE
  5
3EC
330
75
100
AcDbEntity
  8
Visible (ISO)
100
AcDbLine
 10
51.73522730769886
 20
235.378797964719
 30
0.0
 11
46.43192644880052
 21
232.324830111276
 31
0.0
  0
ELLIPSE
  5
3ED
330
75
100
AcDbEntity
  8
Visible Narrow (ISO)
100
AcDbEllipse
 10
49.08357687824968
 20
238.4096392589946
 30
0.0
 11
-1.522048245331753
 21
-2.643079480243171
 31
0.0
210
0.0
220
0.0
230
0.9999999999999998
 40
0.578093115915639
 41
0.0
 42
6.283185307179586
  0
LINE
  5
3EE
330
75
100
AcDbEntity
  8
Visible (ISO)
100
AcDbLine
 10
71.53421718091888
 20
217.3847252669299
 30
0.0
 11
66.23091632202054
 21
214.3307574134869
 31
0.0
  0
LINE
  5
3EF
330
75
100
AcDbEntity
  8
Visible (ISO)
100
AcDbLine
 10
72.59487735269885
 20
216.7739316962414
 30
0.0
 11
67.29157649380052
 21
213.7199638427985
 31
0.0
  0
LINE
  5
3F0
330
75
100
AcDbEntity
  8
Visible Narrow (ISO)
100
AcDbLine
 10
72.59487735269885
 20
207.3020053051199
 30
0.0
 11
67.2915764938005
 21
204.2480374516769
 31
0.0
  0
ELLIPSE
  5
3F1
330
75
100
AcDbEntity
  8
Visible Narrow (ISO)
100
AcDbEllipse
 10
69.9432269232497
 20
210.6891225485228
 30
0.0
 11
-1.522048245331754
 21
-2.643079480243173
 31
0.0
210
0.0
220
0.0
230
0.9999999999999998
 40
0.5780931159156389
 41
0.0
 42
6.283185307179586
  0
LINE
  5
3F2
330
75
100
AcDbEntity
  8
Visible Narrow (ISO)
100
AcDbLine
 10
72.07711039973242
 20
206.1549346735797
 30
0.0
 11
66.77380954083407
 21
203.1009668201368
 31
0.0
  0
LINE
  5
3F3
330
75
100
AcDbEntity
  8
Visible (ISO)
100
AcDbLine
 10
50.67456713591887
 20
205.3724517100542
 30
0.0
 11
45.37126627702054
 21
202.3184838566112
 31
0.0
  0
LINE
  5
3F4
330
75
100
AcDbEntity
  8
Visible (ISO)
100
AcDbLine
 10
51.73522730769886
 20
204.7616581393657
 30
0.0
 11
46.43192644880052
 21
201.7076902859228
 31
0.0
  0
LINE
  5
3F5
330
75
100
AcDbEntity
  8
Visible Narrow (ISO)
100
AcDbLine
 10
51.21746035473242
 20
194.142661116704
 30
0.0
 11
45.91415949583407
 21
191.088693263261
 31
0.0
  0
LINE
  5
3F6
330
75
100
AcDbEntity
  8
Visible Narrow (ISO)
100
AcDbLine
 10
51.73522730769885
 20
195.2897317482442
 30
0.0
 11
46.43192644880051
 21
192.2357638948012
 31
0.0
  0
ELLIPSE
  5
3F7
330
75
100
AcDbEntity
  8
Visible Narrow (ISO)
100
AcDbEllipse
 10
49.08357687824969
 20
198.6768489916471
 30
0.0
 11
-1.522048245331753
 21
-2.643079480243171
 31
0.0
210
0.0
220
0.0
230
0.9999999999999998
 40
0.578093115915639
 41
0.0
 42
6.283185307179586
  0
LINE
  5
3F8
330
75
100
AcDbEntity
  8
Visible Narrow (ISO)
100
AcDbLine
 10
72.07711039973242
 20
258.6063928607547
 30
0.0
 11
66.77380954083407
 21
255.5524250073117
 31
0.0
  0
LINE
  5
3F9
330
75
100
AcDbEntity
  8
Visible Narrow (ISO)
100
AcDbLine
 10
72.59487735269885
 20
256.8629979127162
 30
0.0
 11
67.2915764938005
 21
253.8090300592732
 31
0.0
  0
LINE
  5
3FA
330
75
100
AcDbEntity
  8
Visible (ISO)
100
AcDbLine
 10
72.59487735269885
 20
247.3910715215946
 30
0.0
 11
67.29157649380052
 21
244.3371036681517
 31
0.0
  0
ELLIPSE
  5
3FB
330
75
100
AcDbEntity
  8
Visible Narrow (ISO)
100
AcDbEllipse
 10
69.94322692324968
 20
250.4219128158703
 30
0.0
 11
-1.522048245331754
 21
-2.643079480243173
 31
0.0
210
0.0
220
0.0
230
0.9999999999999998
 40
0.5780931159156389
 41
0.0
 42
6.283185307179586
  0
POLYLINE
  5
3FC
330
75
100
AcDbEntity
  8
Visible (ISO)
100
AcDb2dPolyline
 66
     1
 10
0.0
 20
0.0
 30
0.0
 70
   128
  0
VERTEX
  5
3FD
330
3FC
100
AcDbEntity
  8
Visible (ISO)
100
AcDbVertex
100
AcDb2dVertex
 10
48.99301038147015
 20
240.3064190480488
 30
0.0
  0
VERTEX
  5
3FE
330
3FC
100
AcDbEntity
  8
Visible (ISO)
100
AcDbVertex
100
AcDb2dVertex
 10
48.95827969242327
 20
240.2984883154737
 30
0.0
  0
VERTEX
  5
400
330
3FC
100
AcDbEntity
  8
Visible (ISO)
100
AcDbVertex
100
AcDb2dVertex
 10
48.86085809502735
 20
240.2607326214651
 30
0.0
  0
VERTEX
  5
401
330
3FC
100
AcDbEntity
  8
Visible (ISO)
100
AcDbVertex
100
AcDb2dVertex
 10
48.71594880047723
 20
240.1803563453889
 30
0.0
  0
VERTEX
  5
402
330
3FC
100
AcDbEntity
  8
Visible (ISO)
100
AcDbVertex
100
AcDb2dVertex
 10
48.54001605367521
 20
240.053064457334
 30
0.0
  0
VERTEX
  5
403
330
3FC
100
AcDbEntity
  8
Visible (ISO)
100
AcDbVertex
100
AcDb2dVertex
 10
48.34816191337973
 20
239.880304180598
 30
0.0
  0
VERTEX
  5
404
330
3FC
100
AcDbEntity
  8
Visible (ISO)
100
AcDbVertex
100
AcDb2dVertex
 10
48.15319564979019
 20
239.6672680403568
 30
0.0
  0
VERTEX
  5
405
330
3FC
100
AcDbEntity
  8
Visible (ISO)
100
AcDbVertex
100
AcDb2dVertex
 10
47.96578547320168
 20
239.4214261875953
 30
0.0
  0
VERTEX
  5
406
330
3FC
100
AcDbEntity
  8
Visible (ISO)
100
AcDbVertex
100
AcDb2dVertex
 10
47.79487831661608
 20
239.1517505257066
 30
0.0
  0
VERTEX
  5
407
330
3FC
100
AcDbEntity
  8
Visible (ISO)
100
AcDbVertex
100
AcDb2dVertex
 10
47.64743515353347
 20
238.8685643672342
 30
0.0
  0
VERTEX
  5
408
330
3FC
100
AcDbEntity
  8
Visible (ISO)
100
AcDbVertex
100
AcDb2dVertex
 10
47.52883729357171
 20
238.5830932559994
 30
0.0
  0
VERTEX
  5
409
330
3FC
100
AcDbEntity
  8
Visible (ISO)
100
AcDbVertex
100
AcDb2dVertex
 10
47.44249020209048
 20
238.3075207483269
 30
0.0
  0
VERTEX
  5
40A
330
3FC
100
AcDbEntity
  8
Visible (ISO)
100
AcDbVertex
100
AcDb2dVertex
 10
47.38932953912672
 20
238.054878295421
 30
0.0
  0
VERTEX
  5
40B
330
3FC
100
AcDbEntity
  8
Visible (ISO)
100
AcDbVertex
100
AcDb2dVertex
 10
47.36755647718599
 20
237.8388201088243
 30
0.0
  0
VERTEX
  5
40C
330
3FC
100
AcDbEntity
  8
Visible (ISO)
100
AcDbVertex
100
AcDb2dVertex
 10
47.37077312466432
 20
237.6731502835958
 30
0.0
  0
VERTEX
  5
40D
330
3FC
100
AcDbEntity
  8
Visible (ISO)
100
AcDbVertex
100
AcDb2dVertex
 10
47.38700977658463
 20
237.5699350015623
 30
0.0
  0
VERTEX
  5
40E
330
3FC
100
AcDbEntity
  8
Visible (ISO)
100
AcDbVertex
100
AcDb2dVertex
 10
47.39758189206506
 20
237.5359127724145
 30
0.0
  0
SEQEND
  5
3FF
330
3FC
100
AcDbEntity
  8
Visible (ISO)
  0
POLYLINE
  5
40F
330
75
100
AcDbEntity
  8
Visible (ISO)
100
AcDb2dPolyline
 66
     1
 10
0.0
 20
0.0
 30
0.0
 70
   128
  0
VERTEX
  5
410
330
40F
100
AcDbEntity
  8
Visible (ISO)
100
AcDbVertex
100
AcDb2dVertex
 10
68.25723227423991
 20
209.8153951645655
 30
0.0
  0
VERTEX
  5
411
330
40F
100
AcDbEntity
  8
Visible (ISO)
100
AcDbVertex
100
AcDb2dVertex
 10
68.24665931582251
 20
209.8494169082982
 30
0.0
  0
VERTEX
  5
413
330
40F
100
AcDbEntity
  8
Visible (ISO)
100
AcDbVertex
100
AcDb2dVertex
 10
68.23041592040644
 20
209.9526263503028
 30
0.0
  0
VERTEX
  5
414
330
40F
100
AcDbEntity
  8
Visible (ISO)
100
AcDbVertex
100
AcDb2dVertex
 10
68.22719758705416
 20
210.1183029939142
 30
0.0
  0
VERTEX
  5
415
330
40F
100
AcDbEntity
  8
Visible (ISO)
100
AcDbVertex
100
AcDb2dVertex
 10
68.24898666479732
 20
210.3343587383878
 30
0.0
  0
VERTEX
  5
416
330
40F
100
AcDbEntity
  8
Visible (ISO)
100
AcDbVertex
100
AcDb2dVertex
 10
68.3021102385344
 20
210.5870109447387
 30
0.0
  0
VERTEX
  5
417
330
40F
100
AcDbEntity
  8
Visible (ISO)
100
AcDbVertex
100
AcDb2dVertex
 10
68.38850706329688
 20
210.8625693076589
 30
0.0
  0
VERTEX
  5
418
330
40F
100
AcDbEntity
  8
Visible (ISO)
100
AcDbVertex
100
AcDb2dVertex
 10
68.50706783403196
 20
211.1480540782309
 30
0.0
  0
VERTEX
  5
419
330
40F
100
AcDbEntity
  8
Visible (ISO)
100
AcDbVertex
100
AcDb2dVertex
 10
68.6545295417279
 20
211.431235352457
 30
0.0
  0
VERTEX
  5
41A
330
40F
100
AcDbEntity
  8
Visible (ISO)
100
AcDbVertex
100
AcDb2dVertex
 10
68.82545187117895
 20
211.7009002900705
 30
0.0
  0
VERTEX
  5
41B
330
40F
100
AcDbEntity
  8
Visible (ISO)
100
AcDbVertex
100
AcDb2dVertex
 10
69.01283001616261
 20
211.9467626130285
 30
0.0
  0
VERTEX
  5
41C
330
40F
100
AcDbEntity
  8
Visible (ISO)
100
AcDbVertex
100
AcDb2dVertex
 10
69.20783336897883
 20
212.1597636830009
 30
0.0
  0
VERTEX
  5
41D
330
40F
100
AcDbEntity
  8
Visible (ISO)
100
AcDbVertex
100
AcDb2dVertex
 10
69.39966306410219
 20
212.3325546386982
 30
0.0
  0
VERTEX
  5
41E
330
40F
100
AcDbEntity
  8
Visible (ISO)
100
AcDbVertex
100
AcDb2dVertex
 10
69.57560255439997
 20
212.459832897511
 30
0.0
  0
VERTEX
  5
41F
330
40F
100
AcDbEntity
  8
Visible (ISO)
100
AcDbVertex
100
AcDb2dVertex
 10
69.72050763426523
 20
212.5402047898036
 30
0.0
  0
VERTEX
  5
420
330
40F
100
AcDbEntity
  8
Visible (ISO)
100
AcDbVertex
100
AcDb2dVertex
 10
69.81792838872419
 20
212.5779697367945
 30
0.0
  0
VERTEX
  5
421
330
40F
100
AcDbEntity
  8
Visible (ISO)
100
AcDbVertex
100
AcDb2dVertex
 10
69.85266076364499
 20
212.5859014401998
 30
0.0
  0
SEQEND
  5
412
330
40F
100
AcDbEntity
  8
Visible (ISO)
  0
POLYLINE
  5
422
330
75
100
AcDbEntity
  8
Visible (ISO)
100
AcDb2dPolyline
 66
     1
 10
0.0
 20
0.0
 30
0.0
 70
   128
  0
VERTEX
  5
423
330
422
100
AcDbEntity
  8
Visible (ISO)
100
AcDbVertex
100
AcDb2dVertex
 10
47.39758189206507
 20
197.8031214135238
 30
0.0
  0
VERTEX
  5
424
330
422
100
AcDbEntity
  8
Visible (ISO)
100
AcDbVertex
100
AcDb2dVertex
 10
47.38700977658464
 20
197.8371436426717
 30
0.0
  0
VERTEX
  5
426
330
422
100
AcDbEntity
  8
Visible (ISO)
100
AcDbVertex
100
AcDb2dVertex
 10
47.37076469529462
 20
197.940352113846
 30
0.0
  0
VERTEX
  5
427
330
422
100
AcDbEntity
  8
Visible (ISO)
100
AcDbVertex
100
AcDb2dVertex
 10
47.36754636194234
 20
198.1060287574574
 30
0.0
  0
VERTEX
  5
428
330
422
100
AcDbEntity
  8
Visible (ISO)
100
AcDbVertex
100
AcDb2dVertex
 10
47.38933628262248
 20
198.3220849873461
 30
0.0
  0
VERTEX
  5
429
330
422
100
AcDbEntity
  8
Visible (ISO)
100
AcDbVertex
100
AcDb2dVertex
 10
47.44245985635956
 20
198.574737193697
 30
0.0
  0
VERTEX
  5
42A
330
422
100
AcDbEntity
  8
Visible (ISO)
100
AcDbVertex
100
AcDb2dVertex
 10
47.52885583818506
 20
198.8502950712021
 30
0.0
  0
VERTEX
  5
42B
330
422
100
AcDbEntity
  8
Visible (ISO)
100
AcDbVertex
100
AcDb2dVertex
 10
47.64741829479407
 20
199.1357808126043
 30
0.0
  0
VERTEX
  5
42C
330
422
100
AcDbEntity
  8
Visible (ISO)
100
AcDbVertex
100
AcDb2dVertex
 10
47.79487831661609
 20
199.4189611160002
 30
0.0
  0
VERTEX
  5
42D
330
422
100
AcDbEntity
  8
Visible (ISO)
100
AcDbVertex
100
AcDb2dVertex
 10
47.96580233194108
 20
199.6886270244439
 30
0.0
  0
VERTEX
  5
42E
330
422
100
AcDbEntity
  8
Visible (ISO)
100
AcDbVertex
100
AcDb2dVertex
 10
48.15318047692473
 20
199.9344893474019
 30
0.0
  0
VERTEX
  5
42F
330
422
100
AcDbEntity
  8
Visible (ISO)
100
AcDbVertex
100
AcDb2dVertex
 10
48.34818214386701
 20
200.147489446544
 30
0.0
  0
VERTEX
  5
430
330
422
100
AcDbEntity
  8
Visible (ISO)
100
AcDbVertex
100
AcDb2dVertex
 10
48.54001268192734
 20
200.3202808876566
 30
0.0
  0
VERTEX
  5
431
330
422
100
AcDbEntity
  8
Visible (ISO)
100
AcDbVertex
100
AcDb2dVertex
 10
48.71595217222512
 20
200.4475591464693
 30
0.0
  0
VERTEX
  5
432
330
422
100
AcDbEntity
  8
Visible (ISO)
100
AcDbVertex
100
AcDb2dVertex
 10
48.86085640915341
 20
200.5279305533469
 30
0.0
  0
VERTEX
  5
433
330
422
100
AcDbEntity
  8
Visible (ISO)
100
AcDbVertex
100
AcDb2dVertex
 10
48.95827800654934
 20
200.5656959857528
 30
0.0
  0
VERTEX
  5
434
330
422
100
AcDbEntity
  8
Visible (ISO)
100
AcDbVertex
100
AcDb2dVertex
 10
48.99301038147015
 20
200.5736276891582
 30
0.0
  0
SEQEND
  5
425
330
422
100
AcDbEntity
  8
Visible (ISO)
  0
POLYLINE
  5
435
330
75
100
AcDbEntity
  8
Visible (ISO)
100
AcDb2dPolyline
 66
     1
 10
0.0
 20
0.0
 30
0.0
 70
   128
  0
VERTEX
  5
436
330
435
100
AcDbEntity
  8
Visible (ISO)
100
AcDbVertex
100
AcDb2dVertex
 10
69.85266076364499
 20
252.3186927990904
 30
0.0
  0
VERTEX
  5
437
330
435
100
AcDbEntity
  8
Visible (ISO)
100
AcDbVertex
100
AcDb2dVertex
 10
69.81792923166114
 20
252.3107615811003
 30
0.0
  0
VERTEX
  5
439
330
435
100
AcDbEntity
  8
Visible (ISO)
100
AcDbVertex
100
AcDb2dVertex
 10
69.72050932013916
 20
252.2730068579219
 30
0.0
  0
VERTEX
  5
43A
330
435
100
AcDbEntity
  8
Visible (ISO)
100
AcDbVertex
100
AcDb2dVertex
 10
69.5755983397151
 20
252.1926296110155
 30
0.0
  0
VERTEX
  5
43B
330
435
100
AcDbEntity
  8
Visible (ISO)
100
AcDbVertex
100
AcDb2dVertex
 10
69.39966727878704
 20
252.0653386937908
 30
0.0
  0
VERTEX
  5
43C
330
435
100
AcDbEntity
  8
Visible (ISO)
100
AcDbVertex
100
AcDb2dVertex
 10
69.20781145261759
 20
251.8925774462246
 30
0.0
  0
VERTEX
  5
43D
330
435
100
AcDbEntity
  8
Visible (ISO)
100
AcDbVertex
100
AcDb2dVertex
 10
69.01284518902805
 20
251.6795413059834
 30
0.0
  0
VERTEX
  5
43E
330
435
100
AcDbEntity
  8
Visible (ISO)
100
AcDbVertex
100
AcDb2dVertex
 10
68.82543669831348
 20
251.4337004240521
 30
0.0
  0
VERTEX
  5
43F
330
435
100
AcDbEntity
  8
Visible (ISO)
100
AcDbVertex
100
AcDb2dVertex
 10
68.65452869879092
 20
251.1640242767483
 30
0.0
  0
VERTEX
  5
440
330
435
100
AcDbEntity
  8
Visible (ISO)
100
AcDbVertex
100
AcDb2dVertex
 10
68.50708553570831
 20
250.8808381182759
 30
0.0
  0
VERTEX
  5
441
330
435
100
AcDbEntity
  8
Visible (ISO)
100
AcDbVertex
100
AcDb2dVertex
 10
68.38848851868352
 20
250.5953674924562
 30
0.0
  0
VERTEX
  5
442
330
435
100
AcDbEntity
  8
Visible (ISO)
100
AcDbVertex
100
AcDb2dVertex
 10
68.3021414272023
 20
250.3197949847837
 30
0.0
  0
VERTEX
  5
443
330
435
100
AcDbEntity
  8
Visible (ISO)
100
AcDbVertex
100
AcDb2dVertex
 10
68.24897992130157
 20
250.0671520464627
 30
0.0
  0
VERTEX
  5
444
330
435
100
AcDbEntity
  8
Visible (ISO)
100
AcDbVertex
100
AcDb2dVertex
 10
68.22720685936083
 20
249.8510938598659
 30
0.0
  0
VERTEX
  5
445
330
435
100
AcDbEntity
  8
Visible (ISO)
100
AcDbVertex
100
AcDb2dVertex
 10
68.23042434977613
 20
249.6854245200526
 30
0.0
  0
VERTEX
  5
446
330
435
100
AcDbEntity
  8
Visible (ISO)
100
AcDbVertex
100
AcDb2dVertex
 10
68.24665931582249
 20
249.5822082671889
 30
0.0
  0
VERTEX
  5
447
330
435
100
AcDbEntity
  8
Visible (ISO)
100
AcDbVertex
100
AcDb2dVertex
 10
68.25723227423991
 20
249.5481865234562
 30
0.0
  0
SEQEND
  5
438
330
435
100
AcDbEntity
  8
Visible (ISO)
  0
ELLIPSE
  5
448
330
75
100
AcDbEntity
  8
Visible (ISO)
100
AcDbEllipse
 10
500.0728106150154
 20
230.149736274962
 30
0.0
 11
0.8234031491139861
 21
-1.429862669639699
 31
0.0
210
0.0
220
0.0
230
1.0
 40
0.578093115915639
 41
3.980037119553868
 42
5.444740841215061
  0
ELLIPSE
  5
449
330
75
100
AcDbEntity
  8
Visible (ISO)
100
AcDbEllipse
 10
498.8434938222982
 20
229.4418198156583
 30
0.0
 11
0.8234031491138161
 21
-1.429862669639798
 31
0.0
210
0.0
220
0.0
230
0.9999999999999998
 40
0.578093115915639
 41
0.0
 42
6.283185307179586
  0
ELLIPSE
  5
44A
330
75
100
AcDbEntity
  8
Visible (ISO)
100
AcDbEllipse
 10
500.0728106150154
 20
190.4169460076145
 30
0.0
 11
0.8234031491139853
 21
-1.429862669639697
 31
0.0
210
0.0
220
0.0
230
1.0
 40
0.5780931159156393
 41
3.980037119553868
 42
5.444740841215061
  0
ELLIPSE
  5
44B
330
75
100
AcDbEntity
  8
Visible (ISO)
100
AcDbEllipse
 10
498.8434938222982
 20
189.7090295483108
 30
0.0
 11
0.8234031491138161
 21
-1.429862669639798
 31
0.0
210
0.0
220
0.0
230
0.9999999999999998
 40
0.578093115915639
 41
0.0
 42
6.283185307179586
  0
ELLIPSE
  5
44C
330
75
100
AcDbEntity
  8
Visible (ISO)
100
AcDbEllipse
 10
520.9324606600155
 20
178.4046724507389
 30
0.0
 11
0.8234031491139857
 21
-1.429862669639698
 31
0.0
210
0.0
220
0.0
230
1.0
 40
0.578093115915639
 41
3.980037119553868
 42
5.444740841215061
  0
ELLIPSE
  5
44D
330
75
100
AcDbEntity
  8
Visible (ISO)
100
AcDbEllipse
 10
519.7031438672983
 20
177.6967559914352
 30
0.0
 11
0.8234031491138161
 21
-1.429862669639798
 31
0.0
210
0.0
220
0.0
230
0.9999999999999998
 40
0.578093115915639
 41
0.0
 42
6.283185307179586
  0
ELLIPSE
  5
44E
330
75
100
AcDbEntity
  8
Visible (ISO)
100
AcDbEllipse
 10
520.9324606600155
 20
218.1374627180864
 30
0.0
 11
0.8234031491139855
 21
-1.429862669639699
 31
0.0
210
0.0
220
0.0
230
0.9999999999999998
 40
0.578093115915639
 41
3.98003711955387
 42
5.444740841215062
  0
ELLIPSE
  5
44F
330
75
100
AcDbEntity
  8
Visible (ISO)
100
AcDbEllipse
 10
519.7031438672983
 20
217.4295462587827
 30
0.0
 11
0.8234031491138161
 21
-1.429862669639798
 31
0.0
210
0.0
220
0.0
230
0.9999999999999998
 40
0.578093115915639
 41
0.0
 42
6.283185307179586
  0
ELLIPSE
  5
450
330
75
100
AcDbEntity
  8
Visible (ISO)
100
AcDbEllipse
 10
499.6920219597221
 20
190.1976644048615
 30
0.0
 11
-1.122822476064406
 21
1.949812731326923
 31
0.0
210
0.0
220
0.0
230
1.0
 40
0.5780931159156392
 41
4.910689881989639
 42
6.283185307179557
  0
ELLIPSE
  5
451
330
75
100
AcDbEntity
  8
Visible (ISO)
100
AcDbEllipse
 10
498.8434938222982
 20
189.7090295483108
 30
0.0
 11
1.12282247606441
 21
-1.94981273132693
 31
0.0
210
0.0
220
0.0
230
1.0
 40
0.578093115915639
 41
0.0
 42
6.283185307179586
  0
ELLIPSE
  5
452
330
75
100
AcDbEntity
  8
Visible (ISO)
100
AcDbEllipse
 10
519.7031438672983
 20
177.6967559914352
 30
0.0
 11
1.122822476064411
 21
-1.949812731326932
 31
0.0
210
0.0
220
0.0
230
1.0
 40
0.5780931159156392
 41
0.0
 42
6.283185307179586
  0
ELLIPSE
  5
453
330
75
100
AcDbEntity
  8
Visible (ISO)
100
AcDbEllipse
 10
520.5516720047222
 20
178.1853908479859
 30
0.0
 11
1.1228224760644
 21
-1.949812731326932
 31
0.0
210
0.0
220
0.0
230
1.0
 40
0.5780931159156389
 41
0.0
 42
3.141592653589786
  0
ELLIPSE
  5
454
330
75
100
AcDbEntity
  8
Visible (ISO)
100
AcDbEllipse
 10
498.8434938222982
 20
229.4418198156583
 30
0.0
 11
1.122822476064294
 21
-1.949812731326997
 31
0.0
210
0.0
220
0.0
230
1.0
 40
0.5780931159156392
 41
0.0
 42
6.283185307179586
  0
ELLIPSE
  5
455
330
75
100
AcDbEntity
  8
Visible (ISO)
100
AcDbEllipse
 10
499.6920219597221
 20
229.930454672209
 30
0.0
 11
-1.122822476064414
 21
1.949812731326922
 31
0.0
210
0.0
220
0.0
230
1.0
 40
0.5780931159156392
 41
4.910689881989636
 42
6.283185307179586
  0
ELLIPSE
  5
456
330
75
100
AcDbEntity
  8
Visible (ISO)
100
AcDbEllipse
 10
519.7031438672983
 20
217.4295462587827
 30
0.0
 11
1.122822476064295
 21
-1.949812731326999
 31
0.0
210
0.0
220
0.0
230
1.0
 40
0.578093115915639
 41
0.0
 42
6.283185307179586
  0
ELLIPSE
  5
457
330
75
100
AcDbEntity
  8
Visible (ISO)
100
AcDbEllipse
 10
520.5516720047222
 20
217.9181811153334
 30
0.0
 11
-1.122822476064419
 21
1.949812731326921
 31
0.0
210
0.0
220
0.0
230
0.9999999999999998
 40
0.5780931159156389
 41
3.141592653589782
 42
6.283185307179576
  0
LINE
  5
458
330
75
100
AcDbEntity
  8
Visible (ISO)
100
AcDbLine
 10
524.6175359965536
 20
174.2320021409878
 30
0.0
 11
526.0317495589269
 21
173.4112993188873
 31
0.0
  0
LINE
  5
459
330
75
100
AcDbEntity
  8
Visible (ISO)
100
AcDbLine
 10
524.2639826059514
 20
174.4355999978892
 30
0.0
 11
524.6175359965536
 21
174.2320021409878
 31
0.0
  0
LINE
  5
45A
330
75
100
AcDbEntity
  8
Visible (ISO)
100
AcDbLine
 10
524.9710893871472
 20
174.0220928895758
 30
0.0
 11
524.2639826059514
 21
174.4324443006314
 31
0.0
  0
LINE
  5
45B
330
75
100
AcDbEntity
  8
Visible (ISO)
100
AcDbLine
 10
526.0317495589269
 20
173.4112993188873
 30
0.0
 11
524.9710893871472
 21
174.0220928895758
 31
0.0
  0
LINE
  5
45C
330
75
100
AcDbEntity
  8
Visible (ISO)
100
AcDbLine
 10
494.5654977961211
 20
156.512677196508
 30
0.0
 11
493.1512842337479
 21
157.3333800186085
 31
0.0
  0
LINE
  5
45D
330
75
100
AcDbEntity
  8
Visible (ISO)
100
AcDbLine
 10
493.1512842337479
 20
163.0751440760526
 30
0.0
 11
493.1512842337479
 21
157.3333800186085
 31
0.0
  0
LINE
  5
45E
330
75
100
AcDbEntity
  8
Visible (ISO)
100
AcDbLine
 10
493.1512842337479
 20
261.9794119984537
 30
0.0
 11
490.6764104995946
 21
260.5542270001808
 31
0.0
  0
LINE
  5
45F
330
75
100
AcDbEntity
  8
Visible (ISO)
100
AcDbLine
 10
493.1512842337479
 20
272.6075246214067
 30
0.0
 11
493.1512842337479
 21
261.9794119984537
 31
0.0
  0
LINE
  5
460
330
75
100
AcDbEntity
  8
Visible (ISO)
100
AcDbLine
 10
493.1512842337479
 20
272.6075246214067
 30
0.0
 11
494.5654977961211
 21
275.0570102986763
 31
0.0
  0
LINE
  5
461
330
75
100
AcDbEntity
  8
Visible (ISO)
100
AcDbLine
 10
503.0507791703611
 20
279.9433588641836
 30
0.0
 11
494.5654977961211
 21
275.0570102986763
 31
0.0
  0
LINE
  5
462
330
75
100
AcDbEntity
  8
Visible (ISO)
100
AcDbLine
 10
523.5568758247739
 20
283.1677897533129
 30
0.0
 11
505.5256529045141
 21
272.7842990516098
 31
0.0
  0
LINE
  5
463
330
75
100
AcDbEntity
  8
Visible (ISO)
100
AcDbLine
 10
523.5568758247739
 20
290.1169403144745
 30
0.0
 11
523.5568758247739
 21
283.1677897533129
 31
0.0
  0
LINE
  5
464
330
75
100
AcDbEntity
  8
Visible (ISO)
100
AcDbLine
 10
523.5568758247739
 20
290.1169403144745
 30
0.0
 11
524.9710893871472
 21
292.5664259917441
 31
0.0
  0
LINE
  5
465
330
75
100
AcDbEntity
  8
Visible (ISO)
100
AcDbLine
 10
533.4563707613871
 20
297.4527745572515
 30
0.0
 11
524.9710893871472
 21
292.5664259917441
 31
0.0
  0
ELLIPSE
  5
466
330
75
100
AcDbEntity
  8
Visible (ISO)
100
AcDbEllipse
 10
498.8081384832411
 20
273.4124489572173
 30
0.0
 11
-1.297483750119589
 21
-2.253116933977381
 31
0.0
210
0.0
220
0.0
230
0.9999999999999998
 40
0.5780931159158106
 41
0.4193421108859612
 42
2.722250542704699
  0
ELLIPSE
  5
467
330
75
100
AcDbEntity
  8
Visible (ISO)
100
AcDbEllipse
 10
529.2137300742671
 20
290.921864650285
 30
0.0
 11
-1.297483750119587
 21
-2.253116933977379
 31
0.0
210
0.0
220
0.0
230
1.0
 40
0.5780931159158105
 41
0.4193421108859612
 42
2.722250542704699
  0
ELLIPSE
  5
468
330
75
100
AcDbEntity
  8
Visible (ISO)
100
AcDbEllipse
 10
529.2137300742671
 20
180.5530027965422
 30
0.0
 11
-1.297483750119589
 21
-2.253116933977381
 31
0.0
210
0.0
220
0.0
230
1.0
 40
0.5780931159158106
 41
0.4193421108859621
 42
2.722250542704715
  0
LINE
  5
469
330
75
100
AcDbEntity
  8
Visible (ISO)
100
AcDbLine
 10
532.0421571990139
 20
221.5303287703827
 30
0.0
 11
527.4459631213003
 21
218.8835566307327
 31
0.0
  0
LINE
  5
46A
330
75
100
AcDbEntity
  8
Visible (ISO)
100
AcDbLine
 10
532.0421571990139
 20
221.7803264537224
 30
0.0
 11
532.0421571990139
 21
221.5303287703827
 31
0.0
  0
ELLIPSE
  5
46B
330
75
100
AcDbEntity
  8
Visible (ISO)
100
AcDbEllipse
 10
529.2137300742672
 20
255.6855835695716
 30
0.0
 11
-0.673693485639014
 21
-1.16988763879594
 31
0.0
210
0.0
220
0.0
230
1.0
 40
0.5780931159158106
 41
0.9013402729253963
 42
2.240252380664776
  0
ELLIPSE
  5
46C
330
75
100
AcDbEntity
  8
Visible (ISO)
100
AcDbEllipse
 10
529.2137300742672
 20
215.9527933022241
 30
0.0
 11
-0.6736934856390179
 21
-1.169887638795948
 31
0.0
210
0.0
220
0.0
230
1.0
 40
0.5780931159158105
 41
0.9013402729253918
 42
2.240252380664713
  0
ELLIPSE
  5
46D
330
75
100
AcDbEntity
  8
Visible (ISO)
100
AcDbEllipse
 10
513.6573808881608
 20
223.0184112457079
 30
0.0
 11
-1.122822476065026
 21
-1.949812731326574
 31
0.0
210
0.0
220
0.0
230
1.0
 40
0.5780931159158104
 41
1.244018446650965
 42
2.651740311405617
  0
LINE
  5
46E
330
75
100
AcDbEntity
  8
Visible (ISO)
100
AcDbLine
 10
515.2130158067714
 20
199.2243186458061
 30
0.0
 11
514.3644876693401
 21
198.7356837892513
 31
0.0
  0
LINE
  5
46F
330
75
100
AcDbEntity
  8
Visible (ISO)
100
AcDbLine
 10
515.2130158067714
 20
201.5999388537366
 30
0.0
 11
515.2130158067714
 21
199.2243186458061
 31
0.0
  0
LINE
  5
470
330
75
100
AcDbEntity
  8
Visible (ISO)
100
AcDbLine
 10
515.2130158067714
 20
204.4566202447985
 30
0.0
 11
514.3644876693401
 21
203.9679853882435
 31
0.0
  0
LINE
  5
471
330
75
100
AcDbEntity
  8
Visible (ISO)
100
AcDbLine
 10
515.2130158067714
 20
210.0159406937277
 30
0.0
 11
515.2130158067714
 21
204.4566202447985
 31
0.0
  0
LINE
  5
472
330
75
100
AcDbEntity
  8
Visible (ISO)
100
AcDbLine
 10
516.6272293691447
 20
212.4654263709973
 30
0.0
 11
515.2130158067714
 21
210.0159406937277
 31
0.0
  0
LINE
  5
473
330
75
100
AcDbEntity
  8
Visible (ISO)
100
AcDbLine
 10
516.6272293691447
 20
215.6585937037703
 30
0.0
 11
516.6272293691447
 21
212.4654263709973
 31
0.0
  0
LINE
  5
474
330
75
100
AcDbEntity
  8
Visible (ISO)
100
AcDbLine
 10
515.2130158067714
 20
259.2322776092486
 30
0.0
 11
513.1624061413297
 21
258.0514100392509
 31
0.0
  0
LINE
  5
475
330
75
100
AcDbEntity
  8
Visible (ISO)
100
AcDbLine
 10
515.2130158067714
 20
264.791598058178
 30
0.0
 11
515.2130158067714
 21
259.2322776092486
 31
0.0
  0
LINE
  5
476
330
75
100
AcDbEntity
  8
Visible (ISO)
100
AcDbLine
 10
516.6272293691447
 20
267.2410837354476
 30
0.0
 11
515.2130158067714
 21
264.791598058178
 31
0.0
  0
LINE
  5
477
330
75
100
AcDbEntity
  8
Visible (ISO)
100
AcDbLine
 10
516.6272293691447
 20
270.4342510682204
 30
0.0
 11
516.6272293691447
 21
267.2410837354476
 31
0.0
  0
LINE
  5
478
330
75
100
AcDbEntity
  8
Visible (ISO)
100
AcDbLine
 10
524.6175359965535
 20
181.1811527021493
 30
0.0
 11
524.6175359965536
 21
174.2320021409878
 31
0.0
  0
LINE
  5
479
330
75
100
AcDbEntity
  8
Visible (ISO)
100
AcDbLine
 10
526.0317495589269
 20
173.4112993188873
 30
0.0
 11
534.5170309331668
 21
178.2976478843945
 31
0.0
  0
LINE
  5
47A
330
75
100
AcDbEntity
  8
Visible (ISO)
100
AcDbLine
 10
534.5170309331668
 20
178.2976478843945
 30
0.0
 11
535.9312444955399
 21
180.7471335616642
 31
0.0
  0
LINE
  5
47B
330
75
100
AcDbEntity
  8
Visible (ISO)
100
AcDbLine
 10
535.9312444955399
 20
180.7471335616642
 30
0.0
 11
535.9312444955399
 21
296.0212781644622
 31
0.0
  0
LINE
  5
47C
330
75
100
AcDbEntity
  8
Visible (ISO)
100
AcDbLine
 10
535.9312444955399
 20
296.0212781644622
 30
0.0
 11
534.5170309331668
 21
296.8419809865628
 31
0.0
  0
LINE
  5
47D
330
75
100
AcDbEntity
  8
Visible (ISO)
100
AcDbLine
 10
534.5170309331668
 20
296.8419809865628
 30
0.0
 11
526.0317495589268
 21
291.9556324210556
 31
0.0
  0
LINE
  5
47E
330
75
100
AcDbEntity
  8
Visible (ISO)
100
AcDbLine
 10
526.0317495589268
 20
291.9556324210556
 30
0.0
 11
524.6175359965536
 21
289.5061467437859
 31
0.0
  0
LINE
  5
47F
330
75
100
AcDbEntity
  8
Visible (ISO)
100
AcDbLine
 10
524.6175359965536
 20
289.5061467437859
 30
0.0
 11
524.6175359965535
 21
282.5569961826243
 31
0.0
  0
LINE
  5
480
330
75
100
AcDbEntity
  8
Visible (ISO)
100
AcDbLine
 10
524.6175359965535
 20
282.5569961826243
 30
0.0
 11
505.5256529045141
 21
271.5627119102329
 31
0.0
  0
LINE
  5
481
330
75
100
AcDbEntity
  8
Visible (ISO)
100
AcDbLine
 10
505.5256529045141
 20
271.5627119102329
 30
0.0
 11
505.5256529045141
 21
278.5118624713945
 31
0.0
  0
LINE
  5
482
330
75
100
AcDbEntity
  8
Visible (ISO)
100
AcDbLine
 10
505.5256529045141
 20
278.5118624713945
 30
0.0
 11
504.1114393421407
 21
279.332565293495
 31
0.0
  0
LINE
  5
483
330
75
100
AcDbEntity
  8
Visible (ISO)
100
AcDbLine
 10
504.1114393421407
 20
279.332565293495
 30
0.0
 11
495.6261579679008
 21
274.4462167279878
 31
0.0
  0
LINE
  5
484
330
75
100
AcDbEntity
  8
Visible (ISO)
100
AcDbLine
 10
495.6261579679008
 20
274.4462167279878
 30
0.0
 11
494.2119444055276
 21
271.9967310507182
 31
0.0
  0
LINE
  5
485
330
75
100
AcDbEntity
  8
Visible (ISO)
100
AcDbLine
 10
494.2119444055276
 20
271.9967310507182
 30
0.0
 11
494.2119444055276
 21
261.3686184277651
 31
0.0
  0
LINE
  5
486
330
75
100
AcDbEntity
  8
Visible (ISO)
100
AcDbLine
 10
494.2119444055276
 20
261.3686184277651
 30
0.0
 11
491.7370706713742
 21
259.9434334294921
 31
0.0
  0
LINE
  5
487
330
75
100
AcDbEntity
  8
Visible Narrow (ISO)
100
AcDbLine
 10
491.7370706713742
 20
259.1290420019074
 30
0.0
 11
491.7370706713742
 21
259.9434334294921
 31
0.0
  0
LINE
  5
488
330
75
100
AcDbEntity
  8
Visible (ISO)
100
AcDbLine
 10
494.2119444055276
 20
162.464350505364
 30
0.0
 11
494.2119444055276
 21
156.72258644792
 31
0.0
  0
LINE
  5
489
330
75
100
AcDbEntity
  8
Visible (ISO)
100
AcDbLine
 10
494.2119444055276
 20
156.72258644792
 30
0.0
 11
495.6261579679008
 21
155.9018836258194
 31
0.0
  0
LINE
  5
48A
330
75
100
AcDbEntity
  8
Visible (ISO)
100
AcDbLine
 10
495.6261579679008
 20
155.9018836258194
 30
0.0
 11
500.617005112384
 21
158.7759213517984
 31
0.0
  0
LINE
  5
48B
330
75
100
AcDbEntity
  8
Visible (ISO)
100
AcDbLine
 10
514.3644876693401
 20
175.2768148521574
 30
0.0
 11
517.900021575273
 21
177.3127934211186
 31
0.0
  0
LINE
  5
48C
330
75
100
AcDbEntity
  8
Visible (ISO)
100
AcDbLine
 10
520.0783397856351
 20
178.5672034510245
 30
0.0
 11
520.1963941838291
 21
178.6351864575773
 31
0.0
  0
LINE
  5
48D
330
75
100
AcDbEntity
  8
Visible (ISO)
100
AcDbLine
 10
524.2639826059514
 20
180.9775548452481
 30
0.0
 11
524.6175359965535
 21
181.1811527021493
 31
0.0
  0
ELLIPSE
  5
48E
330
75
100
AcDbEntity
  8
Visible (ISO)
100
AcDbEllipse
 10
499.8687986550208
 20
272.8016553865287
 30
0.0
 11
1.297483750119455
 21
2.253116933977458
 31
0.0
210
0.0
220
0.0
230
0.9999999999999998
 40
0.5780931159158106
 41
0.0
 42
6.283185307179586
  0
ELLIPSE
  5
48F
330
75
100
AcDbEntity
  8
Visible (ISO)
100
AcDbEllipse
 10
530.2743902460467
 20
290.3110710795965
 30
0.0
 11
1.297483750119455
 21
2.253116933977458
 31
0.0
210
0.0
220
0.0
230
0.9999999999999998
 40
0.5780931159158106
 41
0.0
 42
6.283185307179586
  0
ELLIPSE
  5
490
330
75
100
AcDbEntity
  8
Visible (ISO)
100
AcDbEllipse
 10
530.2743902460467
 20
179.9422092258536
 30
0.0
 11
1.297483750119455
 21
2.253116933977458
 31
0.0
210
0.0
220
0.0
230
0.9999999999999998
 40
0.5780931159158106
 41
0.0
 42
6.283185307179586
  0
LINE
  5
491
330
75
100
AcDbEntity
  8
Visible (ISO)
100
AcDbLine
 10
527.4459631213003
 20
217.6619694893559
 30
0.0
 11
527.4459631213003
 21
219.1335543140724
 31
0.0
  0
LINE
  5
492
330
75
100
AcDbEntity
  8
Visible (ISO)
100
AcDbLine
 10
527.4459631213003
 20
219.1335543140724
 30
0.0
 11
533.1028173707934
 21
222.3911200244107
 31
0.0
  0
LINE
  5
493
330
75
100
AcDbEntity
  8
Visible (ISO)
100
AcDbLine
 10
533.1028173707934
 20
222.3911200244107
 30
0.0
 11
533.1028173707934
 21
220.9195351996941
 31
0.0
  0
LINE
  5
494
330
75
100
AcDbEntity
  8
Visible (ISO)
100
AcDbLine
 10
533.1028173707934
 20
220.9195351996941
 30
0.0
 11
527.4459631213003
 21
217.6619694893559
 31
0.0
  0
ELLIPSE
  5
495
330
75
100
AcDbEntity
  8
Visible (ISO)
100
AcDbEllipse
 10
530.2743902460469
 20
255.074789998883
 30
0.0
 11
0.6736934856389452
 21
1.169887638795983
 31
0.0
210
0.0
220
0.0
230
1.0
 40
0.5780931159158105
 41
0.0
 42
6.283185307179586
  0
ELLIPSE
  5
496
330
75
100
AcDbEntity
  8
Visible (ISO)
100
AcDbEllipse
 10
530.2743902460469
 20
215.3419997315356
 30
0.0
 11
0.6736934856389468
 21
1.169887638795986
 31
0.0
210
0.0
220
0.0
230
1.0
 40
0.5780931159158106
 41
0.0
 42
6.283185307179586
  0
ELLIPSE
  5
497
330
75
100
AcDbEntity
  8
Visible (ISO)
100
AcDbEllipse
 10
514.7180410599404
 20
222.4076176750193
 30
0.0
 11
1.122822476064794
 21
1.949812731326712
 31
0.0
210
0.0
220
0.0
230
1.0
 40
0.5780931159158104
 41
3.700964016258152
 42
7.290742854459825
  0
LINE
  5
498
330
75
100
AcDbEntity
  8
Visible (ISO)
100
AcDbLine
 10
514.3644876693401
 20
197.5140966478744
 30
0.0
 11
516.2736759785511
 21
198.6135250751176
 31
0.0
  0
LINE
  5
499
330
75
100
AcDbEntity
  8
Visible (ISO)
100
AcDbLine
 10
516.2736759785511
 20
202.2107324244248
 30
0.0
 11
514.3644876693401
 21
201.1113039971816
 31
0.0
  0
LINE
  5
49A
330
75
100
AcDbEntity
  8
Visible (ISO)
100
AcDbLine
 10
516.2736759785511
 20
198.6135250751176
 30
0.0
 11
516.2736759785511
 21
202.2107324244248
 31
0.0
  0
LINE
  5
49B
330
75
100
AcDbEntity
  8
Visible (ISO)
100
AcDbLine
 10
517.6878895409243
 20
216.2693872744585
 30
0.0
 11
514.3644876693401
 21
214.3555674196307
 31
0.0
  0
LINE
  5
49C
330
75
100
AcDbEntity
  8
Visible (ISO)
100
AcDbLine
 10
517.6878895409243
 20
211.8546328003088
 30
0.0
 11
517.6878895409243
 21
216.2693872744585
 31
0.0
  0
LINE
  5
49D
330
75
100
AcDbEntity
  8
Visible (ISO)
100
AcDbLine
 10
516.2736759785511
 20
209.4051471230392
 30
0.0
 11
517.6878895409243
 21
211.8546328003088
 31
0.0
  0
LINE
  5
49E
330
75
100
AcDbEntity
  8
Visible (ISO)
100
AcDbLine
 10
516.2736759785511
 20
203.8458266741099
 30
0.0
 11
516.2736759785511
 21
209.4051471230392
 31
0.0
  0
LINE
  5
49F
330
75
100
AcDbEntity
  8
Visible (ISO)
100
AcDbLine
 10
514.3644876693401
 20
202.7463982468667
 30
0.0
 11
516.2736759785511
 21
203.8458266741099
 31
0.0
  0
LINE
  5
4A0
330
75
100
AcDbEntity
  8
Visible (ISO)
100
AcDbLine
 10
511.7481925789565
 20
267.6246006430536
 30
0.0
 11
511.7481925789565
 21
263.2098461689038
 31
0.0
  0
LINE
  5
4A1
330
75
100
AcDbEntity
  8
Visible (ISO)
100
AcDbLine
 10
517.6878895409243
 20
271.0450446389087
 30
0.0
 11
511.7481925789565
 21
267.6246006430536
 31
0.0
  0
LINE
  5
4A2
330
75
100
AcDbEntity
  8
Visible (ISO)
100
AcDbLine
 10
517.6878895409243
 20
266.6302901647589
 30
0.0
 11
517.6878895409243
 21
271.0450446389087
 31
0.0
  0
LINE
  5
4A3
330
75
100
AcDbEntity
  8
Visible (ISO)
100
AcDbLine
 10
516.2736759785511
 20
264.1808044874893
 30
0.0
 11
517.6878895409243
 21
266.6302901647589
 31
0.0
  0
LINE
  5
4A4
330
75
100
AcDbEntity
  8
Visible (ISO)
100
AcDbLine
 10
516.2736759785511
 20
258.62148403856
 30
0.0
 11
516.2736759785511
 21
264.1808044874893
 31
0.0
  0
LINE
  5
4A5
330
75
100
AcDbEntity
  8
Visible (ISO)
100
AcDbLine
 10
513.1624061413297
 20
256.829822897874
 30
0.0
 11
516.2736759785511
 21
258.62148403856
 31
0.0
  0
LINE
  5
4A6
330
75
100
AcDbEntity
  8
Visible (ISO)
100
AcDbLine
 10
513.1624061413297
 20
262.3891433468033
 30
0.0
 11
513.1624061413297
 21
256.829822897874
 31
0.0
  0
LINE
  5
4A7
330
75
100
AcDbEntity
  8
Visible (ISO)
100
AcDbLine
 10
511.7481925789565
 20
263.2098461689038
 30
0.0
 11
513.1624061413297
 21
262.3891433468033
 31
0.0
  0
LINE
  5
4A8
330
75
100
AcDbEntity
  8
Visible (ISO)
100
AcDbLine
 10
524.6175359965536
 20
289.5061467437859
 30
0.0
 11
523.5568758247739
 21
290.1169403144745
 31
0.0
  0
LINE
  5
4A9
330
75
100
AcDbEntity
  8
Visible (ISO)
100
AcDbLine
 10
524.6175359965535
 20
282.5569961826243
 30
0.0
 11
523.5568758247739
 21
283.1677897533129
 31
0.0
  0
LINE
  5
4AA
330
75
100
AcDbEntity
  8
Visible (ISO)
100
AcDbLine
 10
494.2119444055276
 20
271.9967310507182
 30
0.0
 11
493.1512842337479
 21
272.6075246214067
 31
0.0
  0
LINE
  5
4AB
330
75
100
AcDbEntity
  8
Visible (ISO)
100
AcDbLine
 10
494.5654977961211
 20
275.0570102986763
 30
0.0
 11
495.6261579679008
 21
274.4462167279878
 31
0.0
  0
LINE
  5
4AC
330
75
100
AcDbEntity
  8
Visible (ISO)
100
AcDbLine
 10
516.2736759785511
 20
258.62148403856
 30
0.0
 11
515.2130158067714
 21
259.2322776092486
 31
0.0
  0
LINE
  5
4AD
330
75
100
AcDbEntity
  8
Visible (ISO)
100
AcDbLine
 10
516.2736759785511
 20
198.6135250751176
 30
0.0
 11
515.2130158067714
 21
199.2243186458061
 31
0.0
  0
LINE
  5
4AE
330
75
100
AcDbEntity
  8
Visible (ISO)
100
AcDbLine
 10
533.1028173707934
 20
220.9195351996941
 30
0.0
 11
532.0421571990139
 21
221.5303287703827
 31
0.0
  0
LINE
  5
4AF
330
75
100
AcDbEntity
  8
Visible (ISO)
100
AcDbLine
 10
524.9710893871472
 20
292.5664259917441
 30
0.0
 11
526.0317495589268
 21
291.9556324210556
 31
0.0
  0
LINE
  5
4B0
330
75
100
AcDbEntity
  8
Visible (ISO)
100
AcDbLine
 10
534.5170309331668
 20
296.8419809865628
 30
0.0
 11
533.4563707613871
 21
297.4527745572515
 31
0.0
  0
ELLIPSE
  5
4B1
330
75
100
AcDbEntity
  8
Visible (ISO)
100
AcDbEllipse
 10
492.4441774525607
 20
165.5183183588076
 30
0.0
 11
-2.499999999999996
 21
0.0000000000000007
 31
0.0
210
0.0
220
0.0
230
1.0
 40
0.5758617009853121
 41
0.0000000000000015
 42
0.7853981633972942
  0
LINE
  5
4B2
330
75
100
AcDbEntity
  8
Visible Narrow (ISO)
100
AcDbLine
 10
490.6764104995938
 20
164.5003290743268
 30
0.0
 11
490.676410499594
 21
258.5182484312191
 31
0.0
  0
ELLIPSE
  5
4B3
330
75
100
AcDbEntity
  8
Visible (ISO)
100
AcDbEllipse
 10
492.4441774525607
 20
259.5362377156998
 30
0.0
 11
-2.499999999999999
 21
0.0000000000000003
 31
0.0
210
0.0
220
0.0
230
1.0
 40
0.5758617009853119
 41
5.497787143781993
 42
7.0685834705769
  0
LINE
  5
4B4
330
75
100
AcDbEntity
  8
Visible (ISO)
100
AcDbLine
 10
493.1512842337479
 20
261.9794119984537
 30
0.0
 11
494.2119444055276
 21
261.3686184277651
 31
0.0
  0
LINE
  5
4B5
330
75
100
AcDbEntity
  8
Visible Narrow (ISO)
100
AcDbLine
 10
490.6764104995946
 20
260.5542270001808
 30
0.0
 11
491.7370706713742
 21
259.9434334294921
 31
0.0
  0
LINE
  5
4B6
330
75
100
AcDbEntity
  8
Visible (ISO)
100
AcDbLine
 10
504.1114393421407
 20
279.332565293495
 30
0.0
 11
503.0507791703611
 21
279.9433588641836
 31
0.0
  0
LINE
  5
4B7
330
75
100
AcDbEntity
  8
Visible (ISO)
100
AcDbLine
 10
493.1512842337479
 20
157.3333800186085
 30
0.0
 11
494.2119444055276
 21
156.72258644792
 31
0.0
  0
LINE
  5
4B8
330
75
100
AcDbEntity
  8
Visible (ISO)
100
AcDbLine
 10
517.6878895409243
 20
211.8546328003088
 30
0.0
 11
516.6272293691447
 21
212.4654263709973
 31
0.0
  0
LINE
  5
4B9
330
75
100
AcDbEntity
  8
Visible (ISO)
100
AcDbLine
 10
517.6878895409243
 20
266.6302901647589
 30
0.0
 11
516.6272293691447
 21
267.2410837354476
 31
0.0
  0
LINE
  5
4BA
330
75
100
AcDbEntity
  8
Visible (ISO)
100
AcDbLine
 10
516.2736759785511
 20
264.1808044874893
 30
0.0
 11
515.2130158067714
 21
264.791598058178
 31
0.0
  0
LINE
  5
4BB
330
75
100
AcDbEntity
  8
Visible (ISO)
100
AcDbLine
 10
495.6261579679008
 20
155.9018836258194
 30
0.0
 11
494.5654977961211
 21
156.512677196508
 31
0.0
  0
LINE
  5
4BC
330
75
100
AcDbEntity
  8
Visible (ISO)
100
AcDbLine
 10
516.2736759785511
 20
209.4051471230392
 30
0.0
 11
515.2130158067714
 21
210.0159406937277
 31
0.0
  0
LINE
  5
4BD
330
75
100
AcDbEntity
  8
Visible (ISO)
100
AcDbLine
 10
516.2736759785511
 20
203.8458266741099
 30
0.0
 11
515.2130158067714
 21
204.4566202447985
 31
0.0
  0
ELLIPSE
  5
4BE
330
75
100
AcDbEntity
  8
Visible (ISO)
100
AcDbEllipse
 10
492.4441774525607
 20
259.5362377156998
 30
0.0
 11
-1.000000000000002
 21
0.0000000000000001
 31
0.0
210
0.0
220
0.0
230
1.0
 40
0.5758617009853118
 41
5.497787143782001
 42
7.068583470576889
  0
LINE
  5
4BF
330
75
100
AcDbEntity
  8
Visible Narrow (ISO)
100
AcDbLine
 10
491.737070671374
 20
259.1290420019074
 30
0.0
 11
490.676410499594
 21
258.5182484312191
 31
0.0
  0
LINE
  5
4C0
330
75
100
AcDbEntity
  8
Visible (ISO)
100
AcDbLine
 10
513.3038274975602
 20
230.6290665958492
 30
0.0
 11
513.3038274975602
 21
166.4924946519519
 31
0.0
  0
LINE
  5
4C1
330
75
100
AcDbEntity
  8
Visible (ISO)
100
AcDbLine
 10
514.7180410599331
 20
229.8146751682645
 30
0.0
 11
513.3038274975602
 21
230.6290665958492
 31
0.0
  0
LINE
  5
4C2
330
75
100
AcDbEntity
  8
Visible (ISO)
100
AcDbLine
 10
514.7180410599331
 20
229.8146751682645
 30
0.0
 11
514.7180410599331
 21
227.3910844363667
 31
0.0
  0
LINE
  5
4C3
330
75
100
AcDbEntity
  8
Visible Narrow (ISO)
100
AcDbLine
 10
514.7180410599331
 20
227.3910844363667
 30
0.0
 11
520.0213419188314
 21
224.3371165829237
 31
0.0
  0
LINE
  5
4C4
330
75
100
AcDbEntity
  8
Visible (ISO)
100
AcDbLine
 10
520.0213419188314
 20
224.3371165829237
 30
0.0
 11
520.0213419188314
 21
241.6196263088346
 31
0.0
  0
LINE
  5
4C5
330
75
100
AcDbEntity
  8
Visible (ISO)
100
AcDbLine
 10
520.0213419188314
 20
241.6196263088346
 30
0.0
 11
490.676410499594
 21
258.5182484312191
 31
0.0
  0
LINE
  5
4C6
330
75
100
AcDbEntity
  8
Visible (ISO)
100
AcDbLine
 10
520.0213419188314
 20
147.6017069519425
 30
0.0
 11
490.6764104995938
 21
164.5003290743268
 31
0.0
  0
LINE
  5
4C7
330
75
100
AcDbEntity
  8
Visible (ISO)
100
AcDbLine
 10
520.0213419188314
 20
147.6017069519425
 30
0.0
 11
520.0213419188314
 21
165.0477261028221
 31
0.0
  0
LINE
  5
4C8
330
75
100
AcDbEntity
  8
Visible Narrow (ISO)
100
AcDbLine
 10
514.7180410599331
 20
168.1016939562651
 30
0.0
 11
520.0213419188314
 21
165.0477261028221
 31
0.0
  0
LINE
  5
4C9
330
75
100
AcDbEntity
  8
Visible (ISO)
100
AcDbLine
 10
514.7180410599331
 20
165.6781032243671
 30
0.0
 11
514.7180410599331
 21
168.1016939562651
 31
0.0
  0
LINE
  5
4CA
330
75
100
AcDbEntity
  8
Visible (ISO)
100
AcDbLine
 10
513.3038274975602
 20
166.4924946519519
 30
0.0
 11
514.7180410599331
 21
165.6781032243671
 31
0.0
  0
LINE
  5
4CB
330
75
100
AcDbEntity
  8
Visible (ISO)
100
AcDbLine
 10
492.4441774525602
 20
199.3522198923124
 30
0.0
 11
492.4441774525602
 21
178.5047682088276
 31
0.0
  0
LINE
  5
4CC
330
75
100
AcDbEntity
  8
Visible (ISO)
100
AcDbLine
 10
500.5759054362043
 20
194.6694691836998
 30
0.0
 11
492.4441774525602
 21
199.3522198923124
 31
0.0
  0
LINE
  5
4CD
330
75
100
AcDbEntity
  8
Visible (ISO)
100
AcDbLine
 10
500.5759054362043
 20
173.8220175002151
 30
0.0
 11
500.5759054362043
 21
194.6694691836998
 31
0.0
  0
LINE
  5
4CE
330
75
100
AcDbEntity
  8
Visible (ISO)
100
AcDbLine
 10
499.1616918738314
 20
174.6364089277999
 30
0.0
 11
500.5759054362043
 21
173.8220175002151
 31
0.0
  0
LINE
  5
4CF
330
75
100
AcDbEntity
  8
Visible (ISO)
100
AcDbLine
 10
499.1616918738314
 20
174.6364089277999
 30
0.0
 11
499.1616918738314
 21
177.0599996596978
 31
0.0
  0
LINE
  5
4D0
330
75
100
AcDbEntity
  8
Visible Narrow (ISO)
100
AcDbLine
 10
493.8583910149331
 20
180.1139675131407
 30
0.0
 11
499.1616918738314
 21
177.0599996596978
 31
0.0
  0
LINE
  5
4D1
330
75
100
AcDbEntity
  8
Visible (ISO)
100
AcDbLine
 10
493.858391014933
 20
177.6903767812428
 30
0.0
 11
493.8583910149331
 21
180.1139675131407
 31
0.0
  0
LINE
  5
4D2
330
75
100
AcDbEntity
  8
Visible (ISO)
100
AcDbLine
 10
492.4441774525602
 20
178.5047682088276
 30
0.0
 11
493.858391014933
 21
177.6903767812428
 31
0.0
  0
LINE
  5
4D3
330
75
100
AcDbEntity
  8
Visible (ISO)
100
AcDbLine
 10
492.4441774525602
 20
242.6413401527249
 30
0.0
 11
492.4441774525602
 21
221.7938884692401
 31
0.0
  0
LINE
  5
4D4
330
75
100
AcDbEntity
  8
Visible (ISO)
100
AcDbLine
 10
493.858391014933
 20
241.8269487251401
 30
0.0
 11
492.4441774525602
 21
242.6413401527249
 31
0.0
  0
LINE
  5
4D5
330
75
100
AcDbEntity
  8
Visible (ISO)
100
AcDbLine
 10
493.858391014933
 20
241.8269487251401
 30
0.0
 11
493.8583910149331
 21
239.4033579932423
 31
0.0
  0
LINE
  5
4D6
330
75
100
AcDbEntity
  8
Visible Narrow (ISO)
100
AcDbLine
 10
493.8583910149331
 20
239.4033579932423
 30
0.0
 11
499.1616918738314
 21
236.3493901397993
 31
0.0
  0
LINE
  5
4D7
330
75
100
AcDbEntity
  8
Visible (ISO)
100
AcDbLine
 10
499.1616918738314
 20
238.7729808716972
 30
0.0
 11
499.1616918738314
 21
236.3493901397993
 31
0.0
  0
LINE
  5
4D8
330
75
100
AcDbEntity
  8
Visible (ISO)
100
AcDbLine
 10
500.5759054362043
 20
237.9585894441124
 30
0.0
 11
499.1616918738314
 21
238.7729808716972
 31
0.0
  0
LINE
  5
4D9
330
75
100
AcDbEntity
  8
Visible (ISO)
100
AcDbLine
 10
500.5759054362043
 20
217.1111377606276
 30
0.0
 11
500.5759054362043
 21
237.9585894441124
 31
0.0
  0
LINE
  5
4DA
330
75
100
AcDbEntity
  8
Visible (ISO)
100
AcDbLine
 10
492.4441774525602
 20
221.7938884692401
 30
0.0
 11
500.5759054362043
 21
217.1111377606276
 31
0.0
  0
LINE
  5
4DB
330
75
100
AcDbEntity
  8
Visible (ISO)
100
AcDbLine
 10
514.3644876693401
 20
230.0182730251604
 30
0.0
 11
514.3644876693401
 21
167.1032882226404
 31
0.0
  0
LINE
  5
4DC
330
75
100
AcDbEntity
  8
Visible (ISO)
100
AcDbLine
 10
514.3644876693401
 20
167.1032882226404
 30
0.0
 11
514.7180410599331
 21
166.8996903657443
 31
0.0
  0
LINE
  5
4DD
330
75
100
AcDbEntity
  8
Visible (ISO)
100
AcDbLine
 10
521.0820020906113
 20
148.2125005226309
 30
0.0
 11
521.0820020906115
 21
165.6585196735106
 31
0.0
  0
LINE
  5
4DE
330
75
100
AcDbEntity
  8
Visible (ISO)
100
AcDbLine
 10
521.0820020906113
 20
242.2304198795231
 30
0.0
 11
491.737070671374
 21
259.1290420019074
 31
0.0
  0
LINE
  5
4DF
330
75
100
AcDbEntity
  8
Visible (ISO)
100
AcDbLine
 10
521.0820020906115
 20
224.947910153612
 30
0.0
 11
521.0820020906113
 21
242.2304198795231
 31
0.0
  0
LINE
  5
4E0
330
75
100
AcDbEntity
  8
Visible (ISO)
100
AcDbLine
 10
500.2223520456113
 20
236.9601837104877
 30
0.0
 11
500.2223520456113
 21
238.1621873010084
 31
0.0
  0
LINE
  5
4E1
330
75
100
AcDbEntity
  8
Visible (ISO)
100
AcDbLine
 10
493.5048376243401
 20
242.0305465820361
 30
0.0
 11
493.5048376243401
 21
222.4046820399286
 31
0.0
  0
LINE
  5
4E2
330
75
100
AcDbEntity
  8
Visible (ISO)
100
AcDbLine
 10
493.5048376243401
 20
222.4046820399286
 30
0.0
 11
500.5759054362043
 21
218.3327249020048
 31
0.0
  0
LINE
  5
4E3
330
75
100
AcDbEntity
  8
Visible (ISO)
100
AcDbLine
 10
493.5048376243401
 20
198.7414263216236
 30
0.0
 11
493.5048376243401
 21
179.115561779516
 31
0.0
  0
LINE
  5
4E4
330
75
100
AcDbEntity
  8
Visible (ISO)
100
AcDbLine
 10
493.5048376243401
 20
179.115561779516
 30
0.0
 11
493.858391014933
 21
178.91196392262
 31
0.0
  0
LINE
  5
4E5
330
75
100
AcDbEntity
  8
Visible (ISO)
100
AcDbLine
 10
500.2223520456113
 20
177.6707932303862
 30
0.0
 11
500.2223520456113
 21
175.2472024984882
 31
0.0
  0
LINE
  5
4E6
330
75
100
AcDbEntity
  8
Visible (ISO)
100
AcDbLine
 10
500.2223520456113
 20
175.2472024984882
 30
0.0
 11
500.5759054362042
 21
175.0436046415922
 31
0.0
  0
LINE
  5
4E7
330
75
100
AcDbEntity
  8
Visible (ISO)
100
AcDbLine
 10
521.0820020906113
 20
242.2304198795231
 30
0.0
 11
520.0213419188314
 21
241.6196263088346
 31
0.0
  0
LINE
  5
4E8
330
75
100
AcDbEntity
  8
Visible (ISO)
100
AcDbLine
 10
520.0213419188314
 20
147.6017069519425
 30
0.0
 11
521.0820020906113
 21
148.2125005226309
 31
0.0
  0
LINE
  5
4E9
330
75
100
AcDbEntity
  8
Visible (ISO)
100
AcDbLine
 10
493.5048376243401
 20
222.4046820399286
 30
0.0
 11
492.4441774525602
 21
221.7938884692401
 31
0.0
  0
ELLIPSE
  5
4EA
330
75
100
AcDbEntity
  8
Visible (ISO)
100
AcDbEllipse
 10
521.7891088717981
 20
166.0657153873028
 30
0.0
 11
1.247580528961172
 21
2.166458590362916
 31
0.0
210
0.0
220
0.0
230
1.0
 40
0.5780931159158105
 41
1.568862618372108
 42
2.354260781769676
  0
LINE
  5
4EB
330
75
100
AcDbEntity
  8
Visible Narrow (ISO)
100
AcDbLine
 10
515.2358080128997
 20
169.8450889043036
 30
0.0
 11
520.5391088717979
 21
166.7911210508606
 31
0.0
  0
ELLIPSE
  5
4EC
330
75
100
AcDbEntity
  8
Visible (ISO)
100
AcDbEllipse
 10
516.4858080128998
 20
169.1196832407458
 30
0.0
 11
1.247580528961161
 21
2.166458590362897
 31
0.0
210
0.0
220
0.0
230
1.0
 40
0.5780931159158105
 41
1.568862618372094
 42
2.354260781769658
  0
ELLIPSE
  5
4ED
330
75
100
AcDbEntity
  8
Visible (ISO)
100
AcDbEllipse
 10
500.9294588267979
 20
178.0779889441784
 30
0.0
 11
1.247580528961152
 21
2.166458590362881
 31
0.0
210
0.0
220
0.0
230
1.0
 40
0.5780931159158105
 41
1.568862618372095
 42
2.354260781769678
  0
LINE
  5
4EE
330
75
100
AcDbEntity
  8
Visible Narrow (ISO)
100
AcDbLine
 10
494.3761579678995
 20
181.8573624611792
 30
0.0
 11
499.6794588267978
 21
178.8033946077362
 31
0.0
  0
ELLIPSE
  5
4EF
330
75
100
AcDbEntity
  8
Visible (ISO)
100
AcDbEllipse
 10
495.6261579678996
 20
181.1319567976214
 30
0.0
 11
1.247580528961155
 21
2.166458590362885
 31
0.0
210
0.0
220
0.0
230
1.0
 40
0.5780931159158105
 41
1.568862618372108
 42
2.354260781769678
  0
LINE
  5
4F0
330
75
100
AcDbEntity
  8
Visible (ISO)
100
AcDbLine
 10
493.5048376243401
 20
179.115561779516
 30
0.0
 11
492.4441774525602
 21
178.5047682088276
 31
0.0
  0
LINE
  5
4F1
330
75
100
AcDbEntity
  8
Visible Narrow (ISO)
100
AcDbLine
 10
515.2358080128997
 20
226.2440138048265
 30
0.0
 11
520.5391088717979
 21
223.1900459513835
 31
0.0
  0
ELLIPSE
  5
4F2
330
75
100
AcDbEntity
  8
Visible (ISO)
100
AcDbEllipse
 10
521.7891088717981
 20
225.3551058674045
 30
0.0
 11
-1.247580528961031
 21
-2.166458590362972
 31
0.0
210
0.0
220
0.0
230
1.0
 40
0.5780931159158107
 41
5.495853435359263
 42
6.281251598756694
  0
ELLIPSE
  5
4F3
330
75
100
AcDbEntity
  8
Visible (ISO)
100
AcDbEllipse
 10
516.4858080128998
 20
228.4090737208473
 30
0.0
 11
-1.247580528961007
 21
-2.166458590362929
 31
0.0
210
0.0
220
0.0
230
1.0
 40
0.5780931159158106
 41
5.4958534353593
 42
6.281251598756737
  0
LINE
  5
4F4
330
75
100
AcDbEntity
  8
Visible (ISO)
100
AcDbLine
 10
517.900021575273
 20
224.3592662121793
 30
0.0
 11
517.900021575273
 21
214.8873398210577
 31
0.0
  0
ELLIPSE
  5
4F5
330
75
100
AcDbEntity
  8
Visible (ISO)
100
AcDbEllipse
 10
517.1929147940865
 20
223.9520704983871
 30
0.0
 11
0.4990322115843694
 21
0.8665834361451134
 31
0.0
210
0.0
220
0.0
230
1.0
 40
0.5780931159158105
 41
5.495853435359219
 42
6.281251598756696
  0
LINE
  5
4F6
330
75
100
AcDbEntity
  8
Visible (ISO)
100
AcDbLine
 10
515.2358080128997
 20
226.2440138048265
 30
0.0
 11
517.6929147940866
 21
224.8180944647953
 31
0.0
  0
LINE
  5
4F7
330
75
100
AcDbEntity
  8
Visible (ISO)
100
AcDbLine
 10
514.3644876693401
 20
167.1032882226404
 30
0.0
 11
513.3038274975602
 21
166.4924946519519
 31
0.0
  0
LINE
  5
4F8
330
75
100
AcDbEntity
  8
Visible (ISO)
100
AcDbLine
 10
494.3761579678995
 20
181.8573624611792
 30
0.0
 11
496.8332647490864
 21
186.1131891822431
 31
0.0
  0
ELLIPSE
  5
4F9
330
75
100
AcDbEntity
  8
Visible (ISO)
100
AcDbEllipse
 10
496.3332647490864
 20
186.4033514476662
 30
0.0
 11
0.499032211584368
 21
0.8665834361451109
 31
0.0
210
0.0
220
0.0
230
1.0
 40
0.5780931159158104
 41
4.710455271961793
 42
5.4958534353593
  0
LINE
  5
4FA
330
75
100
AcDbEntity
  8
Visible (ISO)
100
AcDbLine
 10
497.040371530273
 20
186.8105471614585
 30
0.0
 11
497.040371530273
 21
196.2824735525801
 31
0.0
  0
LINE
  5
4FB
330
75
100
AcDbEntity
  8
Visible (ISO)
100
AcDbLine
 10
497.040371530273
 20
196.2824735525801
 30
0.0
 11
497.4076248129253
 21
196.4939606526206
 31
0.0
  0
ELLIPSE
  5
4FC
330
75
100
AcDbEntity
  8
Visible (ISO)
100
AcDbEllipse
 10
521.7891088717981
 20
166.0657153873028
 30
0.0
 11
-0.4990322115844149
 21
-0.8665834361451924
 31
0.0
210
0.0
220
0.0
230
1.0
 40
0.5780931159158104
 41
4.710455271961768
 42
5.495853435359162
  0
LINE
  5
4FD
330
75
100
AcDbEntity
  8
Visible (ISO)
100
AcDbLine
 10
523.746215652985
 20
170.6117043737899
 30
0.0
 11
521.289108871798
 21
166.3558776527259
 31
0.0
  0
ELLIPSE
  5
4FE
330
75
100
AcDbEntity
  8
Visible (ISO)
100
AcDbEllipse
 10
522.4962156529848
 20
171.3371100373476
 30
0.0
 11
-1.247580528961123
 21
-2.166458590362831
 31
0.0
210
0.0
220
0.0
230
1.0
 40
0.5780931159158105
 41
1.568862618372133
 42
2.354260781769731
  0
LINE
  5
4FF
330
75
100
AcDbEntity
  8
Visible (ISO)
100
AcDbLine
 10
524.2639826059514
 20
181.8270257129499
 30
0.0
 11
524.2639826059514
 21
172.3550993218283
 31
0.0
  0
LINE
  5
500
330
75
100
AcDbEntity
  8
Visible (ISO)
100
AcDbLine
 10
523.2033224341714
 20
181.2162321422615
 30
0.0
 11
524.2639826059514
 21
181.8270257129499
 31
0.0
  0
LINE
  5
501
330
75
100
AcDbEntity
  8
Visible (ISO)
100
AcDbLine
 10
523.2033224341714
 20
171.74430575114
 30
0.0
 11
523.2033224341714
 21
181.2162321422615
 31
0.0
  0
ELLIPSE
  5
502
330
75
100
AcDbEntity
  8
Visible (ISO)
100
AcDbEllipse
 10
522.4962156529848
 20
171.3371100373476
 30
0.0
 11
0.4990322115843819
 21
0.866583436145135
 31
0.0
210
0.0
220
0.0
230
1.0
 40
0.5780931159158105
 41
4.710455271961824
 42
5.4958534353593
  0
LINE
  5
503
330
75
100
AcDbEntity
  8
Visible (ISO)
100
AcDbLine
 10
520.5391088717979
 20
166.7911210508606
 30
0.0
 11
522.9962156529849
 21
171.0469477719246
 31
0.0
  0
LINE
  5
504
330
75
100
AcDbEntity
  8
Visible (ISO)
100
AcDbLine
 10
500.2223520456113
 20
175.2472024984882
 30
0.0
 11
499.1616918738314
 21
174.6364089277999
 31
0.0
  0
ELLIPSE
  5
505
330
75
100
AcDbEntity
  8
Visible (ISO)
100
AcDbEllipse
 10
500.9294588267979
 20
178.0779889441784
 30
0.0
 11
-0.4990322115844196
 21
-0.8665834361452004
 31
0.0
210
0.0
220
0.0
230
1.0
 40
0.5780931159158105
 41
4.710455271961768
 42
5.495853435359119
  0
LINE
  5
506
330
75
100
AcDbEntity
  8
Visible (ISO)
100
AcDbLine
 10
500.5759054362043
 20
178.6218037566917
 30
0.0
 11
500.4294588267979
 21
178.3681512096015
 31
0.0
  0
LINE
  5
507
330
75
100
AcDbEntity
  8
Visible (ISO)
100
AcDbLine
 10
499.6794588267978
 20
178.8033946077362
 30
0.0
 11
500.5759054362043
 21
180.3560831044389
 31
0.0
  0
LINE
  5
508
330
75
100
AcDbEntity
  8
Visible Narrow (ISO)
100
AcDbLine
 10
494.3761579678995
 20
238.2562873617021
 30
0.0
 11
499.6794588267978
 21
235.2023195082591
 31
0.0
  0
ELLIPSE
  5
509
330
75
100
AcDbEntity
  8
Visible (ISO)
100
AcDbEllipse
 10
500.9294588267979
 20
237.36737942428
 30
0.0
 11
-1.247580528961023
 21
-2.166458590362955
 31
0.0
210
0.0
220
0.0
230
0.9999999999999998
 40
0.5780931159158106
 41
5.495853435359264
 42
6.281251598756737
  0
ELLIPSE
  5
50A
330
75
100
AcDbEntity
  8
Visible (ISO)
100
AcDbEllipse
 10
495.6261579678996
 20
240.421347277723
 30
0.0
 11
-1.247580528961018
 21
-2.166458590362949
 31
0.0
210
0.0
220
0.0
230
1.0
 40
0.5780931159158106
 41
5.495853435359247
 42
6.281251598756724
  0
LINE
  5
50B
330
75
100
AcDbEntity
  8
Visible (ISO)
100
AcDbLine
 10
515.2358080128997
 20
169.8450889043036
 30
0.0
 11
517.6929147940866
 21
174.1009156253675
 31
0.0
  0
ELLIPSE
  5
50C
330
75
100
AcDbEntity
  8
Visible (ISO)
100
AcDbEllipse
 10
517.1929147940865
 20
174.3910778907906
 30
0.0
 11
0.4990322115843788
 21
0.8665834361451295
 31
0.0
210
0.0
220
0.0
230
1.0
 40
0.5780931159158105
 41
4.710455271961824
 42
5.4958534353593
  0
LINE
  5
50D
330
75
100
AcDbEntity
  8
Visible (ISO)
100
AcDbLine
 10
517.900021575273
 20
174.7982736045829
 30
0.0
 11
517.900021575273
 21
184.2701999957045
 31
0.0
  0
LINE
  5
50E
330
75
100
AcDbEntity
  8
Visible (ISO)
100
AcDbLine
 10
517.900021575273
 20
184.2701999957045
 30
0.0
 11
518.9606817470531
 21
184.8809935663929
 31
0.0
  0
LINE
  5
50F
330
75
100
AcDbEntity
  8
Visible (ISO)
100
AcDbLine
 10
520.5391088717979
 20
223.1900459513835
 30
0.0
 11
522.9962156529849
 21
221.7641266113524
 31
0.0
  0
ELLIPSE
  5
510
330
75
100
AcDbEntity
  8
Visible (ISO)
100
AcDbEllipse
 10
522.4962156529848
 20
220.898102644944
 30
0.0
 11
0.4990322115843772
 21
0.8665834361451269
 31
0.0
210
0.0
220
0.0
230
1.0
 40
0.5780931159158106
 41
5.495853435359219
 42
6.281251598756696
  0
LINE
  5
511
330
75
100
AcDbEntity
  8
Visible (ISO)
100
AcDbLine
 10
523.2033224341714
 20
221.3052983587363
 30
0.0
 11
523.2033224341714
 21
211.8333719676147
 31
0.0
  0
LINE
  5
512
330
75
100
AcDbEntity
  8
Visible (ISO)
100
AcDbLine
 10
523.2033224341714
 20
211.8333719676147
 30
0.0
 11
524.2639826059514
 21
212.4441655383032
 31
0.0
  0
LINE
  5
513
330
75
100
AcDbEntity
  8
Visible (ISO)
100
AcDbLine
 10
524.2639826059514
 20
212.4441655383032
 30
0.0
 11
524.2639826059514
 21
221.9160919294247
 31
0.0
  0
ELLIPSE
  5
514
330
75
100
AcDbEntity
  8
Visible (ISO)
100
AcDbEllipse
 10
522.4962156529848
 20
220.8981026449441
 30
0.0
 11
1.247580528960987
 21
2.166458590362895
 31
0.0
210
0.0
220
0.0
230
1.0
 40
0.5780931159158106
 41
5.495853435359231
 42
6.281251598756712
  0
LINE
  5
515
330
75
100
AcDbEntity
  8
Visible (ISO)
100
AcDbLine
 10
523.746215652985
 20
223.0631625609649
 30
0.0
 11
521.289108871798
 21
224.489081900996
 31
0.0
  0
ELLIPSE
  5
516
330
75
100
AcDbEntity
  8
Visible (ISO)
100
AcDbEllipse
 10
521.7891088717981
 20
225.3551058674044
 30
0.0
 11
-0.4990322115844114
 21
-0.8665834361451866
 31
0.0
210
0.0
220
0.0
230
1.0
 40
0.5780931159158106
 41
5.495853435359299
 42
6.281251598756681
  0
LINE
  5
517
330
75
100
AcDbEntity
  8
Visible (ISO)
100
AcDbLine
 10
499.6794588267978
 20
235.2023195082591
 30
0.0
 11
500.5759054362043
 21
234.6820895502268
 31
0.0
  0
LINE
  5
518
330
75
100
AcDbEntity
  8
Visible (ISO)
100
AcDbLine
 10
500.5759054362043
 20
236.4163688979739
 30
0.0
 11
500.4294588267979
 21
236.5013554578716
 31
0.0
  0
ELLIPSE
  5
519
330
75
100
AcDbEntity
  8
Visible (ISO)
100
AcDbEllipse
 10
500.9294588267979
 20
237.36737942428
 30
0.0
 11
-0.4990322115844133
 21
-0.8665834361451894
 31
0.0
210
0.0
220
0.0
230
1.0
 40
0.5780931159158104
 41
5.4958534353593
 42
6.281251598756682
  0
LINE
  5
51A
330
75
100
AcDbEntity
  8
Visible (ISO)
100
AcDbLine
 10
497.040371530273
 20
236.3715397690549
 30
0.0
 11
497.040371530273
 21
226.8996133779333
 31
0.0
  0
ELLIPSE
  5
51B
330
75
100
AcDbEntity
  8
Visible (ISO)
100
AcDbEllipse
 10
496.3332647490864
 20
235.9643440552627
 30
0.0
 11
0.4990322115843631
 21
0.8665834361451025
 31
0.0
210
0.0
220
0.0
230
1.0
 40
0.5780931159158107
 41
5.495853435359176
 42
6.281251598756665
  0
LINE
  5
51C
330
75
100
AcDbEntity
  8
Visible (ISO)
100
AcDbLine
 10
494.3761579678995
 20
238.2562873617021
 30
0.0
 11
496.8332647490864
 21
236.830368021671
 31
0.0
  0
LINE
  5
51D
330
75
100
AcDbEntity
  8
Visible Narrow (ISO)
100
AcDbLine
 10
517.6929147940866
 20
174.1009156253675
 30
0.0
 11
522.9962156529849
 21
171.0469477719246
 31
0.0
  0
LINE
  5
51E
330
75
100
AcDbEntity
  8
Visible Narrow (ISO)
100
AcDbLine
 10
496.8332647490864
 20
186.1131891822431
 30
0.0
 11
500.5759054362043
 21
183.957945749982
 31
0.0
  0
LINE
  5
51F
330
75
100
AcDbEntity
  8
Visible Narrow (ISO)
100
AcDbLine
 10
517.6929147940866
 20
224.8180944647953
 30
0.0
 11
522.9962156529849
 21
221.7641266113524
 31
0.0
  0
LINE
  5
520
330
75
100
AcDbEntity
  8
Visible (ISO)
100
AcDbLine
 10
517.900021575273
 20
214.8873398210577
 30
0.0
 11
523.2033224341714
 21
211.8333719676147
 31
0.0
  0
LINE
  5
521
330
75
100
AcDbEntity
  8
Visible Narrow (ISO)
100
AcDbLine
 10
517.900021575273
 20
224.3592662121793
 30
0.0
 11
523.2033224341714
 21
221.3052983587363
 31
0.0
  0
LINE
  5
522
330
75
100
AcDbEntity
  8
Visible Narrow (ISO)
100
AcDbLine
 10
497.040371530273
 20
186.8105471614585
 30
0.0
 11
500.5759054362043
 21
184.7745685924971
 31
0.0
  0
LINE
  5
523
330
75
100
AcDbEntity
  8
Visible (ISO)
100
AcDbLine
 10
497.040371530273
 20
196.2824735525801
 30
0.0
 11
500.5759054362043
 21
194.2464949836187
 31
0.0
  0
LINE
  5
524
330
75
100
AcDbEntity
  8
Visible (ISO)
100
AcDbLine
 10
517.900021575273
 20
184.2701999957045
 30
0.0
 11
523.2033224341714
 21
181.2162321422615
 31
0.0
  0
LINE
  5
525
330
75
100
AcDbEntity
  8
Visible (ISO)
100
AcDbLine
 10
518.9606817470531
 20
184.8809935663929
 30
0.0
 11
524.2639826059514
 21
181.8270257129499
 31
0.0
  0
LINE
  5
526
330
75
100
AcDbEntity
  8
Visible Narrow (ISO)
100
AcDbLine
 10
517.900021575273
 20
174.7982736045829
 30
0.0
 11
523.2033224341714
 21
171.74430575114
 31
0.0
  0
LINE
  5
527
330
75
100
AcDbEntity
  8
Visible Narrow (ISO)
100
AcDbLine
 10
496.8332647490864
 20
236.830368021671
 30
0.0
 11
500.5759054362043
 21
234.6751245894098
 31
0.0
  0
LINE
  5
528
330
75
100
AcDbEntity
  8
Visible (ISO)
100
AcDbLine
 10
497.040371530273
 20
226.8996133779333
 30
0.0
 11
500.5759054362043
 21
224.863634808972
 31
0.0
  0
LINE
  5
529
330
75
100
AcDbEntity
  8
Visible Narrow (ISO)
100
AcDbLine
 10
497.040371530273
 20
236.3715397690549
 30
0.0
 11
500.5759054362043
 21
234.3355612000935
 31
0.0
  0
LINE
  5
52A
330
75
100
AcDbEntity
  8
Visible (ISO)
100
AcDbLine
 10
500.5759054362043
 20
188.1102558548034
 30
0.0
 11
499.9663162983625
 21
187.7592168169838
 31
0.0
  0
LINE
  5
52B
330
75
100
AcDbEntity
  8
Visible (ISO)
100
AcDbLine
 10
498.5691994836577
 20
192.1474771361884
 30
0.0
 11
497.7206713462337
 21
191.6588422796377
 31
0.0
  0
LINE
  5
52C
330
75
100
AcDbEntity
  8
Visible (ISO)
100
AcDbLine
 10
521.6744944807867
 20
176.235578116659
 30
0.0
 11
520.8259663433627
 21
175.7469432601082
 31
0.0
  0
LINE
  5
52D
330
75
100
AcDbEntity
  8
Visible (ISO)
100
AcDbLine
 10
519.4288495286579
 20
180.1352035793128
 30
0.0
 11
518.5803213912338
 21
179.6465687227621
 31
0.0
  0
LINE
  5
52E
330
75
100
AcDbEntity
  8
Visible (ISO)
100
AcDbLine
 10
500.5759054362043
 20
227.8430461221509
 30
0.0
 11
499.9663162983625
 21
227.4920070843314
 31
0.0
  0
LINE
  5
52F
330
75
100
AcDbEntity
  8
Visible (ISO)
100
AcDbLine
 10
498.5691994836577
 20
231.8802674035359
 30
0.0
 11
497.7206713462337
 21
231.3916325469852
 31
0.0
  0
LINE
  5
530
330
75
100
AcDbEntity
  8
Visible (ISO)
100
AcDbLine
 10
521.6744944807867
 20
215.9683683840064
 30
0.0
 11
520.8259663433627
 21
215.4797335274557
 31
0.0
  0
LINE
  5
531
330
75
100
AcDbEntity
  8
Visible (ISO)
100
AcDbLine
 10
519.4288495286579
 20
219.8679938466603
 30
0.0
 11
518.5803213912338
 21
219.3793589901096
 31
0.0
  0
LINE
  5
532
330
75
100
AcDbEntity
  8
Visible (ISO)
100
AcDbLine
 10
489.9441774525607
 20
259.5362377156998
 30
0.0
 11
489.9441774525607
 21
165.5183183588076
 31
0.0
  0
POLYLINE
  5
533
330
75
100
AcDbEntity
  8
Visible (ISO)
100
AcDb2dPolyline
 66
     1
 10
0.0
 20
0.0
 30
0.0
 70
   128
  0
VERTEX
  5
534
330
533
100
AcDbEntity
  8
Visible (ISO)
100
AcDbVertex
100
AcDb2dVertex
 10
520.8360276879061
 20
217.0996981864728
 30
0.0
  0
VERTEX
  5
535
330
533
100
AcDbEntity
  8
Visible (ISO)
100
AcDbVertex
100
AcDb2dVertex
 10
520.6999641739215
 20
217.2499568321872
 30
0.0
  0
VERTEX
  5
537
330
533
100
AcDbEntity
  8
Visible (ISO)
100
AcDbVertex
100
AcDb2dVertex
 10
520.5671560825159
 20
217.4165770291304
 30
0.0
  0
VERTEX
  5
538
330
533
100
AcDbEntity
  8
Visible (ISO)
100
AcDbVertex
100
AcDb2dVertex
 10
520.4407998306801
 20
217.5966342093642
 30
0.0
  0
VERTEX
  5
539
330
533
100
AcDbEntity
  8
Visible (ISO)
100
AcDbVertex
100
AcDb2dVertex
 10
520.3236349635678
 20
217.786863578254
 30
0.0
  0
VERTEX
  5
53A
330
533
100
AcDbEntity
  8
Visible (ISO)
100
AcDbVertex
100
AcDb2dVertex
 10
520.2179003217715
 20
217.9836756101332
 30
0.0
  0
VERTEX
  5
53B
330
533
100
AcDbEntity
  8
Visible (ISO)
100
AcDbVertex
100
AcDb2dVertex
 10
520.1256273833896
 20
218.1833549629047
 30
0.0
  0
VERTEX
  5
53C
330
533
100
AcDbEntity
  8
Visible (ISO)
100
AcDbVertex
100
AcDb2dVertex
 10
520.0481328159697
 20
218.3818370218279
 30
0.0
  0
VERTEX
  5
53D
330
533
100
AcDbEntity
  8
Visible (ISO)
100
AcDbVertex
100
AcDb2dVertex
 10
519.9864888353377
 20
218.5749469567298
 30
0.0
  0
SEQEND
  5
536
330
533
100
AcDbEntity
  8
Visible (ISO)
  0
POLYLINE
  5
53E
330
75
100
AcDbEntity
  8
Visible (ISO)
100
AcDb2dPolyline
 66
     1
 10
0.0
 20
0.0
 30
0.0
 70
   128
  0
VERTEX
  5
53F
330
53E
100
AcDbEntity
  8
Visible (ISO)
100
AcDbVertex
100
AcDb2dVertex
 10
499.1268384531628
 20
190.8544312980651
 30
0.0
  0
VERTEX
  5
540
330
53E
100
AcDbEntity
  8
Visible (ISO)
100
AcDbVertex
100
AcDb2dVertex
 10
499.1885030857506
 20
190.6613269755322
 30
0.0
  0
VERTEX
  5
542
330
53E
100
AcDbEntity
  8
Visible (ISO)
100
AcDbVertex
100
AcDb2dVertex
 10
499.2659533989797
 20
190.462827594087
 30
0.0
  0
VERTEX
  5
543
330
53E
100
AcDbEntity
  8
Visible (ISO)
100
AcDbVertex
100
AcDb2dVertex
 10
499.3582642695252
 20
190.2631653211299
 30
0.0
  0
VERTEX
  5
544
330
53E
100
AcDbEntity
  8
Visible (ISO)
100
AcDbVertex
100
AcDb2dVertex
 10
499.463984581393
 20
190.0663459704051
 30
0.0
  0
VERTEX
  5
545
330
53E
100
AcDbEntity
  8
Visible (ISO)
100
AcDbVertex
100
AcDb2dVertex
 10
499.5811363829822
 20
189.8761105037312
 30
0.0
  0
VERTEX
  5
546
330
53E
100
AcDbEntity
  8
Visible (ISO)
100
AcDbVertex
100
AcDb2dVertex
 10
499.7075259308283
 20
189.6960750222791
 30
0.0
  0
VERTEX
  5
547
330
53E
100
AcDbEntity
  8
Visible (ISO)
100
AcDbVertex
100
AcDb2dVertex
 10
499.8402969330072
 20
189.5294255800486
 30
0.0
  0
VERTEX
  5
548
330
53E
100
AcDbEntity
  8
Visible (ISO)
100
AcDbVertex
100
AcDb2dVertex
 10
499.9763781486683
 20
189.3791800932088
 30
0.0
  0
SEQEND
  5
541
330
53E
100
AcDbEntity
  8
Visible (ISO)
  0
POLYLINE
  5
549
330
75
100
AcDbEntity
  8
Visible (ISO)
100
AcDb2dPolyline
 66
     1
 10
0.0
 20
0.0
 30
0.0
 70
   128
  0
VERTEX
  5
54A
330
549
100
AcDbEntity
  8
Visible (ISO)
100
AcDbVertex
100
AcDb2dVertex
 10
519.9864888353377
 20
178.8421575470234
 30
0.0
  0
VERTEX
  5
54B
330
549
100
AcDbEntity
  8
Visible (ISO)
100
AcDbVertex
100
AcDb2dVertex
 10
520.048153046457
 20
178.649053467198
 30
0.0
  0
VERTEX
  5
54D
330
549
100
AcDbEntity
  8
Visible (ISO)
100
AcDbVertex
100
AcDb2dVertex
 10
520.1256037811544
 20
178.4505538430453
 30
0.0
  0
VERTEX
  5
54E
330
549
100
AcDbEntity
  8
Visible (ISO)
100
AcDbVertex
100
AcDb2dVertex
 10
520.2179138087631
 20
178.2508920555033
 30
0.0
  0
VERTEX
  5
54F
330
549
100
AcDbEntity
  8
Visible (ISO)
100
AcDbVertex
100
AcDb2dVertex
 10
520.3236349635678
 20
178.0540722193634
 30
0.0
  0
VERTEX
  5
550
330
549
100
AcDbEntity
  8
Visible (ISO)
100
AcDbVertex
100
AcDb2dVertex
 10
520.4407863436886
 20
177.8638369953971
 30
0.0
  0
VERTEX
  5
551
330
549
100
AcDbEntity
  8
Visible (ISO)
100
AcDbVertex
100
AcDb2dVertex
 10
520.567176313003
 20
177.6838012712374
 30
0.0
  0
VERTEX
  5
552
330
549
100
AcDbEntity
  8
Visible (ISO)
100
AcDbVertex
100
AcDb2dVertex
 10
520.6999473151821
 20
177.5171518290069
 30
0.0
  0
VERTEX
  5
553
330
549
100
AcDbEntity
  8
Visible (ISO)
100
AcDbVertex
100
AcDb2dVertex
 10
520.8360276879061
 20
177.3669068275822
 30
0.0
  0
SEQEND
  5
54C
330
549
100
AcDbEntity
  8
Visible (ISO)
  0
POLYLINE
  5
554
330
75
100
AcDbEntity
  8
Visible (ISO)
100
AcDb2dPolyline
 66
     1
 10
0.0
 20
0.0
 30
0.0
 70
   128
  0
VERTEX
  5
555
330
554
100
AcDbEntity
  8
Visible (ISO)
100
AcDbVertex
100
AcDb2dVertex
 10
499.9763781486683
 20
229.1119714520994
 30
0.0
  0
VERTEX
  5
556
330
554
100
AcDbEntity
  8
Visible (ISO)
100
AcDbVertex
100
AcDb2dVertex
 10
499.8403137917466
 20
229.2622305832289
 30
0.0
  0
VERTEX
  5
558
330
554
100
AcDbEntity
  8
Visible (ISO)
100
AcDbVertex
100
AcDb2dVertex
 10
499.707505700341
 20
229.428850780172
 30
0.0
  0
VERTEX
  5
559
330
554
100
AcDbEntity
  8
Visible (ISO)
100
AcDbVertex
100
AcDb2dVertex
 10
499.5811502914423
 20
229.6089074749908
 30
0.0
  0
VERTEX
  5
55A
330
554
100
AcDbEntity
  8
Visible (ISO)
100
AcDbVertex
100
AcDb2dVertex
 10
499.4639841599244
 20
229.7991375720033
 30
0.0
  0
VERTEX
  5
55B
330
554
100
AcDbEntity
  8
Visible (ISO)
100
AcDbVertex
100
AcDb2dVertex
 10
499.3582503610651
 20
229.9959491184674
 30
0.0
  0
VERTEX
  5
55C
330
554
100
AcDbEntity
  8
Visible (ISO)
100
AcDbVertex
100
AcDb2dVertex
 10
499.2659765797464
 20
230.1956289566539
 30
0.0
  0
VERTEX
  5
55D
330
554
100
AcDbEntity
  8
Visible (ISO)
100
AcDbVertex
100
AcDb2dVertex
 10
499.1884824337948
 20
230.3941107728696
 30
0.0
  0
VERTEX
  5
55E
330
554
100
AcDbEntity
  8
Visible (ISO)
100
AcDbVertex
100
AcDb2dVertex
 10
499.1268384531628
 20
230.5872207077715
 30
0.0
  0
SEQEND
  5
557
330
554
100
AcDbEntity
  8
Visible (ISO)
  0
ENDSEC
  0
SECTION
  2
OBJECTS
  0
DICTIONARY
  5
C
330
0
100
AcDbDictionary
281
     1
  3
ACAD_COLOR
350
6B
  3
ACAD_GROUP
350
D
  3
ACAD_LAYOUT
350
6A
  3
ACAD_MATERIAL
350
10
  3
ACAD_MLEADERSTYLE
350
6E
  3
ACAD_MLINESTYLE
350
67
  3
ACAD_PLOTSETTINGS
350
69
  3
ACAD_PLOTSTYLENAME
350
E
  3
ACAD_SCALELIST
350
3A
  3
ACAD_TABLESTYLE
350
6C
  3
ACAD_VISUALSTYLE
350
29
  3
ACDB_RECOMPOSE_DATA
350
569
  3
AcDbVariableDictionary
350
55F
  0
DICTIONARY
  5
6B
102
{ACAD_REACTORS
330
C
102
}
330
C
100
AcDbDictionary
281
     1
  0
DICTIONARY
  5
D
102
{ACAD_REACTORS
330
C
102
}
330
C
100
AcDbDictionary
281
     1
  0
DICTIONARY
  5
6A
102
{ACAD_REACTORS
330
C
102
}
330
C
100
AcDbDictionary
281
     1
  3
Layout1
350
74
  3
Layout2
350
7C
  3
Model
350
78
  0
DICTIONARY
  5
10
102
{ACAD_REACTORS
330
C
102
}
330
C
100
AcDbDictionary
281
     1
  3
ByBlock
350
19
  3
ByLayer
350
11
  3
Global
350
21
  0
DICTIONARY
  5
6E
102
{ACAD_REACTORS
330
C
102
}
330
C
100
AcDbDictionary
281
     1
  3
Standard
350
6F
  0
DICTIONARY
  5
67
102
{ACAD_REACTORS
330
C
102
}
330
C
100
AcDbDictionary
281
     1
  3
Standard
350
68
  0
DICTIONARY
  5
69
102
{ACAD_REACTORS
330
C
102
}
330
C
100
AcDbDictionary
281
     1
  0
ACDBDICTIONARYWDFLT
  5
E
102
{ACAD_REACTORS
330
C
102
}
330
C
100
AcDbDictionary
281
     1
  3
Normal
350
F
100
AcDbDictionaryWithDefault
340
F
  0
DICTIONARY
  5
3A
102
{ACAD_REACTORS
330
C
102
}
330
C
100
AcDbDictionary
281
     1
  3
A0
350
3B
  3
A1
350
3C
  3
A2
350
3D
  3
A3
350
3E
  3
A4
350
3F
  3
A5
350
40
  3
A6
350
41
  3
A7
350
42
  3
A8
350
43
  3
A9
350
44
  3
B0
350
45
  3
B1
350
46
  3
B2
350
47
  3
B3
350
48
  3
B4
350
49
  3
B5
350
4A
  3
B6
350
4B
  3
B7
350
4C
  3
B8
350
4D
  3
B9
350
4E
  3
C0
350
4F
  3
C1
350
50
  3
C2
350
51
  3
C3
350
52
  3
C4
350
53
  3
C5
350
54
  3
C6
350
55
  3
C7
350
56
  3
C8
350
57
  3
C9
350
58
  3
D0
350
59
  3
D1
350
5A
  3
D2
350
5B
  0
DICTIONARY
  5
6C
102
{ACAD_REACTORS
330
C
102
}
330
C
100
AcDbDictionary
281
     1
  3
Standard
350
6D
  0
DICTIONARY
  5
29
102
{ACAD_REACTORS
330
C
102
}
330
C
100
AcDbDictionary
281
     1
  3
2dWireframe
350
2F
  3
3D Hidden
350
31
  3
3dWireframe
350
30
  3
Basic
350
2E
  3
Brighten
350
35
  3
ColorChange
350
39
  3
Conceptual
350
32
  3
Dim
350
34
  3
Facepattern
350
38
  3
Flat
350
2A
  3
FlatWithEdges
350
2B
  3
Gouraud
350
2C
  3
GouraudWithEdges
350
2D
  3
Linepattern
350
37
  3
Realistic
350
33
  3
Thicken
350
36
  0
XRECORD
  5
569
102
{ACAD_REACTORS
330
C
102
}
330
C
100
AcDbXrecord
280
     1
 90
        1
330
6D
  0
DICTIONARY
  5
55F
102
{ACAD_REACTORS
330
C
102
}
330
C
100
AcDbDictionary
281
     1
  3
CANNOSCALE
350
563
  3
CMLEADERSTYLE
350
561
  3
CTABLESTYLE
350
560
  3
LAYEREVAL
350
565
  3
LAYERNOTIFY
350
566
  3
LIGHTINGUNITS
350
564
  3
MSLTSCALE
350
562
  0
LAYOUT
  5
74
102
{ACAD_REACTORS
330
6A
102
}
330
6A
100
AcDbPlotSettings
  1

  2

  4

  6

 40
0.0
 41
0.0
 42
0.0
 43
0.0
 44
0.0
 45
0.0
 46
0.0
 47
0.0
 48
0.0
 49
0.0
140
0.0
141
0.0
142
1.0
143
1.0
 70
   688
 72
     0
 73
     0
 74
     5
  7

 75
    16
147
1.0
 76
     0
 77
     2
 78
   300
148
0.0
149
0.0
100
AcDbLayout
  1
Layout1
 70
     1
 71
     1
 10
0.0
 20
0.0
 11
12.0
 21
9.0
 12
0.0
 22
0.0
 32
0.0
 14
0.0
 24
0.0
 34
0.0
 15
0.0
 25
0.0
 35
0.0
146
0.0
 13
0.0
 23
0.0
 33
0.0
 16
1.0
 26
0.0
 36
0.0
 17
0.0
 27
1.0
 37
0.0
 76
     0
330
71
  0
LAYOUT
  5
7C
102
{ACAD_REACTORS
330
6A
102
}
330
6A
100
AcDbPlotSettings
  1

  2

  4

  6

 40
0.0
 41
0.0
 42
0.0
 43
0.0
 44
0.0
 45
0.0
 46
0.0
 47
0.0
 48
0.0
 49
0.0
140
0.0
141
0.0
142
1.0
143
1.0
 70
   688
 72
     0
 73
     0
 74
     5
  7

 75
    16
147
1.0
 76
     0
 77
     2
 78
   300
148
0.0
149
0.0
100
AcDbLayout
  1
Layout2
 70
     1
 71
     2
 10
0.0
 20
0.0
 11
12.0
 21
9.0
 12
0.0
 22
0.0
 32
0.0
 14
0.0
 24
0.0
 34
0.0
 15
0.0
 25
0.0
 35
0.0
146
0.0
 13
0.0
 23
0.0
 33
0.0
 16
1.0
 26
0.0
 36
0.0
 17
0.0
 27
1.0
 37
0.0
 76
     0
330
79
  0
LAYOUT
  5
78
102
{ACAD_REACTORS
330
6A
102
}
330
6A
100
AcDbPlotSettings
  1

  2

  4

  6

 40
0.0
 41
0.0
 42
0.0
 43
0.0
 44
0.0
 45
0.0
 46
0.0
 47
0.0
 48
0.0
 49
0.0
140
0.0
141
0.0
142
1.0
143
1.0
 70
  1712
 72
     0
 73
     0
 74
     0
  7

 75
     0
147
1.0
 76
     0
 77
     2
 78
   300
148
0.0
149
0.0
100
AcDbLayout
  1
Model
 70
     1
 71
     0
 10
0.0
 20
0.0
 11
12.0
 21
9.0
 12
0.0
 22
0.0
 32
0.0
 14
0.0
 24
0.0
 34
0.0
 15
0.0
 25
0.0
 35
0.0
146
0.0
 13
0.0
 23
0.0
 33
0.0
 16
1.0
 26
0.0
 36
0.0
 17
0.0
 27
1.0
 37
0.0
 76
     0
330
75
  0
MATERIAL
  5
19
102
{ACAD_XDICTIONARY
360
1A
102
}
102
{ACAD_REACTORS
330
10
102
}
330
10
100
AcDbMaterial
  1
ByBlock
 72
     0
 43
0.0208333333333333
 43
0.0
 43
0.0
 43
0.0
 43
0.0
 43
0.0208333333333333
 43
0.0
 43
0.0
 43
0.0
 43
0.0
 43
1.0
 43
0.0
 43
0.0
 43
0.0
 43
0.0
 43
1.0
 77
     0
 47
0.0208333333333333
 47
0.0
 47
0.0
 47
0.0
 47
0.0
 47
0.0208333333333333
 47
0.0
 47
0.0
 47
0.0
 47
0.0
 47
1.0
 47
0.0
 47
0.0
 47
0.0
 47
0.0
 47
1.0
171
     0
 49
0.0208333333333333
 49
0.0
 49
0.0
 49
0.0
 49
0.0
 49
0.0208333333333333
 49
0.0
 49
0.0
 49
0.0
 49
0.0
 49
1.0
 49
0.0
 49
0.0
 49
0.0
 49
0.0
 49
1.0
175
     0
142
0.0208333333333333
142
0.0
142
0.0
142
0.0
142
0.0
142
0.0208333333333333
142
0.0
142
0.0
142
0.0
142
0.0
142
1.0
142
0.0
142
0.0
142
0.0
142
0.0
142
1.0
179
     0
144
0.0208333333333333
144
0.0
144
0.0
144
0.0
144
0.0
144
0.0208333333333333
144
0.0
144
0.0
144
0.0
144
0.0
144
1.0
144
0.0
144
0.0
144
0.0
144
0.0
144
1.0
147
0.0208333333333333
147
0.0
147
0.0
147
0.0
147
0.0
147
0.0208333333333333
147
0.0
147
0.0
147
0.0
147
0.0
147
1.0
147
0.0
147
0.0
147
0.0
147
0.0
147
1.0
  0
MATERIAL
  5
11
102
{ACAD_XDICTIONARY
360
12
102
}
102
{ACAD_REACTORS
330
10
102
}
330
10
100
AcDbMaterial
  1
ByLayer
 72
     0
 43
0.0208333333333333
 43
0.0
 43
0.0
 43
0.0
 43
0.0
 43
0.0208333333333333
 43
0.0
 43
0.0
 43
0.0
 43
0.0
 43
1.0
 43
0.0
 43
0.0
 43
0.0
 43
0.0
 43
1.0
 77
     0
 47
0.0208333333333333
 47
0.0
 47
0.0
 47
0.0
 47
0.0
 47
0.0208333333333333
 47
0.0
 47
0.0
 47
0.0
 47
0.0
 47
1.0
 47
0.0
 47
0.0
 47
0.0
 47
0.0
 47
1.0
171
     0
 49
0.0208333333333333
 49
0.0
 49
0.0
 49
0.0
 49
0.0
 49
0.0208333333333333
 49
0.0
 49
0.0
 49
0.0
 49
0.0
 49
1.0
 49
0.0
 49
0.0
 49
0.0
 49
0.0
 49
1.0
175
     0
142
0.0208333333333333
142
0.0
142
0.0
142
0.0
142
0.0
142
0.0208333333333333
142
0.0
142
0.0
142
0.0
142
0.0
142
1.0
142
0.0
142
0.0
142
0.0
142
0.0
142
1.0
179
     0
144
0.0208333333333333
144
0.0
144
0.0
144
0.0
144
0.0
144
0.0208333333333333
144
0.0
144
0.0
144
0.0
144
0.0
144
1.0
144
0.0
144
0.0
144
0.0
144
0.0
144
1.0
147
0.0208333333333333
147
0.0
147
0.0
147
0.0
147
0.0
147
0.0208333333333333
147
0.0
147
0.0
147
0.0
147
0.0
147
1.0
147
0.0
147
0.0
147
0.0
147
0.0
147
1.0
  0
MATERIAL
  5
21
102
{ACAD_XDICTIONARY
360
22
102
}
102
{ACAD_REACTORS
330
10
102
}
330
10
100
AcDbMaterial
  1
Global
 72
     0
 43
0.0208333333333333
 43
0.0
 43
0.0
 43
0.0
 43
0.0
 43
0.0208333333333333
 43
0.0
 43
0.0
 43
0.0
 43
0.0
 43
1.0
 43
0.0
 43
0.0
 43
0.0
 43
0.0
 43
1.0
 77
     0
 47
0.0208333333333333
 47
0.0
 47
0.0
 47
0.0
 47
0.0
 47
0.0208333333333333
 47
0.0
 47
0.0
 47
0.0
 47
0.0
 47
1.0
 47
0.0
 47
0.0
 47
0.0
 47
0.0
 47
1.0
171
     0
 49
0.0208333333333333
 49
0.0
 49
0.0
 49
0.0
 49
0.0
 49
0.0208333333333333
 49
0.0
 49
0.0
 49
0.0
 49
0.0
 49
1.0
 49
0.0
 49
0.0
 49
0.0
 49
0.0
 49
1.0
175
     0
142
0.0208333333333333
142
0.0
142
0.0
142
0.0
142
0.0
142
0.0208333333333333
142
0.0
142
0.0
142
0.0
142
0.0
142
1.0
142
0.0
142
0.0
142
0.0
142
0.0
142
1.0
179
     0
144
0.0208333333333333
144
0.0
144
0.0
144
0.0
144
0.0
144
0.0208333333333333
144
0.0
144
0.0
144
0.0
144
0.0
144
1.0
144
0.0
144
0.0
144
0.0
144
0.0
144
1.0
147
0.0208333333333333
147
0.0
147
0.0
147
0.0
147
0.0
147
0.0208333333333333
147
0.0
147
0.0
147
0.0
147
0.0
147
1.0
147
0.0
147
0.0
147
0.0
147
0.0
147
1.0
  0
MLEADERSTYLE
  5
6F
102
{ACAD_REACTORS
330
6E
102
}
330
6E
100
AcDbMLeaderStyle
170
     2
171
     1
172
     0
 90
        2
 40
0.0
 41
0.0
173
     1
 91
-1056964608
340
63
 92
       -2
290
     1
 42
0.09
291
     1
 43
0.36
  3
Standard
 44
0.18
300

342
5D
174
     1
178
     6
175
     1
176
     0
 93
-1056964608
 45
0.18
292
     0
297
     0
 46
0.18
 94
-1056964608
 47
1.0
 49
1.0
140
1.0
293
     1
141
0.0
294
     1
177
     0
142
1.0
295
     0
296
     0
143
0.125
1001
ACAD_MLEADERVER
1070
     2
  0
MLINESTYLE
  5
68
102
{ACAD_REACTORS
330
67
102
}
330
67
100
AcDbMlineStyle
  2
STANDARD
 70
     0
  3

 62
   256
 51
90.0
 52
90.0
 71
     2
 49
0.5
 62
   256
  6
BYLAYER
 49
-0.5
 62
   256
  6
BYLAYER
  0
ACDBPLACEHOLDER
  5
F
102
{ACAD_REACTORS
330
E
102
}
330
E
  0
SCALE
  5
3B
102
{ACAD_REACTORS
330
3A
102
}
330
3A
100
AcDbScale
 70
     0
300
1:1
140
1.0
141
1.0
290
     1
  0
SCALE
  5
3C
102
{ACAD_REACTORS
330
3A
102
}
330
3A
100
AcDbScale
 70
     0
300
1:2
140
1.0
141
2.0
290
     0
  0
SCALE
  5
3D
102
{ACAD_REACTORS
330
3A
102
}
330
3A
100
AcDbScale
 70
     0
300
1:4
140
1.0
141
4.0
290
     0
  0
SCALE
  5
3E
102
{ACAD_REACTORS
330
3A
102
}
330
3A
100
AcDbScale
 70
     0
300
1:5
140
1.0
141
5.0
290
     0
  0
SCALE
  5
3F
102
{ACAD_REACTORS
330
3A
102
}
330
3A
100
AcDbScale
 70
     0
300
1:8
140
1.0
141
8.0
290
     0
  0
SCALE
  5
40
102
{ACAD_REACTORS
330
3A
102
}
330
3A
100
AcDbScale
 70
     0
300
1:10
140
1.0
141
10.0
290
     0
  0
SCALE
  5
41
102
{ACAD_REACTORS
330
3A
102
}
330
3A
100
AcDbScale
 70
     0
300
1:16
140
1.0
141
16.0
290
     0
  0
SCALE
  5
42
102
{ACAD_REACTORS
330
3A
102
}
330
3A
100
AcDbScale
 70
     0
300
1:20
140
1.0
141
20.0
290
     0
  0
SCALE
  5
43
102
{ACAD_REACTORS
330
3A
102
}
330
3A
100
AcDbScale
 70
     0
300
1:30
140
1.0
141
30.0
290
     0
  0
SCALE
  5
44
102
{ACAD_REACTORS
330
3A
102
}
330
3A
100
AcDbScale
 70
     0
300
1:40
140
1.0
141
40.0
290
     0
  0
SCALE
  5
45
102
{ACAD_REACTORS
330
3A
102
}
330
3A
100
AcDbScale
 70
     0
300
1:50
140
1.0
141
50.0
290
     0
  0
SCALE
  5
46
102
{ACAD_REACTORS
330
3A
102
}
330
3A
100
AcDbScale
 70
     0
300
1:100
140
1.0
141
100.0
290
     0
  0
SCALE
  5
47
102
{ACAD_REACTORS
330
3A
102
}
330
3A
100
AcDbScale
 70
     0
300
2:1
140
2.0
141
1.0
290
     0
  0
SCALE
  5
48
102
{ACAD_REACTORS
330
3A
102
}
330
3A
100
AcDbScale
 70
     0
300
4:1
140
4.0
141
1.0
290
     0
  0
SCALE
  5
49
102
{ACAD_REACTORS
330
3A
102
}
330
3A
100
AcDbScale
 70
     0
300
8:1
140
8.0
141
1.0
290
     0
  0
SCALE
  5
4A
102
{ACAD_REACTORS
330
3A
102
}
330
3A
100
AcDbScale
 70
     0
300
10:1
140
10.0
141
1.0
290
     0
  0
SCALE
  5
4B
102
{ACAD_REACTORS
330
3A
102
}
330
3A
100
AcDbScale
 70
     0
300
100:1
140
100.0
141
1.0
290
     0
  0
SCALE
  5
4C
102
{ACAD_REACTORS
330
3A
102
}
330
3A
100
AcDbScale
 70
     0
300
1/128" = 1'-0"
140
0.0078125
141
12.0
290
     0
  0
SCALE
  5
4D
102
{ACAD_REACTORS
330
3A
102
}
330
3A
100
AcDbScale
 70
     0
300
1/64" = 1'-0"
140
0.015625
141
12.0
290
     0
  0
SCALE
  5
4E
102
{ACAD_REACTORS
330
3A
102
}
330
3A
100
AcDbScale
 70
     0
300
1/32" = 1'-0"
140
0.03125
141
12.0
290
     0
  0
SCALE
  5
4F
102
{ACAD_REACTORS
330
3A
102
}
330
3A
100
AcDbScale
 70
     0
300
1/16" = 1'-0"
140
0.0625
141
12.0
290
     0
  0
SCALE
  5
50
102
{ACAD_REACTORS
330
3A
102
}
330
3A
100
AcDbScale
 70
     0
300
3/32" = 1'-0"
140
0.09375
141
12.0
290
     0
  0
SCALE
  5
51
102
{ACAD_REACTORS
330
3A
102
}
330
3A
100
AcDbScale
 70
     0
300
1/8" = 1'-0"
140
0.125
141
12.0
290
     0
  0
SCALE
  5
52
102
{ACAD_REACTORS
330
3A
102
}
330
3A
100
AcDbScale
 70
     0
300
3/16" = 1'-0"
140
0.1875
141
12.0
290
     0
  0
SCALE
  5
53
102
{ACAD_REACTORS
330
3A
102
}
330
3A
100
AcDbScale
 70
     0
300
1/4" = 1'-0"
140
0.25
141
12.0
290
     0
  0
SCALE
  5
54
102
{ACAD_REACTORS
330
3A
102
}
330
3A
100
AcDbScale
 70
     0
300
3/8" = 1'-0"
140
0.375
141
12.0
290
     0
  0
SCALE
  5
55
102
{ACAD_REACTORS
330
3A
102
}
330
3A
100
AcDbScale
 70
     0
300
1/2" = 1'-0"
140
0.5
141
12.0
290
     0
  0
SCALE
  5
56
102
{ACAD_REACTORS
330
3A
102
}
330
3A
100
AcDbScale
 70
     0
300
3/4" = 1'-0"
140
0.75
141
12.0
290
     0
  0
SCALE
  5
57
102
{ACAD_REACTORS
330
3A
102
}
330
3A
100
AcDbScale
 70
     0
300
1" = 1'-0"
140
1.0
141
12.0
290
     0
  0
SCALE
  5
58
102
{ACAD_REACTORS
330
3A
102
}
330
3A
100
AcDbScale
 70
     0
300
1-1/2" = 1'-0"
140
1.5
141
12.0
290
     0
  0
SCALE
  5
59
102
{ACAD_REACTORS
330
3A
102
}
330
3A
100
AcDbScale
 70
     0
300
3" = 1'-0"
140
3.0
141
12.0
290
     0
  0
SCALE
  5
5A
102
{ACAD_REACTORS
330
3A
102
}
330
3A
100
AcDbScale
 70
     0
300
6" = 1'-0"
140
6.0
141
12.0
290
     0
  0
SCALE
  5
5B
102
{ACAD_REACTORS
330
3A
102
}
330
3A
100
AcDbScale
 70
     0
300
1'-0" = 1'-0"
140
12.0
141
12.0
290
     0
  0
TABLESTYLE
  5
6D
102
{ACAD_XDICTIONARY
360
567
102
}
102
{ACAD_REACTORS
330
6C
102
}
330
6C
100
AcDbTableStyle
  3
Standard
 70
     0
 71
     0
 40
0.06
 41
0.06
280
     0
281
     0
  7
Standard
140
0.18
170
     2
 62
     0
 63
     7
283
     0
274
    -2
284
     1
 64
     0
275
    -2
285
     1
 65
     0
276
    -2
286
     1
 66
     0
277
    -2
287
     1
 67
     0
278
    -2
288
     1
 68
     0
279
    -2
289
     1
 69
     0
  7
Standard
140
0.25
170
     5
 62
     0
 63
     7
283
     0
274
    -2
284
     1
 64
     0
275
    -2
285
     1
 65
     0
276
    -2
286
     1
 66
     0
277
    -2
287
     1
 67
     0
278
    -2
288
     1
 68
     0
279
    -2
289
     1
 69
     0
  7
Standard
140
0.18
170
     5
 62
     0
 63
     7
283
     0
274
    -2
284
     1
 64
     0
275
    -2
285
     1
 65
     0
276
    -2
286
     1
 66
     0
277
    -2
287
     1
 67
     0
278
    -2
288
     1
 68
     0
279
    -2
289
     1
 69
     0
  0
VISUALSTYLE
  5
2F
102
{ACAD_REACTORS
330
29
102
}
330
29
100
AcDbVisualStyle
  2
2dWireframe
 70
     4
 71
     0
 72
     2
 73
     0
 90
        0
 40
-0.6
 41
-30.0
 62
     5
 63
     7
421
 16777215
 74
     1
 91
        4
 64
     7
 65
   257
 75
     1
175
     1
 42
1.0
 92
        0
 66
   257
 43
1.0
 76
     1
 77
     6
 78
     2
 67
     7
 79
     5
170
     0
171
     0
290
     0
174
     0
 93
        1
 44
0.0
173
     0
291
     0
 45
0.0
1001
ACAD
1000
AcDbSavedByObjectVersion
1070
     0
  0
VISUALSTYLE
  5
31
102
{ACAD_REACTORS
330
29
102
}
330
29
100
AcDbVisualStyle
  2
3D Hidden
 70
     6
 71
     1
 72
     2
 73
     2
 90
        0
 40
-0.6
 41
-30.0
 62
     5
 63
     7
421
 16777215
 74
     2
 91
        2
 64
     7
 65
   257
 75
     2
175
     1
 42
40.0
 92
        0
 66
   257
 43
1.0
 76
     1
 77
     6
 78
     2
 67
     7
 79
     3
170
     0
171
     0
290
     0
174
     0
 93
        1
 44
0.0
173
     0
291
     0
 45
0.0
1001
ACAD
1000
AcDbSavedByObjectVersion
1070
     0
  0
VISUALSTYLE
  5
30
102
{ACAD_REACTORS
330
29
102
}
330
29
100
AcDbVisualStyle
  2
3dWireframe
 70
     5
 71
     0
 72
     2
 73
     0
 90
        0
 40
-0.6
 41
-30.0
 62
     5
 63
     7
421
 16777215
 74
     1
 91
        4
 64
     7
 65
   257
 75
     1
175
     1
 42
1.0
 92
        0
 66
   257
 43
1.0
 76
     1
 77
     6
 78
     2
 67
     7
 79
     5
170
     0
171
     0
290
     0
174
     0
 93
        1
 44
0.0
173
     0
291
     0
 45
0.0
1001
ACAD
1000
AcDbSavedByObjectVersion
1070
     0
  0
VISUALSTYLE
  5
2E
102
{ACAD_REACTORS
330
29
102
}
330
29
100
AcDbVisualStyle
  2
Basic
 70
     7
 71
     1
 72
     0
 73
     1
 90
        0
 40
-0.6
 41
-30.0
 62
     5
 63
     7
421
 16777215
 74
     0
 91
        4
 64
     7
 65
   257
 75
     1
175
     1
 42
1.0
 92
        8
 66
     7
 43
1.0
 76
     1
 77
     6
 78
     2
 67
     7
 79
     5
170
     0
171
     0
290
     0
174
     0
 93
        1
 44
0.0
173
     0
291
     1
 45
0.0
1001
ACAD
1000
AcDbSavedByObjectVersion
1070
     0
  0
VISUALSTYLE
  5
35
102
{ACAD_REACTORS
330
29
102
}
330
29
100
AcDbVisualStyle
  2
Brighten
 70
    12
 71
     2
 72
     2
 73
     0
 90
        0
 40
-0.6
 41
-30.0
 62
     5
 63
     7
421
 16777215
 74
     1
 91
        4
 64
     7
 65
   257
 75
     1
175
     1
 42
1.0
 92
        8
 66
     7
 43
1.0
 76
     1
 77
     6
 78
     2
 67
     7
 79
     5
170
     0
171
     0
290
     0
174
     0
 93
        1
 44
50.0
173
     0
291
     1
 45
0.0
1001
ACAD
1000
AcDbSavedByObjectVersion
1070
     0
  0
VISUALSTYLE
  5
39
102
{ACAD_REACTORS
330
29
102
}
330
29
100
AcDbVisualStyle
  2
ColorChange
 70
    16
 71
     2
 72
     2
 73
     3
 90
        0
 40
-0.6
 41
-30.0
 62
     5
 63
     8
421
  8421504
 74
     1
 91
        4
 64
     7
 65
   257
 75
     1
175
     1
 42
1.0
 92
        8
 66
     8
424
  8421504
 43
1.0
 76
     1
 77
     6
 78
     2
 67
     7
 79
     5
170
     0
171
     0
290
     0
174
     0
 93
        1
 44
0.0
173
     0
291
     1
 45
0.0
1001
ACAD
1000
AcDbSavedByObjectVersion
1070
     0
  0
VISUALSTYLE
  5
32
102
{ACAD_REACTORS
330
29
102
}
330
29
100
AcDbVisualStyle
  2
Conceptual
 70
     9
 71
     3
 72
     2
 73
     0
 90
        0
 40
-0.6
 41
-30.0
 62
     5
 63
     7
421
 16777215
 74
     2
 91
        2
 64
     7
 65
   257
 75
     1
175
     1
 42
40.0
 92
        8
 66
     7
 43
1.0
 76
     1
 77
     6
 78
     2
 67
     7
 79
     3
170
     0
171
     0
290
     0
174
     0
 93
        1
 44
0.0
173
     0
291
     0
 45
0.0
1001
ACAD
1000
AcDbSavedByObjectVersion
1070
     0
  0
VISUALSTYLE
  5
34
102
{ACAD_REACTORS
330
29
102
}
330
29
100
AcDbVisualStyle
  2
Dim
 70
    11
 71
     2
 72
     2
 73
     0
 90
        0
 40
-0.6
 41
-30.0
 62
     5
 63
     7
421
 16777215
 74
     1
 91
        4
 64
     7
 65
   257
 75
     1
175
     1
 42
1.0
 92
        8
 66
     7
 43
1.0
 76
     1
 77
     6
 78
     2
 67
     7
 79
     5
170
     0
171
     0
290
     0
174
     0
 93
        1
 44
-50.0
173
     0
291
     1
 45
0.0
1001
ACAD
1000
AcDbSavedByObjectVersion
1070
     0
  0
VISUALSTYLE
  5
38
102
{ACAD_REACTORS
330
29
102
}
330
29
100
AcDbVisualStyle
  2
Facepattern
 70
    15
 71
     2
 72
     2
 73
     0
 90
        0
 40
-0.6
 41
-30.0
 62
     5
 63
     7
421
 16777215
 74
     1
 91
        4
 64
     7
 65
   257
 75
     1
175
     1
 42
1.0
 92
        8
 66
     7
 43
1.0
 76
     1
 77
     6
 78
     2
 67
     7
 79
     5
170
     0
171
     0
290
     0
174
     0
 93
        1
 44
0.0
173
     0
291
     1
 45
0.0
1001
ACAD
1000
AcDbSavedByObjectVersion
1070
     0
  0
VISUALSTYLE
  5
2A
102
{ACAD_REACTORS
330
29
102
}
330
29
100
AcDbVisualStyle
  2
Flat
 70
     0
 71
     2
 72
     1
 73
     1
 90
        2
 40
-0.6
 41
30.0
 62
     5
 63
     7
421
 16777215
 74
     0
 91
        4
 64
     7
 65
   257
 75
     1
175
     1
 42
1.0
 92
        8
 66
     7
 43
1.0
 76
     1
 77
     6
 78
     2
 67
     7
 79
     5
170
     0
171
     0
290
     0
174
     0
 93
       13
 44
0.0
173
     0
291
     1
 45
0.0
1001
ACAD
1000
AcDbSavedByObjectVersion
1070
     0
  0
VISUALSTYLE
  5
2B
102
{ACAD_REACTORS
330
29
102
}
330
29
100
AcDbVisualStyle
  2
FlatWithEdges
 70
     1
 71
     2
 72
     1
 73
     1
 90
        2
 40
-0.6
 41
30.0
 62
     5
 63
     7
421
 16777215
 74
     1
 91
        4
 64
     7
 65
   257
 75
     1
175
     1
 42
1.0
 92
        0
 66
   257
 43
1.0
 76
     1
 77
     6
 78
     2
 67
     7
 79
     5
170
     0
171
     0
290
     0
174
     0
 93
       13
 44
0.0
173
     0
291
     1
 45
0.0
1001
ACAD
1000
AcDbSavedByObjectVersion
1070
     0
  0
VISUALSTYLE
  5
2C
102
{ACAD_REACTORS
330
29
102
}
330
29
100
AcDbVisualStyle
  2
Gouraud
 70
     2
 71
     2
 72
     2
 73
     1
 90
        2
 40
-0.6
 41
30.0
 62
     5
 63
     7
421
 16777215
 74
     0
 91
        4
 64
     7
 65
   257
 75
     1
175
     1
 42
1.0
 92
        0
 66
     7
 43
1.0
 76
     1
 77
     6
 78
     2
 67
     7
 79
     5
170
     0
171
     0
290
     0
174
     0
 93
       13
 44
0.0
173
     0
291
     1
 45
0.0
1001
ACAD
1000
AcDbSavedByObjectVersion
1070
     0
  0
VISUALSTYLE
  5
2D
102
{ACAD_REACTORS
330
29
102
}
330
29
100
AcDbVisualStyle
  2
GouraudWithEdges
 70
     3
 71
     2
 72
     2
 73
     1
 90
        2
 40
-0.6
 41
30.0
 62
     5
 63
     7
421
 16777215
 74
     1
 91
        4
 64
     7
 65
   257
 75
     1
175
     1
 42
1.0
 92
        0
 66
   257
 43
1.0
 76
     1
 77
     6
 78
     2
 67
     7
 79
     5
170
     0
171
     0
290
     0
174
     0
 93
       13
 44
0.0
173
     0
291
     1
 45
0.0
1001
ACAD
1000
AcDbSavedByObjectVersion
1070
     0
  0
VISUALSTYLE
  5
37
102
{ACAD_REACTORS
330
29
102
}
330
29
100
AcDbVisualStyle
  2
Linepattern
 70
    14
 71
     2
 72
     2
 73
     0
 90
        0
 40
-0.6
 41
-30.0
 62
     5
 63
     7
421
 16777215
 74
     1
 91
        4
 64
     7
 65
   257
 75
     7
175
     7
 42
1.0
 92
        8
 66
     7
 43
1.0
 76
     1
 77
     6
 78
     2
 67
     7
 79
     5
170
     0
171
     0
290
     0
174
     0
 93
        1
 44
0.0
173
     0
291
     1
 45
0.0
1001
ACAD
1000
AcDbSavedByObjectVersion
1070
     0
  0
VISUALSTYLE
  5
33
102
{ACAD_REACTORS
330
29
102
}
330
29
100
AcDbVisualStyle
  2
Realistic
 70
     8
 71
     2
 72
     2
 73
     0
 90
        0
 40
-0.6
 41
-30.0
 62
     5
 63
     7
421
 16777215
 74
     1
 91
        0
 64
     7
 65
   257
 75
     1
175
     1
 42
1.0
 92
        8
 66
     8
424
  7895160
 43
1.0
 76
     1
 77
     6
 78
     2
 67
     7
 79
     5
170
     0
171
     0
290
     0
174
     0
 93
       13
 44
0.0
173
     0
291
     0
 45
0.0
1001
ACAD
1000
AcDbSavedByObjectVersion
1070
     0
  0
VISUALSTYLE
  5
36
102
{ACAD_REACTORS
330
29
102
}
330
29
100
AcDbVisualStyle
  2
Thicken
 70
    13
 71
     2
 72
     2
 73
     0
 90
        0
 40
-0.6
 41
-30.0
 62
     5
 63
     7
421
 16777215
 74
     1
 91
        4
 64
     7
 65
   257
 75
     1
175
     1
 42
1.0
 92
       12
 66
     7
 43
1.0
 76
     1
 77
     6
 78
     2
 67
     7
 79
     5
170
     0
171
     0
290
     0
174
     0
 93
        1
 44
0.0
173
     0
291
     1
 45
0.0
1001
ACAD
1000
AcDbSavedByObjectVersion
1070
     0
  0
DICTIONARYVAR
  5
563
102
{ACAD_REACTORS
330
55F
102
}
330
55F
100
DictionaryVariables
280
     0
  1
1:1
  0
DICTIONARYVAR
  5
561
102
{ACAD_REACTORS
330
55F
102
}
330
55F
100
DictionaryVariables
280
     0
  1
STANDARD
  0
DICTIONARYVAR
  5
560
102
{ACAD_REACTORS
330
55F
102
}
330
55F
100
DictionaryVariables
280
     0
  1
STANDARD
  0
DICTIONARYVAR
  5
565
102
{ACAD_REACTORS
330
55F
102
}
330
55F
100
DictionaryVariables
280
     0
  1
0
  0
DICTIONARYVAR
  5
566
102
{ACAD_REACTORS
330
55F
102
}
330
55F
100
DictionaryVariables
280
     0
  1
0
  0
DICTIONARYVAR
  5
564
102
{ACAD_REACTORS
330
55F
102
}
330
55F
100
DictionaryVariables
280
     0
  1
2
  0
DICTIONARYVAR
  5
562
102
{ACAD_REACTORS
330
55F
102
}
330
55F
100
DictionaryVariables
280
     0
  1
1
  0
DICTIONARY
  5
1A
330
19
100
AcDbDictionary
280
     1
281
     1
  3
ACAD_XREC_ROUNDTRIP
360
56B
  3
BUMPTILE
360
1C
  3
DIFFUSETILE
360
1B
  3
OPACITYTILE
360
1F
  3
REFLECTIONTILE
360
1E
  3
REFRACTIONTILE
360
20
  3
SPECULARTILE
360
1D
  0
DICTIONARY
  5
12
330
11
100
AcDbDictionary
280
     1
281
     1
  3
ACAD_XREC_ROUNDTRIP
360
56A
  3
BUMPTILE
360
14
  3
DIFFUSETILE
360
13
  3
OPACITYTILE
360
17
  3
REFLECTIONTILE
360
16
  3
REFRACTIONTILE
360
18
  3
SPECULARTILE
360
15
  0
DICTIONARY
  5
22
330
21
100
AcDbDictionary
280
     1
281
     1
  3
ACAD_XREC_ROUNDTRIP
360
56C
  3
BUMPTILE
360
24
  3
DIFFUSETILE
360
23
  3
OPACITYTILE
360
27
  3
REFLECTIONTILE
360
26
  3
REFRACTIONTILE
360
28
  3
SPECULARTILE
360
25
  0
DICTIONARY
  5
567
330
6D
100
AcDbDictionary
280
     1
281
     1
  3
ACAD_ROUNDTRIP_2008_TABLESTYLE_CELLSTYLEMAP
360
568
  3
ACAD_XREC_ROUNDTRIP
360
56D
  0
XRECORD
  5
56B
102
{ACAD_REACTORS
330
1A
102
}
330
1A
100
AcDbXrecord
280
     1
102
MATERIAL
148
0.0
149
0.0
149
0.0
 93
        0
 94
      127
282
     0
 72
     0
 77
     0
171
     0
175
     0
179
     0
273
     0
  0
XRECORD
  5
1C
102
{ACAD_REACTORS
330
1A
102
}
330
1A
100
AcDbXrecord
280
     1
270
     1
271
     1
  0
XRECORD
  5
1B
102
{ACAD_REACTORS
330
1A
102
}
330
1A
100
AcDbXrecord
280
     1
270
     1
271
     1
  0
XRECORD
  5
1F
102
{ACAD_REACTORS
330
1A
102
}
330
1A
100
AcDbXrecord
280
     1
270
     1
271
     1
  0
XRECORD
  5
1E
102
{ACAD_REACTORS
330
1A
102
}
330
1A
100
AcDbXrecord
280
     1
270
     1
271
     1
  0
XRECORD
  5
20
102
{ACAD_REACTORS
330
1A
102
}
330
1A
100
AcDbXrecord
280
     1
270
     1
271
     1
  0
XRECORD
  5
1D
102
{ACAD_REACTORS
330
1A
102
}
330
1A
100
AcDbXrecord
280
     1
270
     1
271
     1
  0
XRECORD
  5
56A
102
{ACAD_REACTORS
330
12
102
}
330
12
100
AcDbXrecord
280
     1
102
MATERIAL
148
0.0
149
0.0
149
0.0
 93
        0
 94
      127
282
     0
 72
     0
 77
     0
171
     0
175
     0
179
     0
273
     0
  0
XRECORD
  5
14
102
{ACAD_REACTORS
330
12
102
}
330
12
100
AcDbXrecord
280
     1
270
     1
271
     1
  0
XRECORD
  5
13
102
{ACAD_REACTORS
330
12
102
}
330
12
100
AcDbXrecord
280
     1
270
     1
271
     1
  0
XRECORD
  5
17
102
{ACAD_REACTORS
330
12
102
}
330
12
100
AcDbXrecord
280
     1
270
     1
271
     1
  0
XRECORD
  5
16
102
{ACAD_REACTORS
330
12
102
}
330
12
100
AcDbXrecord
280
     1
270
     1
271
     1
  0
XRECORD
  5
18
102
{ACAD_REACTORS
330
12
102
}
330
12
100
AcDbXrecord
280
     1
270
     1
271
     1
  0
XRECORD
  5
15
102
{ACAD_REACTORS
330
12
102
}
330
12
100
AcDbXrecord
280
     1
270
     1
271
     1
  0
XRECORD
  5
56C
102
{ACAD_REACTORS
330
22
102
}
330
22
100
AcDbXrecord
280
     1
102
MATERIAL
148
0.0
149
0.0
149
0.0
 93
        0
 94
      127
282
     0
 72
     0
 77
     0
171
     0
175
     0
179
     0
273
     0
  0
XRECORD
  5
24
102
{ACAD_REACTORS
330
22
102
}
330
22
100
AcDbXrecord
280
     1
270
     1
271
     1
  0
XRECORD
  5
23
102
{ACAD_REACTORS
330
22
102
}
330
22
100
AcDbXrecord
280
     1
270
     1
271
     1
  0
XRECORD
  5
27
102
{ACAD_REACTORS
330
22
102
}
330
22
100
AcDbXrecord
280
     1
270
     1
271
     1
  0
XRECORD
  5
26
102
{ACAD_REACTORS
330
22
102
}
330
22
100
AcDbXrecord
280
     1
270
     1
271
     1
  0
XRECORD
  5
28
102
{ACAD_REACTORS
330
22
102
}
330
22
100
AcDbXrecord
280
     1
270
     1
271
     1
  0
XRECORD
  5
25
102
{ACAD_REACTORS
330
22
102
}
330
22
100
AcDbXrecord
280
     1
270
     1
271
     1
  0
CELLSTYLEMAP
  5
568
102
{ACAD_REACTORS
330
567
102
}
330
567
100
AcDbCellStyleMap
 90
        3
300
CELLSTYLE
  1
TABLEFORMAT_BEGIN
 90
        5
170
     1
 91
        0
 92
    32768
 62
   257
 93
        1
300
CONTENTFORMAT
  1
CONTENTFORMAT_BEGIN
 90
        0
 91
        0
 92
      512
 93
        0
300

 40
0.0
140
1.0
 94
        5
 62
     0
340
5D
144
0.25
309
CONTENTFORMAT_END
171
     0
 94
        0
309
TABLEFORMAT_END
  1
CELLSTYLE_BEGIN
 90
        1
 91
        1
300
_TITLE
309
CELLSTYLE_END
300
CELLSTYLE
  1
TABLEFORMAT_BEGIN
 90
        5
170
     1
 91
        0
 92
        0
 62
   257
 93
        1
300
CONTENTFORMAT
  1
CONTENTFORMAT_BEGIN
 90
        0
 91
        0
 92
      512
 93
        0
300

 40
0.0
140
1.0
 94
        5
 62
     0
340
5D
144
0.18
309
CONTENTFORMAT_END
171
     0
 94
        0
309
TABLEFORMAT_END
  1
CELLSTYLE_BEGIN
 90
        2
 91
        1
300
_HEADER
309
CELLSTYLE_END
300
CELLSTYLE
  1
TABLEFORMAT_BEGIN
 90
        5
170
     1
 91
        0
 92
        0
 62
   257
 93
        1
300
CONTENTFORMAT
  1
CONTENTFORMAT_BEGIN
 90
        0
 91
        0
 92
      512
 93
        0
300

 40
0.0
140
1.0
 94
        2
 62
     0
340
5D
144
0.18
309
CONTENTFORMAT_END
171
     0
 94
        0
309
TABLEFORMAT_END
  1
CELLSTYLE_BEGIN
 90
        3
 91
        2
300
_DATA
309
CELLSTYLE_END
  0
XRECORD
  5
56D
102
{ACAD_REACTORS
330
567
102
}
330
567
100
AcDbXrecord
280
     1
102
ACAD_ROUNDTRIP_PRE2007_TABLESTYLE
 90
      512
 91
        0
  1

 92
      512
 93
        0
  2

 94
      512
 95
        0
  3

  0
ENDSEC
  0
EOF
