  0
SECTION
  2
HEADER
  9
$ACADVER
  1
AC1018
  9
$ACADMAINTVER
 70
   104
  9
$DWGCODEPAGE
  3
ANSI_1252
  9
$AUTHOR
  1
hoerl
  9
$CUSTOMPROPERTYTAG
  1
Manager
  9
$CUSTOMPROPERTY
  1

  9
$CUSTOMPROPERTYTAG
  1
Company
  9
$CUSTOMPROPERTY
  1

  9
$CUSTOMPROPERTYTAG
  1
Category
  9
$CUSTOMPROPERTY
  1

  9
$CUSTOMPROPERTYTAG
  1
Part Number
  9
$CUSTOMPROPERTY
  1
EW-358.880.00
  9
$CUSTOMPROPERTYTAG
  1
Description
  9
$CUSTOMPROPERTY
  1

  9
$CUSTOMPROPERTYTAG
  1
Project
  9
$CUSTOMPROPERTY
  1

  9
$CUSTOMPROPERTYTAG
  1
Designer
  9
$CUSTOMPROPERTY
  1
hoerl
  9
$CUSTOMPROPERTYTAG
  1
Engineer
  9
$CUSTOMPROPERTY
  1

  9
$CUSTOMPROPERTYTAG
  1
Authority
  9
$CUSTOMPROPERTY
  1

  9
$CUSTOMPROPERTYTAG
  1
Cost Center
  9
$CUSTOMPROPERTY
  1

  9
$CUSTOMPROPERTYTAG
  1
Vendor
  9
$CUSTOMPROPERTY
  1

  9
$CUSTOMPROPERTYTAG
  1
User Status
  9
$CUSTOMPROPERTY
  1

  9
$CUSTOMPROPERTYTAG
  1
Design Status
  9
$CUSTOMPROPERTY
  1
WorkInProgress
  9
$CUSTOMPROPERTYTAG
  1
Checked by
  9
$CUSTOMPROPERTY
  1

  9
$CUSTOMPROPERTYTAG
  1
Engr Approved by
  9
$CUSTOMPROPERTY
  1

  9
$CUSTOMPROPERTYTAG
  1
Mfg Approved by
  9
$CUSTOMPROPERTY
  1

  9
$INSBASE
 10
0.0
 20
0.0
 30
0.0
  9
$EXTMIN
 10
0.0
 20
0.0
 30
0.0
  9
$EXTMAX
 10
594.0
 20
420.0
 30
0.0
  9
$LIMMIN
 10
0.0
 20
0.0
  9
$LIMMAX
 10
594.0
 20
420.0
  9
$ORTHOMODE
 70
     0
  9
$REGENMODE
 70
     1
  9
$FILLMODE
 70
     1
  9
$QTEXTMODE
 70
     0
  9
$MIRRTEXT
 70
     0
  9
$LTSCALE
 40
1.0
  9
$ATTMODE
 70
     1
  9
$TEXTSIZE
 40
0.2
  9
$TRACEWID
 40
0.05
  9
$TEXTSTYLE
  7
Standard
  9
$CLAYER
  8
0
  9
$CELTYPE
  6
ByLayer
  9
$CECOLOR
 62
   256
  9
$CELTSCALE
 40
1.0
  9
$DISPSILH
 70
     0
  9
$DIMSCALE
 40
1.0
  9
$DIMASZ
 40
1.799999999999999
  9
$DIMEXO
 40
0.0625
  9
$DIMDLI
 40
0.38
  9
$DIMRND
 40
0.0
  9
$DIMDLE
 40
0.0
  9
$DIMEXE
 40
0.18
  9
$DIMTP
 40
0.0
  9
$DIMTM
 40
0.0
  9
$DIMTXT
 40
0.3499999940395355
  9
$DIMCEN
 40
0.09
  9
$DIMTSZ
 40
0.0
  9
$DIMTOL
 70
     0
  9
$DIMLIM
 70
     0
  9
$DIMTIH
 70
     1
  9
$DIMTOH
 70
     1
  9
$DIMSE1
 70
     0
  9
$DIMSE2
 70
     0
  9
$DIMTAD
 70
     0
  9
$DIMZIN
 70
     0
  9
$DIMBLK
  1

  9
$DIMASO
 70
     1
  9
$DIMSHO
 70
     1
  9
$DIMPOST
  1

  9
$DIMAPOST
  1

  9
$DIMALT
 70
     0
  9
$DIMALTD
 70
     2
  9
$DIMALTF
 40
25.4
  9
$DIMLFAC
 40
1.0
  9
$DIMTOFL
 70
     0
  9
$DIMTVP
 40
0.0
  9
$DIMTIX
 70
     0
  9
$DIMSOXD
 70
     0
  9
$DIMSAH
 70
     0
  9
$DIMBLK1
  1

  9
$DIMBLK2
  1

  9
$DIMSTYLE
  2
Standard
  9
$DIMCLRD
 70
     0
  9
$DIMCLRE
 70
     0
  9
$DIMCLRT
 70
     0
  9
$DIMTFAC
 40
1.0
  9
$DIMGAP
 40
0.09
  9
$DIMJUST
 70
     0
  9
$DIMSD1
 70
     0
  9
$DIMSD2
 70
     0
  9
$DIMTOLJ
 70
     1
  9
$DIMTZIN
 70
     0
  9
$DIMALTZ
 70
     0
  9
$DIMALTTZ
 70
     0
  9
$DIMUPT
 70
     0
  9
$DIMDEC
 70
     4
  9
$DIMTDEC
 70
     4
  9
$DIMALTU
 70
     2
  9
$DIMALTTD
 70
     2
  9
$DIMTXSTY
  7
Standard
  9
$DIMAUNIT
 70
     0
  9
$DIMADEC
 70
     0
  9
$DIMALTRND
 40
0.0
  9
$DIMAZIN
 70
     0
  9
$DIMDSEP
 70
    46
  9
$DIMATFIT
 70
     3
  9
$DIMFRAC
 70
     0
  9
$DIMLDRBLK
  1

  9
$DIMLUNIT
 70
     2
  9
$DIMLWD
 70
    -2
  9
$DIMLWE
 70
    -2
  9
$DIMTMOVE
 70
     0
  9
$LUNITS
 70
     2
  9
$LUPREC
 70
     4
  9
$SKETCHINC
 40
0.1
  9
$FILLETRAD
 40
0.0
  9
$AUNITS
 70
     0
  9
$AUPREC
 70
     0
  9
$MENU
  1
.
  9
$ELEVATION
 40
0.0
  9
$PELEVATION
 40
0.0
  9
$THICKNESS
 40
0.0
  9
$LIMCHECK
 70
     0
  9
$CHAMFERA
 40
0.0
  9
$CHAMFERB
 40
0.0
  9
$CHAMFERC
 40
0.0
  9
$CHAMFERD
 40
0.0
  9
$SKPOLY
 70
     0
  9
$TDCREATE
 40
2455068.392795139
  9
$TDUCREATE
 40
2455068.309461806
  9
$TDUPDATE
 40
2455068.392795139
  9
$TDUUPDATE
 40
2455068.309461806
  9
$TDINDWG
 40
0.0000265856
  9
$TDUSRTIMER
 40
0.0000265856
  9
$USRTIMER
 70
     1
  9
$ANGBASE
 50
0.0
  9
$ANGDIR
 70
     0
  9
$PDMODE
 70
     0
  9
$PDSIZE
 40
0.0
  9
$PLINEWID
 40
0.0
  9
$SPLFRAME
 70
     0
  9
$SPLINETYPE
 70
     6
  9
$SPLINESEGS
 70
     8
  9
$HANDSEED
  5
571
  9
$SURFTAB1
 70
     6
  9
$SURFTAB2
 70
     6
  9
$SURFTYPE
 70
     6
  9
$SURFU
 70
     6
  9
$SURFV
 70
     6
  9
$UCSBASE
  2

  9
$UCSNAME
  2

  9
$UCSORG
 10
0.0
 20
0.0
 30
0.0
  9
$UCSXDIR
 10
1.0
 20
0.0
 30
0.0
  9
$UCSYDIR
 10
0.0
 20
1.0
 30
0.0
  9
$UCSORTHOREF
  2

  9
$UCSORTHOVIEW
 70
     0
  9
$UCSORGTOP
 10
0.0
 20
0.0
 30
0.0
  9
$UCSORGBOTTOM
 10
0.0
 20
0.0
 30
0.0
  9
$UCSORGLEFT
 10
0.0
 20
0.0
 30
0.0
  9
$UCSORGRIGHT
 10
0.0
 20
0.0
 30
0.0
  9
$UCSORGFRONT
 10
0.0
 20
0.0
 30
0.0
  9
$UCSORGBACK
 10
0.0
 20
0.0
 30
0.0
  9
$PUCSBASE
  2

  9
$PUCSNAME
  2

  9
$PUCSORG
 10
0.0
 20
0.0
 30
0.0
  9
$PUCSXDIR
 10
1.0
 20
0.0
 30
0.0
  9
$PUCSYDIR
 10
0.0
 20
1.0
 30
0.0
  9
$PUCSORTHOREF
  2

  9
$PUCSORTHOVIEW
 70
     0
  9
$PUCSORGTOP
 10
0.0
 20
0.0
 30
0.0
  9
$PUCSORGBOTTOM
 10
0.0
 20
0.0
 30
0.0
  9
$PUCSORGLEFT
 10
0.0
 20
0.0
 30
0.0
  9
$PUCSORGRIGHT
 10
0.0
 20
0.0
 30
0.0
  9
$PUCSORGFRONT
 10
0.0
 20
0.0
 30
0.0
  9
$PUCSORGBACK
 10
0.0
 20
0.0
 30
0.0
  9
$USERI1
 70
     0
  9
$USERI2
 70
     0
  9
$USERI3
 70
     0
  9
$USERI4
 70
     0
  9
$USERI5
 70
     0
  9
$USERR1
 40
0.0
  9
$USERR2
 40
0.0
  9
$USERR3
 40
0.0
  9
$USERR4
 40
0.0
  9
$USERR5
 40
0.0
  9
$WORLDVIEW
 70
     1
  9
$SHADEDGE
 70
     3
  9
$SHADEDIF
 70
    70
  9
$TILEMODE
 70
     1
  9
$MAXACTVP
 70
    64
  9
$PINSBASE
 10
0.0
 20
0.0
 30
0.0
  9
$PLIMCHECK
 70
     0
  9
$PEXTMIN
 10
0.0
 20
0.0
 30
0.0
  9
$PEXTMAX
 10
594.0
 20
420.0
 30
0.0
  9
$PLIMMIN
 10
0.0
 20
0.0
  9
$PLIMMAX
 10
594.0
 20
420.0
  9
$UNITMODE
 70
     0
  9
$VISRETAIN
 70
     1
  9
$PLINEGEN
 70
     0
  9
$PSLTSCALE
 70
     1
  9
$TREEDEPTH
 70
  3020
  9
$CMLSTYLE
  2
Standard
  9
$CMLJUST
 70
     0
  9
$CMLSCALE
 40
1.0
  9
$PROXYGRAPHICS
 70
     1
  9
$MEASUREMENT
 70
     1
  9
$CELWEIGHT
370
    -1
  9
$ENDCAPS
280
     0
  9
$JOINSTYLE
280
     0
  9
$LWDISPLAY
290
     0
  9
$INSUNITS
 70
     4
  9
$HYPERLINKBASE
  1

  9
$STYLESHEET
  1

  9
$XEDIT
290
     1
  9
$CEPSNTYPE
380
     0
  9
$PSTYLEMODE
290
     1
  9
$FINGERPRINTGUID
  2
{4D829D6D-907F-491A-8E7E-30509A936F58}
  9
$VERSIONGUID
  2
{E7A11A90-ECDE-4836-8EF4-FE514322A1C3}
  9
$EXTNAMES
290
     1
  9
$PSVPSCALE
 40
0.0
  9
$OLESTARTUP
290
     0
  9
$SORTENTS
280
   127
  9
$INDEXCTL
280
     0
  9
$HIDETEXT
280
     1
  9
$XCLIPFRAME
290
     0
  9
$HALOGAP
280
     0
  9
$OBSCOLOR
 70
   257
  9
$OBSLTYPE
280
     0
  9
$INTERSECTIONDISPLAY
280
     0
  9
$INTERSECTIONCOLOR
 70
   257
  9
$DIMASSOC
280
     1
  9
$PROJECTNAME
  1

  0
ENDSEC
  0
SECTION
  2
CLASSES
  0
CLASS
  1
ACDBDICTIONARYWDFLT
  2
AcDbDictionaryWithDefault
  3
ObjectDBX Classes
 90
        0
 91
        1
280
     0
281
     0
  0
CLASS
  1
MATERIAL
  2
AcDbMaterial
  3
ObjectDBX Classes
 90
     1153
 91
        3
280
     0
281
     0
  0
CLASS
  1
VISUALSTYLE
  2
AcDbVisualStyle
  3
ObjectDBX Classes
 90
     4095
 91
       16
280
     0
281
     0
  0
CLASS
  1
SCALE
  2
AcDbScale
  3
ObjectDBX Classes
 90
     1153
 91
       33
280
     0
281
     0
  0
CLASS
  1
TABLESTYLE
  2
AcDbTableStyle
  3
ObjectDBX Classes
 90
     4095
 91
        1
280
     0
281
     0
  0
CLASS
  1
MLEADERSTYLE
  2
AcDbMLeaderStyle
  3
ACDB_MLEADERSTYLE_CLASS
 90
     4095
 91
        1
280
     0
281
     0
  0
CLASS
  1
DICTIONARYVAR
  2
AcDbDictionaryVar
  3
ObjectDBX Classes
 90
        0
 91
        7
280
     0
281
     0
  0
CLASS
  1
CELLSTYLEMAP
  2
AcDbCellStyleMap
  3
ObjectDBX Classes
 90
     1152
 91
        1
280
     0
281
     0
  0
ENDSEC
  0
SECTION
  2
TABLES
  0
TABLE
  2
VPORT
  5
8
330
0
100
AcDbSymbolTable
 70
     1
  0
VPORT
  5
5F
330
8
100
AcDbSymbolTableRecord
100
AcDbViewportTableRecord
  2
*Active
 70
     0
 10
0.0
 20
0.0
 11
1.0
 21
1.0
 12
297.0
 22
210.0
 13
0.0
 23
0.0
 14
1.0
 24
1.0
 15
0.0
 25
0.0
 16
0.0
 26
0.0
 36
1.0
 17
0.0
 27
0.0
 37
0.0
 40
420.0
 41
1.414285714285714
 42
50.0
 43
0.0
 44
0.0
 50
0.0
 51
0.0
 71
     0
 72
   100
 73
     1
 74
     1
 75
     0
 76
     0
 77
     0
 78
     0
281
     0
 65
     1
110
0.0
120
0.0
130
0.0
111
1.0
121
0.0
131
0.0
112
0.0
122
1.0
132
0.0
 79
     0
146
0.0
  0
ENDTAB
  0
TABLE
  2
LTYPE
  5
5
330
0
100
AcDbSymbolTable
 70
    59
  0
LTYPE
  5
63
330
5
100
AcDbSymbolTableRecord
100
AcDbLinetypeTableRecord
  2
ByBlock
 70
     0
  3

 72
    65
 73
     0
 40
0.0
  0
LTYPE
  5
64
330
5
100
AcDbSymbolTableRecord
100
AcDbLinetypeTableRecord
  2
ByLayer
 70
     0
  3

 72
    65
 73
     0
 40
0.0
  0
LTYPE
  5
65
330
5
100
AcDbSymbolTableRecord
100
AcDbLinetypeTableRecord
  2
Continuous
 70
     0
  3
Solid line
 72
    65
 73
     0
 40
0.0
  0
LTYPE
  5
7D
330
5
100
AcDbSymbolTableRecord
100
AcDbLinetypeTableRecord
  2
Section_View_Lines
 70
     0
  3
Section View Lines
 72
    65
 73
     4
 40
0.8406
 49
0.6614
 74
     0
 49
-0.0827
 74
     0
 49
0.0138
 74
     0
 49
-0.0827
 74
     0
  0
LTYPE
  5
7E
330
5
100
AcDbSymbolTableRecord
100
AcDbLinetypeTableRecord
  2
CHAIN
 70
     0
  3
Chain ____ _ ____ _ ____ _ ____ _ ____ _ ____
 72
    65
 73
     4
 40
0.3543
 49
0.2362
 74
     0
 49
-0.0295
 74
     0
 49
0.0591
 74
     0
 49
-0.0295
 74
     0
  0
LTYPE
  5
7F
330
5
100
AcDbSymbolTableRecord
100
AcDbLinetypeTableRecord
  2
DASH_DOT
 70
     0
  3
Dash dot _._._._._._._._._._._._._._._.
 72
    65
 73
     4
 40
0.182
 49
0.1181
 74
     0
 49
-0.0295
 74
     0
 49
0.0049
 74
     0
 49
-0.0295
 74
     0
  0
LTYPE
  5
80
330
5
100
AcDbSymbolTableRecord
100
AcDbLinetypeTableRecord
  2
DASH_DOUBLE_DOT
 70
     0
  3
Dash Double Dot __ __ . __ __ . __ __ . __ _
 72
    65
 73
     6
 40
0.2164
 49
0.1181
 74
     0
 49
-0.0295
 74
     0
 49
0.0049
 74
     0
 49
-0.0295
 74
     0
 49
0.0049
 74
     0
 49
-0.0295
 74
     0
  0
LTYPE
  5
81
330
5
100
AcDbSymbolTableRecord
100
AcDbLinetypeTableRecord
  2
DASH_TRIPLE_DOT
 70
     0
  3
Dash Triple-Dot _ . . . _ . . . _ . . . _
 72
    65
 73
     8
 40
0.2508
 49
0.1181
 74
     0
 49
-0.0295
 74
     0
 49
0.0049
 74
     0
 49
-0.0295
 74
     0
 49
0.0049
 74
     0
 49
-0.0295
 74
     0
 49
0.0049
 74
     0
 49
-0.0295
 74
     0
  0
LTYPE
  5
82
330
5
100
AcDbSymbolTableRecord
100
AcDbLinetypeTableRecord
  2
DASHED
 70
     0
  3
Dashed __ __ __ __ __ __ __ __ __ __ __ __ __ _
 72
    65
 73
     2
 40
0.2068
 49
0.1655
 74
     0
 49
-0.0413
 74
     0
  0
LTYPE
  5
83
330
5
100
AcDbSymbolTableRecord
100
AcDbLinetypeTableRecord
  2
DASHED_SPACE
 70
     0
  3
Dashed Space __ __ __ __ __ __ __ __ __ __ __ _
 72
    65
 73
     2
 40
0.2067
 49
0.1654
 74
     0
 49
-0.0413
 74
     0
  0
LTYPE
  5
84
330
5
100
AcDbSymbolTableRecord
100
AcDbLinetypeTableRecord
  2
DOTTED
 70
     0
  3
Dotted . . . . . . . . . . . . . . . . . . . . 
 72
    65
 73
     2
 40
0.0481
 49
0.0068
 74
     0
 49
-0.0413
 74
     0
  0
LTYPE
  5
85
330
5
100
AcDbSymbolTableRecord
100
AcDbLinetypeTableRecord
  2
DOUBLE_DASH_CHAIN
 70
     0
  3
Double Dash Chain ___ _ _ ___ _ _ ___ _ _ ___ _
 72
    65
 73
     6
 40
1.240299999999999
 49
0.6614
 74
     0
 49
-0.0827
 74
     0
 49
0.1654
 74
     0
 49
-0.0827
 74
     0
 49
0.1654
 74
     0
 49
-0.0827
 74
     0
  0
LTYPE
  5
86
330
5
100
AcDbSymbolTableRecord
100
AcDbLinetypeTableRecord
  2
DOUBLE_DASH_DOT
 70
     0
  3
Double Dash Dot __ __ . __ __ . __ __ . __ _
 72
    65
 73
     6
 40
0.3296
 49
0.1181
 74
     0
 49
-0.0295
 74
     0
 49
0.1181
 74
     0
 49
-0.0295
 74
     0
 49
0.0049
 74
     0
 49
-0.0295
 74
     0
  0
LTYPE
  5
87
330
5
100
AcDbSymbolTableRecord
100
AcDbLinetypeTableRecord
  2
DOUBLE_DASH_DOUBLE_DOT
 70
     0
  3
Double Dash Double Dot _ _ . . _ _ . . _ _
 72
    65
 73
     8
 40
0.364
 49
0.1181
 74
     0
 49
-0.0295
 74
     0
 49
0.1181
 74
     0
 49
-0.0295
 74
     0
 49
0.0049
 74
     0
 49
-0.0295
 74
     0
 49
0.0049
 74
     0
 49
-0.0295
 74
     0
  0
LTYPE
  5
88
330
5
100
AcDbSymbolTableRecord
100
AcDbLinetypeTableRecord
  2
DOUBLE_DASH_TRIPLE_DOT
 70
     0
  3
Double Dash Triple Dot __ __ . . . __ __ . . .
 72
    65
 73
    10
 40
0.3984
 49
0.1181
 74
     0
 49
-0.0295
 74
     0
 49
0.1181
 74
     0
 49
-0.0295
 74
     0
 49
0.0049
 74
     0
 49
-0.0295
 74
     0
 49
0.0049
 74
     0
 49
-0.0295
 74
     0
 49
0.0049
 74
     0
 49
-0.0295
 74
     0
  0
LTYPE
  5
89
330
5
100
AcDbSymbolTableRecord
100
AcDbLinetypeTableRecord
  2
LONG_DASH_DOTTED
 70
     0
  3
Long Dash Dotted ____ . ____ . ____ . ____ . _
 72
    65
 73
     4
 40
0.3001
 49
0.2362
 74
     0
 49
-0.0295
 74
     0
 49
0.0049
 74
     0
 49
-0.0295
 74
     0
  0
LTYPE
  5
8A
330
5
100
AcDbSymbolTableRecord
100
AcDbLinetypeTableRecord
  2
LONG_DASH_DOUBLE_DOT
 70
     0
  3
Long Dash Double Dot ____ . . ____ . . ____ . .
 72
    65
 73
     6
 40
0.3345
 49
0.2362
 74
     0
 49
-0.0295
 74
     0
 49
0.0049
 74
     0
 49
-0.0295
 74
     0
 49
0.0049
 74
     0
 49
-0.0295
 74
     0
  0
LTYPE
  5
8B
330
5
100
AcDbSymbolTableRecord
100
AcDbLinetypeTableRecord
  2
LONG_DASH_TRIPLE_DOT
 70
     0
  3
Long Dash Triple Dot ____ ... ____ ... ____
 72
    65
 73
     8
 40
0.3689
 49
0.2362
 74
     0
 49
-0.0295
 74
     0
 49
0.0049
 74
     0
 49
-0.0295
 74
     0
 49
0.0049
 74
     0
 49
-0.0295
 74
     0
 49
0.0049
 74
     0
 49
-0.0295
 74
     0
  0
LTYPE
  5
8C
330
5
100
AcDbSymbolTableRecord
100
AcDbLinetypeTableRecord
  2
BORDER
 70
     0
  3
Border __ __ . __ __ . __ __ . __ __ . __ __ .
 72
    65
 73
     6
 40
44.45
 49
12.7
 74
     0
 49
-6.349999999999999
 74
     0
 49
12.7
 74
     0
 49
-6.349999999999999
 74
     0
 49
0.0
 74
     0
 49
-6.349999999999999
 74
     0
  0
LTYPE
  5
8D
330
5
100
AcDbSymbolTableRecord
100
AcDbLinetypeTableRecord
  2
BORDER2
 70
     0
  3
Border (.5x) __.__.__.__.__.__.__.__.__.__.__.
 72
    65
 73
     6
 40
22.225
 49
6.349999999999999
 74
     0
 49
-3.174999999999999
 74
     0
 49
6.349999999999999
 74
     0
 49
-3.174999999999999
 74
     0
 49
0.0
 74
     0
 49
-3.174999999999999
 74
     0
  0
LTYPE
  5
8E
330
5
100
AcDbSymbolTableRecord
100
AcDbLinetypeTableRecord
  2
BORDERX2
 70
     0
  3
Border (2x) ____  ____  .  ____  ____  .  ___
 72
    65
 73
     6
 40
88.9
 49
25.4
 74
     0
 49
-12.7
 74
     0
 49
25.4
 74
     0
 49
-12.7
 74
     0
 49
0.0
 74
     0
 49
-12.7
 74
     0
  0
LTYPE
  5
8F
330
5
100
AcDbSymbolTableRecord
100
AcDbLinetypeTableRecord
  2
CENTER
 70
     0
  3
Center ____ _ ____ _ ____ _ ____ _ ____ _ ____
 72
    65
 73
     4
 40
50.8
 49
31.75
 74
     0
 49
-6.349999999999999
 74
     0
 49
6.349999999999999
 74
     0
 49
-6.349999999999999
 74
     0
  0
LTYPE
  5
90
330
5
100
AcDbSymbolTableRecord
100
AcDbLinetypeTableRecord
  2
CENTER2
 70
     0
  3
Center (.5x) ___ _ ___ _ ___ _ ___ _ ___ _ ___
 72
    65
 73
     4
 40
28.575
 49
19.05
 74
     0
 49
-3.174999999999999
 74
     0
 49
3.174999999999999
 74
     0
 49
-3.174999999999999
 74
     0
  0
LTYPE
  5
91
330
5
100
AcDbSymbolTableRecord
100
AcDbLinetypeTableRecord
  2
CENTERX2
 70
     0
  3
Center (2x) ________  __  ________  __  _____
 72
    65
 73
     4
 40
101.6
 49
63.5
 74
     0
 49
-12.7
 74
     0
 49
12.7
 74
     0
 49
-12.7
 74
     0
  0
LTYPE
  5
92
330
5
100
AcDbSymbolTableRecord
100
AcDbLinetypeTableRecord
  2
DASHDOT2
 70
     0
  3
Dash dot (.5x) _._._._._._._._._._._._._._._.
 72
    65
 73
     4
 40
12.7
 49
6.349999999999999
 74
     0
 49
-3.174999999999999
 74
     0
 49
0.0
 74
     0
 49
-3.174999999999999
 74
     0
  0
LTYPE
  5
93
330
5
100
AcDbSymbolTableRecord
100
AcDbLinetypeTableRecord
  2
DASHDOTX2
 70
     0
  3
Dash dot (2x) ____  .  ____  .  ____  .  ___
 72
    65
 73
     4
 40
50.8
 49
25.4
 74
     0
 49
-12.7
 74
     0
 49
0.0
 74
     0
 49
-12.7
 74
     0
  0
LTYPE
  5
94
330
5
100
AcDbSymbolTableRecord
100
AcDbLinetypeTableRecord
  2
DASHED2
 70
     0
  3
Dashed (.5x) _ _ _ _ _ _ _ _ _ _ _ _ _ _ _ _ _
 72
    65
 73
     2
 40
9.524999999999998
 49
6.349999999999999
 74
     0
 49
-3.174999999999999
 74
     0
  0
LTYPE
  5
95
330
5
100
AcDbSymbolTableRecord
100
AcDbLinetypeTableRecord
  2
DASHEDX2
 70
     0
  3
Dashed (2x) ____  ____  ____  ____  ____  ___
 72
    65
 73
     2
 40
38.1
 49
25.4
 74
     0
 49
-12.7
 74
     0
  0
LTYPE
  5
96
330
5
100
AcDbSymbolTableRecord
100
AcDbLinetypeTableRecord
  2
DIVIDE
 70
     0
  3
Divide ____ . . ____ . . ____ . . ____ . . ____
 72
    65
 73
     6
 40
31.75
 49
12.7
 74
     0
 49
-6.349999999999999
 74
     0
 49
0.0
 74
     0
 49
-6.349999999999999
 74
     0
 49
0.0
 74
     0
 49
-6.349999999999999
 74
     0
  0
LTYPE
  5
97
330
5
100
AcDbSymbolTableRecord
100
AcDbLinetypeTableRecord
  2
DIVIDE2
 70
     0
  3
Divide (.5x) __..__..__..__..__..__..__..__.._
 72
    65
 73
     6
 40
15.875
 49
6.349999999999999
 74
     0
 49
-3.174999999999999
 74
     0
 49
0.0
 74
     0
 49
-3.174999999999999
 74
     0
 49
0.0
 74
     0
 49
-3.174999999999999
 74
     0
  0
LTYPE
  5
98
330
5
100
AcDbSymbolTableRecord
100
AcDbLinetypeTableRecord
  2
DIVIDEX2
 70
     0
  3
Divide (2x) ________  .  .  ________  .  .  _
 72
    65
 73
     6
 40
63.49999999999999
 49
25.4
 74
     0
 49
-12.7
 74
     0
 49
0.0
 74
     0
 49
-12.7
 74
     0
 49
0.0
 74
     0
 49
-12.7
 74
     0
  0
LTYPE
  5
99
330
5
100
AcDbSymbolTableRecord
100
AcDbLinetypeTableRecord
  2
DOT
 70
     0
  3
Dot . . . . . . . . . . . . . . . . . . . . . .
 72
    65
 73
     2
 40
6.349999999999999
 49
0.0
 74
     0
 49
-6.349999999999999
 74
     0
  0
LTYPE
  5
9A
330
5
100
AcDbSymbolTableRecord
100
AcDbLinetypeTableRecord
  2
DOT2
 70
     0
  3
Dot (.5x) .....................................
 72
    65
 73
     2
 40
3.174999999999999
 49
0.0
 74
     0
 49
-3.174999999999999
 74
     0
  0
LTYPE
  5
9B
330
5
100
AcDbSymbolTableRecord
100
AcDbLinetypeTableRecord
  2
DOTX2
 70
     0
  3
Dot (2x) .  .  .  .  .  .  .  .  .  .  .  .  . 
 72
    65
 73
     2
 40
12.7
 49
0.0
 74
     0
 49
-12.7
 74
     0
  0
LTYPE
  5
9C
330
5
100
AcDbSymbolTableRecord
100
AcDbLinetypeTableRecord
  2
HIDDEN
 70
     0
  3
Hidden __ __ __ __ __ __ __ __ __ __ __ __ __ _
 72
    65
 73
     2
 40
9.524999999999998
 49
6.349999999999999
 74
     0
 49
-3.174999999999999
 74
     0
  0
LTYPE
  5
9D
330
5
100
AcDbSymbolTableRecord
100
AcDbLinetypeTableRecord
  2
HIDDEN2
 70
     0
  3
Hidden (.5x) _ _ _ _ _ _ _ _ _ _ _ _ _ _ _ _ _
 72
    65
 73
     2
 40
4.762499999999999
 49
3.174999999999999
 74
     0
 49
-1.587499999999999
 74
     0
  0
LTYPE
  5
9E
330
5
100
AcDbSymbolTableRecord
100
AcDbLinetypeTableRecord
  2
HIDDENX2
 70
     0
  3
Hidden (2x) ____ ____ ____ ____ ____ ____ ____
 72
    65
 73
     2
 40
19.05
 49
12.7
 74
     0
 49
-6.349999999999999
 74
     0
  0
LTYPE
  5
9F
330
5
100
AcDbSymbolTableRecord
100
AcDbLinetypeTableRecord
  2
PHANTOM
 70
     0
  3
Phantom ______  __  __  ______  __  __  ______
 72
    65
 73
     6
 40
63.5
 49
31.75
 74
     0
 49
-6.349999999999999
 74
     0
 49
6.349999999999999
 74
     0
 49
-6.349999999999999
 74
     0
 49
6.349999999999999
 74
     0
 49
-6.349999999999999
 74
     0
  0
LTYPE
  5
A0
330
5
100
AcDbSymbolTableRecord
100
AcDbLinetypeTableRecord
  2
PHANTOM2
 70
     0
  3
Phantom (.5x) ___ _ _ ___ _ _ ___ _ _ ___ _ _
 72
    65
 73
     6
 40
31.75
 49
15.875
 74
     0
 49
-3.174999999999999
 74
     0
 49
3.174999999999999
 74
     0
 49
-3.174999999999999
 74
     0
 49
3.174999999999999
 74
     0
 49
-3.174999999999999
 74
     0
  0
LTYPE
  5
A1
330
5
100
AcDbSymbolTableRecord
100
AcDbLinetypeTableRecord
  2
PHANTOMX2
 70
     0
  3
Phantom (2x) ____________    ____    ____   _
 72
    65
 73
     6
 40
127.0
 49
63.5
 74
     0
 49
-12.7
 74
     0
 49
12.7
 74
     0
 49
-12.7
 74
     0
 49
12.7
 74
     0
 49
-12.7
 74
     0
  0
LTYPE
  5
A2
330
5
100
AcDbSymbolTableRecord
100
AcDbLinetypeTableRecord
  2
ACAD_ISO02W100
 70
     0
  3
ISO dash __ __ __ __ __ __ __ __ __ __ __ __ __
 72
    65
 73
     2
 40
15.0
 49
12.0
 74
     0
 49
-3.0
 74
     0
  0
LTYPE
  5
A3
330
5
100
AcDbSymbolTableRecord
100
AcDbLinetypeTableRecord
  2
ACAD_ISO03W100
 70
     0
  3
ISO dash space __    __    __    __    __    __
 72
    65
 73
     2
 40
30.0
 49
12.0
 74
     0
 49
-18.0
 74
     0
  0
LTYPE
  5
A4
330
5
100
AcDbSymbolTableRecord
100
AcDbLinetypeTableRecord
  2
ACAD_ISO04W100
 70
     0
  3
ISO long-dash dot ____ . ____ . ____ . ____ . _
 72
    65
 73
     4
 40
30.0
 49
24.0
 74
     0
 49
-3.0
 74
     0
 49
0.0
 74
     0
 49
-3.0
 74
     0
  0
LTYPE
  5
A5
330
5
100
AcDbSymbolTableRecord
100
AcDbLinetypeTableRecord
  2
ACAD_ISO05W100
 70
     0
  3
ISO long-dash double-dot ____ .. ____ .. ____ .
 72
    65
 73
     6
 40
33.0
 49
24.0
 74
     0
 49
-3.0
 74
     0
 49
0.0
 74
     0
 49
-3.0
 74
     0
 49
0.0
 74
     0
 49
-3.0
 74
     0
  0
LTYPE
  5
A6
330
5
100
AcDbSymbolTableRecord
100
AcDbLinetypeTableRecord
  2
ACAD_ISO06W100
 70
     0
  3
ISO long-dash triple-dot ____ ... ____ ... ____
 72
    65
 73
     8
 40
36.0
 49
24.0
 74
     0
 49
-3.0
 74
     0
 49
0.0
 74
     0
 49
-3.0
 74
     0
 49
0.0
 74
     0
 49
-3.0
 74
     0
 49
0.0
 74
     0
 49
-3.0
 74
     0
  0
LTYPE
  5
A7
330
5
100
AcDbSymbolTableRecord
100
AcDbLinetypeTableRecord
  2
ACAD_ISO07W100
 70
     0
  3
ISO dot . . . . . . . . . . . . . . . . . . . .
 72
    65
 73
     2
 40
3.0
 49
0.0
 74
     0
 49
-3.0
 74
     0
  0
LTYPE
  5
A8
330
5
100
AcDbSymbolTableRecord
100
AcDbLinetypeTableRecord
  2
ACAD_ISO08W100
 70
     0
  3
ISO long-dash short-dash ____ __ ____ __ ____ _
 72
    65
 73
     4
 40
36.0
 49
24.0
 74
     0
 49
-3.0
 74
     0
 49
6.0
 74
     0
 49
-3.0
 74
     0
  0
LTYPE
  5
A9
330
5
100
AcDbSymbolTableRecord
100
AcDbLinetypeTableRecord
  2
ACAD_ISO09W100
 70
     0
  3
ISO long-dash double-short-dash ____ __ __ ____
 72
    65
 73
     6
 40
45.0
 49
24.0
 74
     0
 49
-3.0
 74
     0
 49
6.0
 74
     0
 49
-3.0
 74
     0
 49
6.0
 74
     0
 49
-3.0
 74
     0
  0
LTYPE
  5
AA
330
5
100
AcDbSymbolTableRecord
100
AcDbLinetypeTableRecord
  2
ACAD_ISO10W100
 70
     0
  3
ISO dash dot __ . __ . __ . __ . __ . __ . __ .
 72
    65
 73
     4
 40
18.0
 49
12.0
 74
     0
 49
-3.0
 74
     0
 49
0.0
 74
     0
 49
-3.0
 74
     0
  0
LTYPE
  5
AB
330
5
100
AcDbSymbolTableRecord
100
AcDbLinetypeTableRecord
  2
ACAD_ISO11W100
 70
     0
  3
ISO double-dash dot __ __ . __ __ . __ __ . __ 
 72
    65
 73
     6
 40
33.0
 49
12.0
 74
     0
 49
-3.0
 74
     0
 49
12.0
 74
     0
 49
-3.0
 74
     0
 49
0.0
 74
     0
 49
-3.0
 74
     0
  0
LTYPE
  5
AC
330
5
100
AcDbSymbolTableRecord
100
AcDbLinetypeTableRecord
  2
ACAD_ISO12W100
 70
     0
  3
ISO dash double-dot __ . . __ . . __ . . __ . .
 72
    65
 73
     6
 40
21.0
 49
12.0
 74
     0
 49
-3.0
 74
     0
 49
0.0
 74
     0
 49
-3.0
 74
     0
 49
0.0
 74
     0
 49
-3.0
 74
     0
  0
LTYPE
  5
AD
330
5
100
AcDbSymbolTableRecord
100
AcDbLinetypeTableRecord
  2
ACAD_ISO13W100
 70
     0
  3
ISO double-dash double-dot __ __ . . __ __ . . 
 72
    65
 73
     8
 40
36.0
 49
12.0
 74
     0
 49
-3.0
 74
     0
 49
12.0
 74
     0
 49
-3.0
 74
     0
 49
0.0
 74
     0
 49
-3.0
 74
     0
 49
0.0
 74
     0
 49
-3.0
 74
     0
  0
LTYPE
  5
AE
330
5
100
AcDbSymbolTableRecord
100
AcDbLinetypeTableRecord
  2
ACAD_ISO14W100
 70
     0
  3
ISO dash triple-dot __ . . . __ . . . __ . . . 
 72
    65
 73
     8
 40
24.0
 49
12.0
 74
     0
 49
-3.0
 74
     0
 49
0.0
 74
     0
 49
-3.0
 74
     0
 49
0.0
 74
     0
 49
-3.0
 74
     0
 49
0.0
 74
     0
 49
-3.0
 74
     0
  0
LTYPE
  5
AF
330
5
100
AcDbSymbolTableRecord
100
AcDbLinetypeTableRecord
  2
ACAD_ISO15W100
 70
     0
  3
ISO double-dash triple-dot __ __ . . . __ __ . 
 72
    65
 73
    10
 40
39.0
 49
12.0
 74
     0
 49
-3.0
 74
     0
 49
12.0
 74
     0
 49
-3.0
 74
     0
 49
0.0
 74
     0
 49
-3.0
 74
     0
 49
0.0
 74
     0
 49
-3.0
 74
     0
 49
0.0
 74
     0
 49
-3.0
 74
     0
  0
LTYPE
  5
B2
330
5
100
AcDbSymbolTableRecord
100
AcDbLinetypeTableRecord
  2
FENCELINE1
 70
     0
  3
Fenceline circle ----0-----0----0-----0----0---
 72
    65
 73
     4
 40
36.83
 49
6.349999999999999
 74
     0
 49
-2.54
 74
     4
 75
   133
340
B1
 46
2.54
 50
0.0
 44
-2.54
 45
0.0
 49
-2.54
 74
     0
 49
25.4
 74
     0
  0
LTYPE
  5
B3
330
5
100
AcDbSymbolTableRecord
100
AcDbLinetypeTableRecord
  2
FENCELINE2
 70
     0
  3
Fenceline square ----[]-----[]----[]-----[]----
 72
    65
 73
     4
 40
36.83
 49
6.349999999999999
 74
     0
 49
-2.54
 74
     4
 75
   132
340
B1
 46
2.54
 50
0.0
 44
-2.54
 45
0.0
 49
-2.54
 74
     0
 49
25.4
 74
     0
  0
LTYPE
  5
B4
330
5
100
AcDbSymbolTableRecord
100
AcDbLinetypeTableRecord
  2
TRACKS
 70
     0
  3
Tracks -|-|-|-|-|-|-|-|-|-|-|-|-|-|-|-|-|-|-|-|
 72
    65
 73
     2
 40
7.62
 49
3.81
 74
     4
 75
   130
340
B1
 46
6.349999999999999
 50
0.0
 44
0.0
 45
0.0
 49
3.81
 74
     0
  0
LTYPE
  5
B5
330
5
100
AcDbSymbolTableRecord
100
AcDbLinetypeTableRecord
  2
BATTING
 70
     0
  3
Batting SSSSSSSSSSSSSSSSSSSSSSSSSSSSSSSSSSSSSSS
 72
    65
 73
     4
 40
10.16254
 49
0.00254
 74
     0
 49
-2.54
 74
     4
 75
   134
340
B1
 46
2.54
 50
0.0
 44
-2.54
 45
0.0
 49
-5.08
 74
     4
 75
   134
340
B1
 46
2.54
 50
180.0
 44
2.54
 45
0.0
 49
-2.54
 74
     0
  0
LTYPE
  5
B6
330
5
100
AcDbSymbolTableRecord
100
AcDbLinetypeTableRecord
  2
HOT_WATER_SUPPLY
 70
     0
  3
Hot water supply ---- HW ---- HW ---- HW ----
 72
    65
 73
     3
 40
22.86
 49
12.7
 74
     0
 49
-5.08
 74
     2
 75
     0
340
5D
 46
2.54
 50
0.0
 44
-2.54
 45
-1.27
  9
HW
 49
-5.08
 74
     0
  0
LTYPE
  5
B7
330
5
100
AcDbSymbolTableRecord
100
AcDbLinetypeTableRecord
  2
GAS_LINE
 70
     0
  3
Gas line ----GAS----GAS----GAS----GAS----GAS---
 72
    65
 73
     3
 40
24.13
 49
12.7
 74
     0
 49
-5.08
 74
     2
 75
     0
340
5D
 46
2.54
 50
0.0
 44
-2.54
 45
-1.27
  9
GAS
 49
-6.349999999999999
 74
     0
  0
LTYPE
  5
B8
330
5
100
AcDbSymbolTableRecord
100
AcDbLinetypeTableRecord
  2
ZIGZAG
 70
     0
  3
Zig zag /\/\/\/\/\/\/\/\/\/\/\/\/\/\/\/\/\/\/\/
 72
    65
 73
     4
 40
20.32254
 49
0.00254
 74
     0
 49
-5.08
 74
     4
 75
   131
340
B1
 46
5.08
 50
0.0
 44
-5.08
 45
0.0
 49
-10.16
 74
     4
 75
   131
340
B1
 46
5.08
 50
180.0
 44
5.08
 45
0.0
 49
-5.08
 74
     0
  0
ENDTAB
  0
TABLE
  2
LAYER
  5
2
330
0
100
AcDbSymbolTable
 70
    25
  0
LAYER
  5
5C
330
2
100
AcDbSymbolTableRecord
100
AcDbLayerTableRecord
  2
0
 70
     0
 62
     7
  6
Continuous
370
    -3
390
F
  0
LAYER
  5
C3
330
2
100
AcDbSymbolTableRecord
100
AcDbLayerTableRecord
  2
Hidden (ISO)
 70
     0
 62
     7
  6
Continuous
370
    35
390
F
  0
LAYER
  5
CC
330
2
100
AcDbSymbolTableRecord
100
AcDbLayerTableRecord
  2
Visible (ISO)
 70
     0
 62
     7
  6
Continuous
370
    50
390
F
  0
LAYER
  5
CD
330
2
100
AcDbSymbolTableRecord
100
AcDbLayerTableRecord
  2
Visible Narrow (ISO)
 70
     0
 62
     7
  6
Continuous
370
    35
390
F
  0
ENDTAB
  0
TABLE
  2
STYLE
  5
3
330
0
100
AcDbSymbolTable
 70
    15
  0
STYLE
  5
5D
330
3
100
AcDbSymbolTableRecord
100
AcDbTextStyleTableRecord
  2
Standard
 70
     0
 40
0.0
 41
1.0
 50
0.0
 71
     0
 42
0.2
  3
TAHOMA.TTF
  4

1001
ACAD
1000
Tahoma
1071
      256
  0
STYLE
  5
62
330
3
100
AcDbSymbolTableRecord
100
AcDbTextStyleTableRecord
  2
Annotative
 70
     0
 40
0.0
 41
1.0
 50
0.0
 71
     0
 42
0.2
  3
txt
  4

1001
AcadAnnotative
1000
AnnotativeData
1002
{
1070
     1
1070
     1
1002
}
  0
STYLE
  5
B1
330
3
100
AcDbSymbolTableRecord
100
AcDbTextStyleTableRecord
  2

 70
     1
 40
0.0
 41
1.0
 50
0.0
 71
     0
 42
0.2
  3
ltypeshp.shx
  4

  0
STYLE
  5
D1
330
3
100
AcDbSymbolTableRecord
100
AcDbTextStyleTableRecord
  2
Alternative Text (GOST)
 70
     0
 40
0.0
 41
0.8000000119209289
 50
0.0
 71
     0
 42
0.2
  3
ARIAL.TTF
  4

1001
ACAD
1000
Arial
1071
      256
  0
STYLE
  5
D2
330
3
100
AcDbSymbolTableRecord
100
AcDbTextStyleTableRecord
  2
Condensed Text (GOST)
 70
     0
 40
0.0
 41
0.8000000119209289
 50
0.0
 71
     0
 42
0.2
  3
GOST Common.ttf
  4

1001
ACAD
1000
GOST Common
1071
      256
  0
STYLE
  5
D3
330
3
100
AcDbSymbolTableRecord
100
AcDbTextStyleTableRecord
  2
Enlarged Text (GOST)
 70
     0
 40
0.0
 41
1.0
 50
0.0
 71
     0
 42
0.2
  3
GOST Common.ttf
  4

1001
ACAD
1000
GOST Common
1071
      256
  0
STYLE
  5
D4
330
3
100
AcDbSymbolTableRecord
100
AcDbTextStyleTableRecord
  2
Label Text (ANSI)
 70
     0
 40
0.0
 41
1.0
 50
0.0
 71
     0
 42
0.2
  3
TAHOMA.TTF
  4

1001
ACAD
1000
Tahoma
1071
      256
  0
STYLE
  5
D5
330
3
100
AcDbSymbolTableRecord
100
AcDbTextStyleTableRecord
  2
Label Text (DIN)
 70
     0
 40
0.0
 41
1.0
 50
0.0
 71
     0
 42
0.2
  3
isocpeur.ttf
  4

1001
ACAD
1000
ISOCPEUR
1071
      256
  0
STYLE
  5
D6
330
3
100
AcDbSymbolTableRecord
100
AcDbTextStyleTableRecord
  2
Label Text (ISO)
 70
     0
 40
0.0
 41
1.0
 50
0.0
 71
     0
 42
0.2
  3
TAHOMA.TTF
  4

1001
ACAD
1000
Tahoma
1071
      256
  0
STYLE
  5
D7
330
3
100
AcDbSymbolTableRecord
100
AcDbTextStyleTableRecord
  2
Label Text (JIS)
 70
     0
 40
0.0
 41
1.0
 50
0.0
 71
     0
 42
0.2
  3
TAHOMA.TTF
  4

1001
ACAD
1000
Tahoma
1071
      256
  0
STYLE
  5
D8
330
3
100
AcDbSymbolTableRecord
100
AcDbTextStyleTableRecord
  2
Note Text (ANSI)
 70
     0
 40
0.0
 41
1.0
 50
0.0
 71
     0
 42
0.2
  3
TAHOMA.TTF
  4

1001
ACAD
1000
Tahoma
1071
      256
  0
STYLE
  5
D9
330
3
100
AcDbSymbolTableRecord
100
AcDbTextStyleTableRecord
  2
Note Text (DIN)
 70
     0
 40
0.0
 41
1.0
 50
0.0
 71
     0
 42
0.2
  3
isocpeur.ttf
  4

1001
ACAD
1000
ISOCPEUR
1071
      256
  0
STYLE
  5
DA
330
3
100
AcDbSymbolTableRecord
100
AcDbTextStyleTableRecord
  2
Note Text (ISO)
 70
     0
 40
0.0
 41
1.0
 50
0.0
 71
     0
 42
0.2
  3
TAHOMA.TTF
  4

1001
ACAD
1000
Tahoma
1071
      256
  0
STYLE
  5
DB
330
3
100
AcDbSymbolTableRecord
100
AcDbTextStyleTableRecord
  2
Note Text (JIS)
 70
     0
 40
0.0
 41
1.0
 50
0.0
 71
     0
 42
0.2
  3
TAHOMA.TTF
  4

1001
ACAD
1000
Tahoma
1071
      256
  0
STYLE
  5
DC
330
3
100
AcDbSymbolTableRecord
100
AcDbTextStyleTableRecord
  2
Regular Text (GOST)
 70
     0
 40
0.0
 41
1.0
 50
0.0
 71
     0
 42
0.2
  3
GOST Common.ttf
  4

1001
ACAD
1000
GOST Common
1071
      256
  0
ENDTAB
  0
TABLE
  2
VIEW
  5
6
330
0
100
AcDbSymbolTable
 70
     0
  0
ENDTAB
  0
TABLE
  2
UCS
  5
7
330
0
100
AcDbSymbolTable
 70
     0
  0
ENDTAB
  0
TABLE
  2
APPID
  5
9
330
0
100
AcDbSymbolTable
 70
     3
  0
APPID
  5
5E
330
9
100
AcDbSymbolTableRecord
100
AcDbRegAppTableRecord
  2
ACAD
 70
     0
  0
APPID
  5
66
330
9
100
AcDbSymbolTableRecord
100
AcDbRegAppTableRecord
  2
AcadAnnotative
 70
     0
  0
APPID
  5
70
330
9
100
AcDbSymbolTableRecord
100
AcDbRegAppTableRecord
  2
ACAD_MLEADERVER
 70
     0
  0
ENDTAB
  0
TABLE
  2
DIMSTYLE
  5
A
330
0
100
AcDbSymbolTable
 70
    15
100
AcDbDimStyleTable
 71
     0
  0
DIMSTYLE
105
60
330
A
100
AcDbSymbolTableRecord
100
AcDbDimStyleTableRecord
  2
Standard
 70
     0
340
5D
  0
DIMSTYLE
105
61
330
A
100
AcDbSymbolTableRecord
100
AcDbDimStyleTableRecord
  2
Annotative
 70
     0
340
5D
1001
AcadAnnotative
1000
AnnotativeData
1002
{
1070
     1
1070
     1
1002
}
  0
DIMSTYLE
105
DD
330
A
100
AcDbSymbolTableRecord
100
AcDbDimStyleTableRecord
  2
Default - Method 1b (ISO)
 70
     0
 41
2.5
 42
0.0
 43
5.999999999999999
 44
3.174999999999999
 45
0.00000001
 46
10.0
 73
     0
 77
     1
 78
     8
 79
     2
140
3.5
143
0.03937
147
0.762
171
     3
172
     1
176
   256
177
   256
178
   256
179
     2
271
     2
272
     2
274
     3
278
    44
284
     8
286
     8
340
DA
371
    -1
372
    -1
  0
DIMSTYLE
105
DE
330
A
100
AcDbSymbolTableRecord
100
AcDbDimStyleTableRecord
  2
Default - Method 1b (ISO)$7
 70
     0
 41
2.5
 42
0.0
 43
5.999999999999999
 44
3.174999999999999
 45
0.00000001
 46
10.0
 73
     0
 77
     1
 78
     8
 79
     2
140
3.5
143
0.03937
147
0.762
171
     3
172
     1
176
   256
177
   256
178
   256
179
     2
271
     2
272
     2
274
     3
278
    44
284
     8
286
     8
340
DA
371
    -1
372
    -1
  0
DIMSTYLE
105
DF
330
A
100
AcDbSymbolTableRecord
100
AcDbDimStyleTableRecord
  2
Default - Method 2a (ISO)
 70
     0
 41
2.5
 42
0.0
 43
5.999999999999999
 44
3.174999999999999
 45
0.00000001
 46
10.0
 77
     1
 78
     8
 79
     2
140
3.5
143
0.03937
147
0.762
171
     3
172
     1
176
   256
177
   256
178
   256
179
     2
271
     2
272
     2
274
     3
278
    44
284
     8
286
     8
340
DA
371
    -1
372
    -1
  0
DIMSTYLE
105
E0
330
A
100
AcDbSymbolTableRecord
100
AcDbDimStyleTableRecord
  2
Default - Method 2a (ISO)$7
 70
     0
 41
2.5
 42
0.0
 43
5.999999999999999
 44
3.174999999999999
 45
0.00000001
 46
10.0
 77
     1
 78
     8
 79
     2
140
3.5
143
0.03937
147
0.762
171
     3
172
     1
176
   256
177
   256
178
   256
179
     2
271
     2
272
     2
274
     3
278
    44
284
     8
286
     8
340
DA
371
    -1
372
    -1
  0
DIMSTYLE
105
E1
330
A
100
AcDbSymbolTableRecord
100
AcDbDimStyleTableRecord
  2
Default - Method 2b (ISO)
 70
     0
 41
2.5
 42
0.0
 43
5.999999999999999
 44
3.174999999999999
 45
0.00000001
 46
10.0
 77
     1
 78
     8
 79
     2
140
3.5
143
0.03937
147
0.762
171
     3
172
     1
176
   256
177
   256
178
   256
179
     2
271
     2
272
     2
274
     3
278
    44
284
     8
286
     8
340
DA
371
    -1
372
    -1
  0
DIMSTYLE
105
E2
330
A
100
AcDbSymbolTableRecord
100
AcDbDimStyleTableRecord
  2
Default - Method 2b (ISO)$7
 70
     0
 41
2.5
 42
0.0
 43
5.999999999999999
 44
3.174999999999999
 45
0.00000001
 46
10.0
 77
     1
 78
     8
 79
     2
140
3.5
143
0.03937
147
0.762
171
     3
172
     1
176
   256
177
   256
178
   256
179
     2
271
     2
272
     2
274
     3
278
    44
284
     8
286
     8
340
DA
371
    -1
372
    -1
  0
DIMSTYLE
105
E3
330
A
100
AcDbSymbolTableRecord
100
AcDbDimStyleTableRecord
  2
Default - mm [in] (ISO)
 70
     0
  4
 in
 41
2.5
 42
0.0
 43
5.999999999999999
 44
3.174999999999999
 45
0.00000001
 46
10.0
 73
     0
 74
     0
 77
     1
 78
     8
 79
     2
140
3.5
143
0.03937
147
0.762
170
     1
171
     3
172
     1
176
   256
177
   256
178
   256
179
     3
271
     3
272
     2
274
     3
275
     1
278
    44
284
     8
285
     8
286
     8
340
DA
371
    -1
372
    -1
  0
DIMSTYLE
105
E4
330
A
100
AcDbSymbolTableRecord
100
AcDbDimStyleTableRecord
  2
Default - mm [in] (ISO)$7
 70
     0
  4
 in
 41
2.5
 42
0.0
 43
5.999999999999999
 44
3.174999999999999
 45
0.00000001
 46
10.0
 73
     0
 74
     0
 77
     1
 78
     8
 79
     2
140
3.5
143
0.03937
147
0.762
170
     1
171
     3
172
     1
176
   256
177
   256
178
   256
179
     3
271
     3
272
     2
274
     3
275
     1
278
    44
284
     8
285
     8
286
     8
340
DA
371
    -1
372
    -1
  0
DIMSTYLE
105
E5
330
A
100
AcDbSymbolTableRecord
100
AcDbDimStyleTableRecord
  2
Default (ISO)
 70
     0
 41
2.5
 42
0.0
 43
5.999999999999999
 44
3.174999999999999
 45
0.00000001
 46
10.0
 73
     0
 74
     0
 77
     1
140
3.5
143
0.03937
146
1.001485756465366
147
0.762
171
     3
172
     1
176
   256
177
   256
178
   256
179
     2
271
     2
272
     2
274
     3
278
    44
340
DA
371
    -1
372
    -1
  0
DIMSTYLE
105
E6
330
A
100
AcDbSymbolTableRecord
100
AcDbDimStyleTableRecord
  2
Default (ISO)$7
 70
     0
 41
2.5
 42
0.0
 43
5.999999999999999
 44
3.174999999999999
 45
0.00000001
 46
10.0
 73
     0
 74
     0
 77
     1
140
3.5
143
0.03937
146
1.001485756465366
147
0.762
171
     3
172
     1
176
   256
177
   256
178
   256
179
     2
271
     2
272
     2
274
     3
278
    44
340
DA
371
    -1
372
    -1
  0
DIMSTYLE
105
E7
330
A
100
AcDbSymbolTableRecord
100
AcDbDimStyleTableRecord
  2
Alternate (ISO)
 70
     0
 41
2.5
340
5D
342
E8
  0
DIMSTYLE
105
F9
330
A
100
AcDbSymbolTableRecord
100
AcDbDimStyleTableRecord
  2
Datum (ISO)
 70
     0
 41
2.5
340
5D
342
E8
  0
DIMSTYLE
105
108
330
A
100
AcDbSymbolTableRecord
100
AcDbDimStyleTableRecord
  2
Large (ISO)
 70
     0
 41
5.0
340
5D
342
E8
  0
ENDTAB
  0
TABLE
  2
BLOCK_RECORD
  5
1
330
0
100
AcDbSymbolTable
 70
     4
  0
BLOCK_RECORD
  5
75
330
1
100
AcDbSymbolTableRecord
100
AcDbBlockTableRecord
  2
*Model_Space
340
78
  0
BLOCK_RECORD
  5
71
330
1
100
AcDbSymbolTableRecord
100
AcDbBlockTableRecord
  2
*Paper_Space
340
74
  0
BLOCK_RECORD
  5
79
330
1
100
AcDbSymbolTableRecord
100
AcDbBlockTableRecord
  2
*Paper_Space0
340
7C
  0
BLOCK_RECORD
  5
E8
330
1
100
AcDbSymbolTableRecord
100
AcDbBlockTableRecord
  2
_Closed
340
0
  0
BLOCK_RECORD
  5
EF
330
1
100
AcDbSymbolTableRecord
100
AcDbBlockTableRecord
  2
DatumFilled45
340
0
  0
BLOCK_RECORD
  5
FA
330
1
100
AcDbSymbolTableRecord
100
AcDbBlockTableRecord
  2
Filled-1
340
0
  0
ENDTAB
  0
ENDSEC
  0
SECTION
  2
BLOCKS
  0
BLOCK
  5
76
330
75
100
AcDbEntity
  8
0
100
AcDbBlockBegin
  2
*Model_Space
 70
     0
 10
0.0
 20
0.0
 30
0.0
  3
*Model_Space
  1

  0
ENDBLK
  5
77
330
75
100
AcDbEntity
  8
0
100
AcDbBlockEnd
  0
BLOCK
  5
72
330
71
100
AcDbEntity
 67
     1
  8
0
100
AcDbBlockBegin
  2
*Paper_Space
 70
     0
 10
0.0
 20
0.0
 30
0.0
  3
*Paper_Space
  1

  0
ENDBLK
  5
73
330
71
100
AcDbEntity
 67
     1
  8
0
100
AcDbBlockEnd
  0
BLOCK
  5
7A
330
79
100
AcDbEntity
 67
     1
  8
0
100
AcDbBlockBegin
  2
*Paper_Space0
 70
     0
 10
0.0
 20
0.0
 30
0.0
  3
*Paper_Space0
  1

  0
ENDBLK
  5
7B
330
79
100
AcDbEntity
 67
     1
  8
0
100
AcDbBlockEnd
  0
BLOCK
  5
ED
330
E8
100
AcDbEntity
  8
0
100
AcDbBlockBegin
  2
_Closed
 70
     0
 10
0.0
 20
0.0
 30
0.0
  3
_Closed
  1

  0
LINE
  5
E9
330
E8
100
AcDbEntity
  8
0
  6
ByBlock
 62
     0
370
    -2
100
AcDbLine
 10
-1.0
 20
0.1666666666666666
 30
0.0
 11
0.0
 21
0.0
 31
0.0
  0
LINE
  5
EA
330
E8
100
AcDbEntity
  8
0
  6
ByBlock
 62
     0
370
    -2
100
AcDbLine
 10
0.0
 20
0.0
 30
0.0
 11
-1.0
 21
-0.1666666666666666
 31
0.0
  0
LINE
  5
EB
330
E8
100
AcDbEntity
  8
0
  6
ByBlock
 62
     0
370
    -2
100
AcDbLine
 10
-1.0
 20
0.1666666666666666
 30
0.0
 11
-1.0
 21
-0.1666666666666666
 31
0.0
  0
LINE
  5
EC
330
E8
100
AcDbEntity
  8
0
  6
ByBlock
 62
     0
370
    -2
100
AcDbLine
 10
0.0
 20
0.0
 30
0.0
 11
-1.0
 21
0.0
 31
0.0
  0
ENDBLK
  5
EE
330
E8
100
AcDbEntity
  8
0
100
AcDbBlockEnd
  0
BLOCK
  5
F0
330
EF
100
AcDbEntity
  8
0
100
AcDbBlockBegin
  2
DatumFilled45
 70
     0
 10
0.0
 20
0.0
 30
0.0
  3
DatumFilled45
  1

  0
POLYLINE
  5
F2
330
EF
100
AcDbEntity
  8
0
 62
     0
100
AcDb2dPolyline
 66
     1
 10
0.0
 20
0.0
 30
0.0
 70
   128
  0
VERTEX
  5
F3
330
F2
100
AcDbEntity
  8
0
 62
     0
100
AcDbVertex
100
AcDb2dVertex
 10
0.0
 20
1.0
 30
0.0
  0
VERTEX
  5
F4
330
F2
100
AcDbEntity
  8
0
 62
     0
100
AcDbVertex
100
AcDb2dVertex
 10
0.0
 20
-1.0
 30
0.0
  0
VERTEX
  5
F6
330
F2
100
AcDbEntity
  8
0
 62
     0
100
AcDbVertex
100
AcDb2dVertex
 10
-1.0
 20
0.0
 30
0.0
  0
VERTEX
  5
F7
330
F2
100
AcDbEntity
  8
0
 62
     0
100
AcDbVertex
100
AcDb2dVertex
 10
0.0
 20
1.0
 30
0.0
  0
SEQEND
  5
F5
330
F2
100
AcDbEntity
  8
0
 62
     0
  0
SOLID
  5
F8
330
EF
100
AcDbEntity
  8
0
 62
     0
100
AcDbTrace
 10
0.0
 20
1.0
 30
0.0
 11
0.0
 21
-1.0
 31
0.0
 12
-1.0
 22
0.0
 32
0.0
 13
0.0
 23
1.0
 33
0.0
  0
ENDBLK
  5
F1
330
EF
100
AcDbEntity
  8
0
100
AcDbBlockEnd
  0
BLOCK
  5
FB
330
FA
100
AcDbEntity
  8
0
100
AcDbBlockBegin
  2
Filled-1
 70
     0
 10
0.0
 20
0.0
 30
0.0
  3
Filled-1
  1

  0
LINE
  5
FD
330
FA
100
AcDbEntity
  8
0
 62
     0
100
AcDbLine
 10
-1.0
 20
0.0
 30
0.0
 11
0.0
 21
0.0
 31
0.0
  0
POLYLINE
  5
FE
330
FA
100
AcDbEntity
  8
0
 62
     0
100
AcDb2dPolyline
 66
     1
 10
0.0
 20
0.0
 30
0.0
 70
   128
  0
VERTEX
  5
FF
330
FE
100
AcDbEntity
  8
0
 62
     0
100
AcDbVertex
100
AcDb2dVertex
 10
-1.0
 20
-0.1
 30
0.0
  0
VERTEX
  5
100
330
FE
100
AcDbEntity
  8
0
 62
     0
100
AcDbVertex
100
AcDb2dVertex
 10
0.0
 20
0.0
 30
0.0
  0
VERTEX
  5
102
330
FE
100
AcDbEntity
  8
0
 62
     0
100
AcDbVertex
100
AcDb2dVertex
 10
-1.0
 20
0.1
 30
0.0
  0
VERTEX
  5
103
330
FE
100
AcDbEntity
  8
0
 62
     0
100
AcDbVertex
100
AcDb2dVertex
 10
-1.0
 20
-0.1
 30
0.0
  0
SEQEND
  5
101
330
FE
100
AcDbEntity
  8
0
 62
     0
  0
SOLID
  5
104
330
FA
100
AcDbEntity
  8
0
 62
     0
100
AcDbTrace
 10
-1.0
 20
-0.1
 30
0.0
 11
0.0
 21
0.0
 31
0.0
 12
-1.0
 22
0.1
 32
0.0
 13
-1.0
 23
-0.1
 33
0.0
  0
LINE
  5
105
330
FA
100
AcDbEntity
  8
0
 62
     0
100
AcDbLine
 10
-1.0
 20
-0.1
 30
0.0
 11
0.0
 21
0.0
 31
0.0
  0
LINE
  5
106
330
FA
100
AcDbEntity
  8
0
 62
     0
100
AcDbLine
 10
0.0
 20
0.0
 30
0.0
 11
-1.0
 21
0.1
 31
0.0
  0
LINE
  5
107
330
FA
100
AcDbEntity
  8
0
 62
     0
100
AcDbLine
 10
-1.0
 20
0.1
 30
0.0
 11
-1.0
 21
-0.1
 31
0.0
  0
ENDBLK
  5
FC
330
FA
100
AcDbEntity
  8
0
100
AcDbBlockEnd
  0
ENDSEC
  0
SECTION
  2
ENTITIES
  0
LINE
  5
109
330
75
100
AcDbEntity
  8
Hidden (ISO)
100
AcDbLine
 10
284.1250839485147
 20
193.2307852735574
 30
0.0
 11
284.1250839485147
 21
189.9307852735574
 31
0.0
  0
LINE
  5
10A
330
75
100
AcDbEntity
  8
Hidden (ISO)
100
AcDbLine
 10
284.1250839485147
 20
241.8307852735574
 30
0.0
 11
284.1250839485147
 21
238.5307852735574
 31
0.0
  0
LINE
  5
10B
330
75
100
AcDbEntity
  8
Hidden (ISO)
100
AcDbLine
 10
282.3865674678013
 20
193.2307852735574
 30
0.0
 11
284.1250839485147
 21
193.2307852735574
 31
0.0
  0
LINE
  5
10C
330
75
100
AcDbEntity
  8
Hidden (ISO)
100
AcDbLine
 10
282.3865674678012
 20
189.9307852735573
 30
0.0
 11
284.1250839485147
 21
189.9307852735573
 31
0.0
  0
LINE
  5
10D
330
75
100
AcDbEntity
  8
Hidden (ISO)
100
AcDbLine
 10
282.3865674678013
 20
241.8307852735574
 30
0.0
 11
284.1250839485147
 21
241.8307852735574
 31
0.0
  0
LINE
  5
10E
330
75
100
AcDbEntity
  8
Hidden (ISO)
100
AcDbLine
 10
282.3865674678012
 20
238.5307852735574
 30
0.0
 11
284.1250839485147
 21
238.5307852735574
 31
0.0
  0
LINE
  5
10F
330
75
100
AcDbEntity
  8
Visible (ISO)
100
AcDbLine
 10
282.3865674678013
 20
193.8307852735574
 30
0.0
 11
282.3865674678013
 21
189.3307852735573
 31
0.0
  0
LINE
  5
110
330
75
100
AcDbEntity
  8
Visible (ISO)
100
AcDbLine
 10
282.3865674678013
 20
237.9307852735574
 30
0.0
 11
282.3865674678013
 21
242.4307852735574
 31
0.0
  0
LINE
  5
111
330
75
100
AcDbEntity
  8
Visible (ISO)
100
AcDbLine
 10
328.0865674678012
 20
277.7807852735574
 30
0.0
 11
301.0865674678012
 21
277.7807852735574
 31
0.0
  0
LINE
  5
112
330
75
100
AcDbEntity
  8
Visible (ISO)
100
AcDbLine
 10
328.0865674678012
 20
153.7807852735574
 30
0.0
 11
328.0865674678012
 21
145.2807852735574
 31
0.0
  0
LINE
  5
113
330
75
100
AcDbEntity
  8
Visible (ISO)
100
AcDbLine
 10
328.0865674678012
 20
145.2807852735574
 30
0.0
 11
330.0865674678012
 21
143.2807852735574
 31
0.0
  0
LINE
  5
114
330
75
100
AcDbEntity
  8
Visible (ISO)
100
AcDbLine
 10
330.0865674678012
 20
143.2807852735574
 30
0.0
 11
342.0865674678012
 21
143.2807852735574
 31
0.0
  0
LINE
  5
115
330
75
100
AcDbEntity
  8
Visible (ISO)
100
AcDbLine
 10
342.0865674678012
 20
143.2807852735574
 30
0.0
 11
344.0865674678012
 21
145.2807852735574
 31
0.0
  0
LINE
  5
116
330
75
100
AcDbEntity
  8
Visible (ISO)
100
AcDbLine
 10
344.0865674678012
 20
145.2807852735574
 30
0.0
 11
344.0865674678012
 21
286.2807852735573
 31
0.0
  0
LINE
  5
117
330
75
100
AcDbEntity
  8
Visible (ISO)
100
AcDbLine
 10
344.0865674678012
 20
286.2807852735573
 30
0.0
 11
342.0865674678012
 21
288.2807852735574
 31
0.0
  0
LINE
  5
118
330
75
100
AcDbEntity
  8
Visible (ISO)
100
AcDbLine
 10
342.0865674678012
 20
288.2807852735574
 30
0.0
 11
330.0865674678012
 21
288.2807852735574
 31
0.0
  0
LINE
  5
119
330
75
100
AcDbEntity
  8
Visible (ISO)
100
AcDbLine
 10
330.0865674678012
 20
288.2807852735574
 30
0.0
 11
328.0865674678012
 21
286.2807852735574
 31
0.0
  0
LINE
  5
11A
330
75
100
AcDbEntity
  8
Visible (ISO)
100
AcDbLine
 10
328.0865674678012
 20
286.2807852735574
 30
0.0
 11
328.0865674678012
 21
277.7807852735574
 31
0.0
  0
LINE
  5
11B
330
75
100
AcDbEntity
  8
Visible (ISO)
100
AcDbLine
 10
301.0865674678012
 20
277.7807852735574
 30
0.0
 11
301.0865674678012
 21
286.2807852735574
 31
0.0
  0
LINE
  5
11C
330
75
100
AcDbEntity
  8
Visible (ISO)
100
AcDbLine
 10
301.0865674678012
 20
286.2807852735574
 30
0.0
 11
299.0865674678012
 21
288.2807852735574
 31
0.0
  0
LINE
  5
11D
330
75
100
AcDbEntity
  8
Visible (ISO)
100
AcDbLine
 10
299.0865674678012
 20
288.2807852735574
 30
0.0
 11
287.0865674678011
 21
288.2807852735574
 31
0.0
  0
LINE
  5
11E
330
75
100
AcDbEntity
  8
Visible (ISO)
100
AcDbLine
 10
287.0865674678011
 20
288.2807852735574
 30
0.0
 11
285.0865674678011
 21
286.2807852735574
 31
0.0
  0
LINE
  5
11F
330
75
100
AcDbEntity
  8
Visible (ISO)
100
AcDbLine
 10
285.0865674678011
 20
286.2807852735574
 30
0.0
 11
285.0865674678011
 21
273.2807852735574
 31
0.0
  0
LINE
  5
120
330
75
100
AcDbEntity
  8
Visible (ISO)
100
AcDbLine
 10
285.0865674678011
 20
273.2807852735574
 30
0.0
 11
281.5865674678012
 21
273.2807852735574
 31
0.0
  0
LINE
  5
121
330
75
100
AcDbEntity
  8
Visible (ISO)
100
AcDbLine
 10
281.5865674678012
 20
158.2807852735573
 30
0.0
 11
285.0865674678011
 21
158.2807852735573
 31
0.0
  0
LINE
  5
122
330
75
100
AcDbEntity
  8
Visible (ISO)
100
AcDbLine
 10
285.0865674678011
 20
158.2807852735573
 30
0.0
 11
285.0865674678011
 21
145.2807852735573
 31
0.0
  0
LINE
  5
123
330
75
100
AcDbEntity
  8
Visible (ISO)
100
AcDbLine
 10
285.0865674678011
 20
145.2807852735573
 30
0.0
 11
287.0865674678011
 21
143.2807852735574
 31
0.0
  0
LINE
  5
124
330
75
100
AcDbEntity
  8
Visible (ISO)
100
AcDbLine
 10
287.0865674678011
 20
143.2807852735574
 30
0.0
 11
299.0865674678012
 21
143.2807852735574
 31
0.0
  0
LINE
  5
125
330
75
100
AcDbEntity
  8
Visible (ISO)
100
AcDbLine
 10
299.0865674678012
 20
143.2807852735574
 30
0.0
 11
301.0865674678012
 21
145.2807852735574
 31
0.0
  0
LINE
  5
126
330
75
100
AcDbEntity
  8
Visible (ISO)
100
AcDbLine
 10
301.0865674678012
 20
145.2807852735574
 30
0.0
 11
301.0865674678012
 21
153.7807852735574
 31
0.0
  0
LINE
  5
127
330
75
100
AcDbEntity
  8
Visible (ISO)
100
AcDbLine
 10
301.0865674678012
 20
153.7807852735574
 30
0.0
 11
328.0865674678012
 21
153.7807852735574
 31
0.0
  0
CIRCLE
  5
128
330
75
100
AcDbEntity
  8
Visible (ISO)
100
AcDbCircle
 10
293.0865674678011
 20
148.4807852735574
 30
0.0
 40
2.600000000000004
  0
CIRCLE
  5
129
330
75
100
AcDbEntity
  8
Visible (ISO)
100
AcDbCircle
 10
293.0865674678012
 20
283.2807852735574
 30
0.0
 40
2.600000000000004
  0
CIRCLE
  5
12A
330
75
100
AcDbEntity
  8
Visible (ISO)
100
AcDbCircle
 10
336.0865674678012
 20
283.2807852735574
 30
0.0
 40
2.600000000000004
  0
CIRCLE
  5
12B
330
75
100
AcDbEntity
  8
Visible (ISO)
100
AcDbCircle
 10
336.0865674678012
 20
148.2807852735574
 30
0.0
 40
2.600000000000004
  0
LINE
  5
12C
330
75
100
AcDbEntity
  8
Visible (ISO)
100
AcDbLine
 10
292.0865674678012
 20
196.4107852735574
 30
0.0
 11
292.0865674678012
 21
198.2107852735573
 31
0.0
  0
LINE
  5
12D
330
75
100
AcDbEntity
  8
Visible (ISO)
100
AcDbLine
 10
292.0865674678012
 20
198.2107852735573
 30
0.0
 11
300.0865674678012
 21
198.2107852735573
 31
0.0
  0
LINE
  5
12E
330
75
100
AcDbEntity
  8
Visible (ISO)
100
AcDbLine
 10
300.0865674678012
 20
198.2107852735573
 30
0.0
 11
300.0865674678012
 21
196.4107852735574
 31
0.0
  0
LINE
  5
12F
330
75
100
AcDbEntity
  8
Visible (ISO)
100
AcDbLine
 10
300.0865674678012
 20
196.4107852735574
 30
0.0
 11
292.0865674678012
 21
196.4107852735574
 31
0.0
  0
LINE
  5
130
330
75
100
AcDbEntity
  8
Visible (ISO)
100
AcDbLine
 10
332.0865674678012
 20
196.4107852735574
 30
0.0
 11
332.0865674678012
 21
198.2107852735573
 31
0.0
  0
LINE
  5
131
330
75
100
AcDbEntity
  8
Visible (ISO)
100
AcDbLine
 10
332.0865674678012
 20
198.2107852735573
 30
0.0
 11
340.0865674678012
 21
198.2107852735573
 31
0.0
  0
LINE
  5
132
330
75
100
AcDbEntity
  8
Visible (ISO)
100
AcDbLine
 10
340.0865674678012
 20
198.2107852735573
 30
0.0
 11
340.0865674678012
 21
196.4107852735574
 31
0.0
  0
LINE
  5
133
330
75
100
AcDbEntity
  8
Visible (ISO)
100
AcDbLine
 10
340.0865674678012
 20
196.4107852735574
 30
0.0
 11
332.0865674678012
 21
196.4107852735574
 31
0.0
  0
CIRCLE
  5
134
330
75
100
AcDbEntity
  8
Visible (ISO)
100
AcDbCircle
 10
296.0865674678012
 20
240.1807852735574
 30
0.0
 40
1.349999999999997
  0
CIRCLE
  5
135
330
75
100
AcDbEntity
  8
Visible (ISO)
100
AcDbCircle
 10
296.0865674678012
 20
191.5807852735573
 30
0.0
 40
1.35
  0
CIRCLE
  5
136
330
75
100
AcDbEntity
  8
Visible (ISO)
100
AcDbCircle
 10
336.0865674678012
 20
240.1807852735574
 30
0.0
 40
1.349999999999997
  0
CIRCLE
  5
137
330
75
100
AcDbEntity
  8
Visible (ISO)
100
AcDbCircle
 10
336.0865674678012
 20
191.5807852735573
 30
0.0
 40
1.35
  0
CIRCLE
  5
138
330
75
100
AcDbEntity
  8
Visible (ISO)
100
AcDbCircle
 10
314.0865674678012
 20
211.1807852735574
 30
0.0
 40
2.25
  0
LINE
  5
139
330
75
100
AcDbEntity
  8
Visible (ISO)
100
AcDbLine
 10
311.8865674678012
 20
180.9807852735574
 30
0.0
 11
316.2865674678012
 21
180.9807852735574
 31
0.0
  0
LINE
  5
13A
330
75
100
AcDbEntity
  8
Visible (ISO)
100
AcDbLine
 10
311.8865674678012
 20
185.3807852735574
 30
0.0
 11
311.8865674678012
 21
180.9807852735574
 31
0.0
  0
LINE
  5
13B
330
75
100
AcDbEntity
  8
Visible (ISO)
100
AcDbLine
 10
316.2865674678012
 20
185.3807852735574
 30
0.0
 11
311.8865674678012
 21
185.3807852735574
 31
0.0
  0
LINE
  5
13C
330
75
100
AcDbEntity
  8
Visible (ISO)
100
AcDbLine
 10
316.2865674678012
 20
180.9807852735574
 30
0.0
 11
316.2865674678012
 21
185.3807852735574
 31
0.0
  0
LINE
  5
13D
330
75
100
AcDbEntity
  8
Visible (ISO)
100
AcDbLine
 10
309.8865674678012
 20
201.5807852735574
 30
0.0
 11
309.8865674678012
 21
196.1807852735574
 31
0.0
  0
LINE
  5
13E
330
75
100
AcDbEntity
  8
Visible (ISO)
100
AcDbLine
 10
318.2865674678012
 20
201.5807852735574
 30
0.0
 11
309.8865674678012
 21
201.5807852735574
 31
0.0
  0
LINE
  5
13F
330
75
100
AcDbEntity
  8
Visible (ISO)
100
AcDbLine
 10
318.2865674678012
 20
196.1807852735574
 30
0.0
 11
318.2865674678012
 21
201.5807852735574
 31
0.0
  0
LINE
  5
140
330
75
100
AcDbEntity
  8
Visible (ISO)
100
AcDbLine
 10
316.2865674678012
 20
194.1807852735573
 30
0.0
 11
318.2865674678012
 21
196.1807852735574
 31
0.0
  0
LINE
  5
141
330
75
100
AcDbEntity
  8
Visible (ISO)
100
AcDbLine
 10
316.2865674678012
 20
187.3807852735574
 30
0.0
 11
316.2865674678012
 21
194.1807852735573
 31
0.0
  0
LINE
  5
142
330
75
100
AcDbEntity
  8
Visible (ISO)
100
AcDbLine
 10
311.8865674678012
 20
187.3807852735574
 30
0.0
 11
316.2865674678012
 21
187.3807852735574
 31
0.0
  0
LINE
  5
143
330
75
100
AcDbEntity
  8
Visible (ISO)
100
AcDbLine
 10
311.8865674678012
 20
194.1807852735573
 30
0.0
 11
311.8865674678012
 21
187.3807852735574
 31
0.0
  0
LINE
  5
144
330
75
100
AcDbEntity
  8
Visible (ISO)
100
AcDbLine
 10
309.8865674678012
 20
196.1807852735574
 30
0.0
 11
311.8865674678012
 21
194.1807852735573
 31
0.0
  0
LINE
  5
145
330
75
100
AcDbEntity
  8
Visible (ISO)
100
AcDbLine
 10
309.8865674678012
 20
268.5807852735574
 30
0.0
 11
309.8865674678012
 21
263.1807852735574
 31
0.0
  0
LINE
  5
146
330
75
100
AcDbEntity
  8
Visible (ISO)
100
AcDbLine
 10
318.2865674678012
 20
268.5807852735574
 30
0.0
 11
309.8865674678012
 21
268.5807852735574
 31
0.0
  0
LINE
  5
147
330
75
100
AcDbEntity
  8
Visible (ISO)
100
AcDbLine
 10
318.2865674678012
 20
263.1807852735574
 30
0.0
 11
318.2865674678012
 21
268.5807852735574
 31
0.0
  0
LINE
  5
148
330
75
100
AcDbEntity
  8
Visible (ISO)
100
AcDbLine
 10
316.2865674678012
 20
261.1807852735574
 30
0.0
 11
318.2865674678012
 21
263.1807852735574
 31
0.0
  0
LINE
  5
149
330
75
100
AcDbEntity
  8
Visible (ISO)
100
AcDbLine
 10
316.2865674678012
 20
254.3807852735574
 30
0.0
 11
316.2865674678012
 21
261.1807852735574
 31
0.0
  0
LINE
  5
14A
330
75
100
AcDbEntity
  8
Visible (ISO)
100
AcDbLine
 10
311.8865674678013
 20
254.3807852735574
 30
0.0
 11
316.2865674678012
 21
254.3807852735574
 31
0.0
  0
LINE
  5
14B
330
75
100
AcDbEntity
  8
Visible (ISO)
100
AcDbLine
 10
311.8865674678013
 20
261.1807852735574
 30
0.0
 11
311.8865674678013
 21
254.3807852735574
 31
0.0
  0
LINE
  5
14C
330
75
100
AcDbEntity
  8
Visible (ISO)
100
AcDbLine
 10
309.8865674678012
 20
263.1807852735574
 30
0.0
 11
311.8865674678013
 21
261.1807852735574
 31
0.0
  0
LINE
  5
14D
330
75
100
AcDbEntity
  8
Visible (ISO)
100
AcDbLine
 10
281.5865674678012
 20
158.2807852735573
 30
0.0
 11
280.5865674678012
 21
158.2807852735573
 31
0.0
  0
LINE
  5
14E
330
75
100
AcDbEntity
  8
Visible (ISO)
100
AcDbLine
 10
281.5865674678012
 20
273.2807852735574
 30
0.0
 11
280.5865674678012
 21
273.2807852735574
 31
0.0
  0
LINE
  5
14F
330
75
100
AcDbEntity
  8
Visible (ISO)
100
AcDbLine
 10
279.0865674678011
 20
252.1413191794902
 30
0.0
 11
279.0865674678011
 21
179.6202513676246
 31
0.0
  0
LINE
  5
150
330
75
100
AcDbEntity
  8
Visible (ISO)
100
AcDbLine
 10
279.0865674678013
 20
252.1413191794902
 30
0.0
 11
279.086567467801
 21
273.2807852735574
 31
0.0
  0
LINE
  5
151
330
75
100
AcDbEntity
  8
Visible (ISO)
100
AcDbLine
 10
279.086567467801
 20
158.2807852735574
 30
0.0
 11
279.0865674678013
 21
179.6202513676246
 31
0.0
  0
LINE
  5
152
330
75
100
AcDbEntity
  8
Visible (ISO)
100
AcDbLine
 10
280.5865674678011
 20
249.6057852735575
 30
0.0
 11
280.5865674678011
 21
182.1557852735572
 31
0.0
  0
LINE
  5
153
330
75
100
AcDbEntity
  8
Visible (ISO)
100
AcDbLine
 10
280.5865674678011
 20
158.2807852735574
 30
0.0
 11
280.5865674678012
 21
179.6202513676246
 31
0.0
  0
LINE
  5
154
330
75
100
AcDbEntity
  8
Visible (ISO)
100
AcDbLine
 10
280.5865674678012
 20
252.1413191794902
 30
0.0
 11
280.5865674678011
 21
273.2807852735574
 31
0.0
  0
LINE
  5
155
330
75
100
AcDbEntity
  8
Visible (ISO)
100
AcDbLine
 10
280.5865674678011
 20
273.2807852735574
 30
0.0
 11
279.086567467801
 21
273.2807852735574
 31
0.0
  0
LINE
  5
156
330
75
100
AcDbEntity
  8
Visible (ISO)
100
AcDbLine
 10
279.086567467801
 20
158.2807852735574
 30
0.0
 11
280.5865674678011
 21
158.2807852735574
 31
0.0
  0
ARC
  5
157
330
75
100
AcDbEntity
  8
Visible (ISO)
100
AcDbCircle
 10
281.5865674678013
 20
179.6202513676246
 30
0.0
 40
1.000000000000019
100
AcDbArc
 50
134.9999999999986
 51
180.0
  0
LINE
  5
158
330
75
100
AcDbEntity
  8
Visible (ISO)
100
AcDbLine
 10
284.3543344207676
 20
183.802231882964
 30
0.0
 11
280.8794606866147
 21
180.3273581488111
 31
0.0
  0
ARC
  5
159
330
75
100
AcDbEntity
  8
Visible (ISO)
100
AcDbCircle
 10
282.5865674678013
 20
185.5699988359304
 30
0.0
 40
2.499999999999955
100
AcDbArc
 50
315.0
 51
0.0
  0
LINE
  5
15A
330
75
100
AcDbEntity
  8
Visible (ISO)
100
AcDbLine
 10
285.0865674678013
 20
197.1557852735573
 30
0.0
 11
285.0865674678012
 21
185.5699988359304
 31
0.0
  0
LINE
  5
15B
330
75
100
AcDbEntity
  8
Visible (ISO)
100
AcDbLine
 10
283.5865674678012
 20
197.1557852735573
 30
0.0
 11
285.0865674678013
 21
197.1557852735573
 31
0.0
  0
LINE
  5
15C
330
75
100
AcDbEntity
  8
Visible (ISO)
100
AcDbLine
 10
283.5865674678012
 20
185.5699988359304
 30
0.0
 11
283.5865674678012
 21
197.1557852735573
 31
0.0
  0
ARC
  5
15D
330
75
100
AcDbEntity
  8
Visible (ISO)
100
AcDbCircle
 10
282.5865674678012
 20
185.5699988359304
 30
0.0
 40
0.9999999999999978
100
AcDbArc
 50
315.0000000000029
 51
0.0
  0
LINE
  5
15E
330
75
100
AcDbEntity
  8
Visible (ISO)
100
AcDbLine
 10
279.8188005148348
 20
181.388018320591
 30
0.0
 11
283.2936742489878
 21
184.8628920547439
 31
0.0
  0
ARC
  5
15F
330
75
100
AcDbEntity
  8
Visible (ISO)
100
AcDbCircle
 10
281.5865674678013
 20
179.6202513676246
 30
0.0
 40
2.500000000000031
100
AcDbArc
 50
134.9999999999994
 51
180.0
  0
ARC
  5
160
330
75
100
AcDbEntity
  8
Visible (ISO)
100
AcDbCircle
 10
281.5865674678013
 20
252.1413191794902
 30
0.0
 40
2.500000000000044
100
AcDbArc
 50
180.0
 51
225.0000000000006
  0
LINE
  5
161
330
75
100
AcDbEntity
  8
Visible (ISO)
100
AcDbLine
 10
279.8188005148348
 20
250.3735522265238
 30
0.0
 11
283.2936742489878
 21
246.8986784923709
 31
0.0
  0
ARC
  5
162
330
75
100
AcDbEntity
  8
Visible (ISO)
100
AcDbCircle
 10
282.5865674678012
 20
246.1915717111844
 30
0.0
 40
0.9999999999999822
100
AcDbArc
 50
0.0
 51
44.99999999999857
  0
LINE
  5
163
330
75
100
AcDbEntity
  8
Visible (ISO)
100
AcDbLine
 10
283.5865674678012
 20
246.1915717111843
 30
0.0
 11
283.5865674678012
 21
234.6057852735575
 31
0.0
  0
LINE
  5
164
330
75
100
AcDbEntity
  8
Visible (ISO)
100
AcDbLine
 10
283.5865674678012
 20
234.6057852735575
 30
0.0
 11
285.0865674678013
 21
234.6057852735575
 31
0.0
  0
LINE
  5
165
330
75
100
AcDbEntity
  8
Visible (ISO)
100
AcDbLine
 10
285.0865674678013
 20
234.6057852735575
 30
0.0
 11
285.0865674678012
 21
246.1915717111843
 31
0.0
  0
ARC
  5
166
330
75
100
AcDbEntity
  8
Visible (ISO)
100
AcDbCircle
 10
282.5865674678013
 20
246.1915717111844
 30
0.0
 40
2.499999999999928
100
AcDbArc
 50
0.0
 51
45.0
  0
LINE
  5
167
330
75
100
AcDbEntity
  8
Visible (ISO)
100
AcDbLine
 10
284.3543344207676
 20
247.9593386641507
 30
0.0
 11
280.8794606866147
 21
251.4342123983036
 31
0.0
  0
ARC
  5
168
330
75
100
AcDbEntity
  8
Visible (ISO)
100
AcDbCircle
 10
281.5865674678013
 20
252.1413191794902
 30
0.0
 40
1.000000000000032
100
AcDbArc
 50
180.0
 51
225.0000000000015
  0
LINE
  5
169
330
75
100
AcDbEntity
  8
Visible (ISO)
100
AcDbLine
 10
283.5865674678013
 20
189.3307852735573
 30
0.0
 11
282.3865674678013
 21
189.3307852735573
 31
0.0
  0
LINE
  5
16A
330
75
100
AcDbEntity
  8
Visible (ISO)
100
AcDbLine
 10
283.5865674678013
 20
193.8307852735573
 30
0.0
 11
282.3865674678013
 21
193.8307852735573
 31
0.0
  0
LINE
  5
16B
330
75
100
AcDbEntity
  8
Visible (ISO)
100
AcDbLine
 10
283.5865674678013
 20
237.9307852735574
 30
0.0
 11
282.3865674678013
 21
237.9307852735574
 31
0.0
  0
LINE
  5
16C
330
75
100
AcDbEntity
  8
Visible (ISO)
100
AcDbLine
 10
283.5865674678013
 20
242.4307852735574
 30
0.0
 11
282.3865674678013
 21
242.4307852735574
 31
0.0
  0
LINE
  5
16D
330
75
100
AcDbEntity
  8
Hidden (ISO)
100
AcDbLine
 10
280.5865674678011
 20
252.1413191794902
 30
0.0
 11
280.5865674678011
 21
249.6057852735575
 31
0.0
  0
LINE
  5
16E
330
75
100
AcDbEntity
  8
Hidden (ISO)
100
AcDbLine
 10
280.5865674678011
 20
182.1557852735572
 30
0.0
 11
280.5865674678011
 21
179.6202513676246
 31
0.0
  0
LINE
  5
16F
330
75
100
AcDbEntity
  8
Hidden (ISO)
100
AcDbLine
 10
280.5865674678011
 20
202.1557852735574
 30
0.0
 11
279.0865674678012
 21
202.1557852735574
 31
0.0
  0
LINE
  5
170
330
75
100
AcDbEntity
  8
Hidden (ISO)
100
AcDbLine
 10
280.5865674678011
 20
176.6557852735573
 30
0.0
 11
279.086567467801
 21
176.6557852735573
 31
0.0
  0
LINE
  5
171
330
75
100
AcDbEntity
  8
Hidden (ISO)
100
AcDbLine
 10
280.5865674678011
 20
229.6057852735574
 30
0.0
 11
279.0865674678012
 21
229.6057852735574
 31
0.0
  0
LINE
  5
172
330
75
100
AcDbEntity
  8
Hidden (ISO)
100
AcDbLine
 10
280.5865674678011
 20
255.1057852735574
 30
0.0
 11
279.086567467801
 21
255.1057852735574
 31
0.0
  0
ARC
  5
173
330
75
100
AcDbEntity
  8
Hidden (ISO)
100
AcDbCircle
 10
283.5865674678012
 20
194.6307852735573
 30
0.0
 40
1.5
100
AcDbArc
 50
291.039469781318
 51
0.0
  0
ARC
  5
174
330
75
100
AcDbEntity
  8
Hidden (ISO)
100
AcDbCircle
 10
283.5865674678012
 20
188.5307852735573
 30
0.0
 40
1.5
100
AcDbArc
 50
0.0
 51
68.9605302186832
  0
ARC
  5
175
330
75
100
AcDbEntity
  8
Hidden (ISO)
100
AcDbCircle
 10
283.5865674678012
 20
237.1307852735574
 30
0.0
 40
1.5
100
AcDbArc
 50
0.0
 51
68.9605302186832
  0
ARC
  5
176
330
75
100
AcDbEntity
  8
Hidden (ISO)
100
AcDbCircle
 10
283.5865674678012
 20
243.2307852735574
 30
0.0
 40
1.5
100
AcDbArc
 50
291.0394697813168
 51
0.0
  0
CIRCLE
  5
177
330
75
100
AcDbEntity
  8
Visible (ISO)
100
AcDbCircle
 10
405.1816099835215
 20
191.5807852735573
 30
0.0
 40
1.65
  0
CIRCLE
  5
178
330
75
100
AcDbEntity
  8
Visible (ISO)
100
AcDbCircle
 10
427.6816099835214
 20
191.5807852735573
 30
0.0
 40
1.65
  0
CIRCLE
  5
179
330
75
100
AcDbEntity
  8
Visible (ISO)
100
AcDbCircle
 10
427.6816099835214
 20
240.1807852735574
 30
0.0
 40
1.65
  0
CIRCLE
  5
17A
330
75
100
AcDbEntity
  8
Visible (ISO)
100
AcDbCircle
 10
405.1816099835215
 20
240.1807852735574
 30
0.0
 40
1.65
  0
CIRCLE
  5
17B
330
75
100
AcDbEntity
  8
Visible (ISO)
100
AcDbCircle
 10
405.1816099835215
 20
191.5807852735573
 30
0.0
 40
2.249999999999999
  0
CIRCLE
  5
17C
330
75
100
AcDbEntity
  8
Visible (ISO)
100
AcDbCircle
 10
427.6816099835214
 20
191.5807852735573
 30
0.0
 40
2.249999999999999
  0
CIRCLE
  5
17D
330
75
100
AcDbEntity
  8
Visible (ISO)
100
AcDbCircle
 10
405.1816099835215
 20
240.1807852735574
 30
0.0
 40
2.249999999999999
  0
CIRCLE
  5
17E
330
75
100
AcDbEntity
  8
Visible (ISO)
100
AcDbCircle
 10
427.6816099835214
 20
240.1807852735574
 30
0.0
 40
2.249999999999999
  0
LINE
  5
17F
330
75
100
AcDbEntity
  8
Visible (ISO)
100
AcDbLine
 10
394.4316099835229
 20
143.2807852735574
 30
0.0
 11
394.4316099835223
 21
145.2807852735573
 31
0.0
  0
LINE
  5
180
330
75
100
AcDbEntity
  8
Visible (ISO)
100
AcDbLine
 10
394.4316099835223
 20
158.2807852735573
 30
0.0
 11
394.4316099835223
 21
145.2807852735573
 31
0.0
  0
LINE
  5
181
330
75
100
AcDbEntity
  8
Visible (ISO)
100
AcDbLine
 10
394.4316099835213
 20
158.2807852735573
 30
0.0
 11
394.4316099835213
 21
273.2807852735574
 31
0.0
  0
LINE
  5
182
330
75
100
AcDbEntity
  8
Visible (ISO)
100
AcDbLine
 10
394.4316099835223
 20
286.2807852735574
 30
0.0
 11
394.4316099835223
 21
273.2807852735574
 31
0.0
  0
LINE
  5
183
330
75
100
AcDbEntity
  8
Visible (ISO)
100
AcDbLine
 10
394.4316099835223
 20
286.2807852735574
 30
0.0
 11
394.4316099835229
 21
288.2807852735574
 31
0.0
  0
LINE
  5
184
330
75
100
AcDbEntity
  8
Visible (ISO)
100
AcDbLine
 10
395.9316099835229
 20
288.2807852735574
 30
0.0
 11
395.9316099835223
 21
286.2807852735574
 31
0.0
  0
LINE
  5
185
330
75
100
AcDbEntity
  8
Visible (ISO)
100
AcDbLine
 10
395.9316099835223
 20
286.2807852735574
 30
0.0
 11
395.9316099835223
 21
273.2807852735574
 31
0.0
  0
LINE
  5
186
330
75
100
AcDbEntity
  8
Visible (ISO)
100
AcDbLine
 10
395.9316099835223
 20
158.2807852735573
 30
0.0
 11
395.9316099835223
 21
145.2807852735573
 31
0.0
  0
LINE
  5
187
330
75
100
AcDbEntity
  8
Visible (ISO)
100
AcDbLine
 10
395.9316099835223
 20
145.2807852735573
 30
0.0
 11
395.9316099835229
 21
143.2807852735574
 31
0.0
  0
LINE
  5
188
330
75
100
AcDbEntity
  8
Visible (ISO)
100
AcDbLine
 10
394.4316099835229
 20
288.2807852735574
 30
0.0
 11
395.9316099835229
 21
288.2807852735574
 31
0.0
  0
LINE
  5
189
330
75
100
AcDbEntity
  8
Visible (ISO)
100
AcDbLine
 10
395.9316099835223
 20
286.2807852735574
 30
0.0
 11
394.4316099835223
 21
286.2807852735574
 31
0.0
  0
LINE
  5
18A
330
75
100
AcDbEntity
  8
Visible (ISO)
100
AcDbLine
 10
396.9316099835205
 20
158.2807852735573
 30
0.0
 11
394.4316099835213
 21
158.2807852735573
 31
0.0
  0
LINE
  5
18B
330
75
100
AcDbEntity
  8
Visible (ISO)
100
AcDbLine
 10
396.9316099835205
 20
273.2807852735574
 30
0.0
 11
394.4316099835213
 21
273.2807852735574
 31
0.0
  0
LINE
  5
18C
330
75
100
AcDbEntity
  8
Visible (ISO)
100
AcDbLine
 10
395.9316099835229
 20
143.2807852735574
 30
0.0
 11
394.4316099835229
 21
143.2807852735574
 31
0.0
  0
LINE
  5
18D
330
75
100
AcDbEntity
  8
Visible (ISO)
100
AcDbLine
 10
394.4316099835223
 20
145.2807852735573
 30
0.0
 11
395.9316099835223
 21
145.2807852735573
 31
0.0
  0
LINE
  5
18E
330
75
100
AcDbEntity
  8
Visible (ISO)
100
AcDbLine
 10
421.9316099835205
 20
255.1057852735574
 30
0.0
 11
421.9316099835205
 21
176.6557852735573
 31
0.0
  0
LINE
  5
18F
330
75
100
AcDbEntity
  8
Visible (ISO)
100
AcDbLine
 10
423.9316099835205
 20
255.1057852735574
 30
0.0
 11
421.9316099835205
 21
255.1057852735574
 31
0.0
  0
LINE
  5
190
330
75
100
AcDbEntity
  8
Visible (ISO)
100
AcDbLine
 10
423.9316099835205
 20
255.1057852735574
 30
0.0
 11
423.9316099835205
 21
252.1413191794902
 31
0.0
  0
LINE
  5
191
330
75
100
AcDbEntity
  8
Visible (ISO)
100
AcDbLine
 10
431.4316099835204
 20
252.1413191794902
 30
0.0
 11
431.4316099835204
 21
273.2807852735574
 31
0.0
  0
LINE
  5
192
330
75
100
AcDbEntity
  8
Visible (ISO)
100
AcDbLine
 10
431.4316099835204
 20
273.2807852735574
 30
0.0
 11
396.9316099835205
 21
273.2807852735574
 31
0.0
  0
LINE
  5
193
330
75
100
AcDbEntity
  8
Visible (ISO)
100
AcDbLine
 10
431.4316099835204
 20
158.2807852735573
 30
0.0
 11
396.9316099835205
 21
158.2807852735573
 31
0.0
  0
LINE
  5
194
330
75
100
AcDbEntity
  8
Visible (ISO)
100
AcDbLine
 10
431.4316099835204
 20
158.2807852735573
 30
0.0
 11
431.4316099835204
 21
179.6202513676246
 31
0.0
  0
LINE
  5
195
330
75
100
AcDbEntity
  8
Visible (ISO)
100
AcDbLine
 10
423.9316099835205
 20
176.6557852735573
 30
0.0
 11
423.9316099835205
 21
179.6202513676246
 31
0.0
  0
LINE
  5
196
330
75
100
AcDbEntity
  8
Visible (ISO)
100
AcDbLine
 10
421.9316099835205
 20
176.6557852735573
 30
0.0
 11
423.9316099835205
 21
176.6557852735573
 31
0.0
  0
LINE
  5
197
330
75
100
AcDbEntity
  8
Visible (ISO)
100
AcDbLine
 10
399.4316099835205
 20
202.1557852735574
 30
0.0
 11
399.4316099835205
 21
176.6557852735573
 31
0.0
  0
LINE
  5
198
330
75
100
AcDbEntity
  8
Visible (ISO)
100
AcDbLine
 10
410.9316099835204
 20
202.1557852735574
 30
0.0
 11
399.4316099835205
 21
202.1557852735574
 31
0.0
  0
LINE
  5
199
330
75
100
AcDbEntity
  8
Visible (ISO)
100
AcDbLine
 10
410.9316099835204
 20
176.6557852735573
 30
0.0
 11
410.9316099835204
 21
202.1557852735574
 31
0.0
  0
LINE
  5
19A
330
75
100
AcDbEntity
  8
Visible (ISO)
100
AcDbLine
 10
408.9316099835205
 20
176.6557852735573
 30
0.0
 11
410.9316099835204
 21
176.6557852735573
 31
0.0
  0
LINE
  5
19B
330
75
100
AcDbEntity
  8
Visible (ISO)
100
AcDbLine
 10
408.9316099835205
 20
176.6557852735573
 30
0.0
 11
408.9316099835205
 21
179.6202513676246
 31
0.0
  0
LINE
  5
19C
330
75
100
AcDbEntity
  8
Visible (ISO)
100
AcDbLine
 10
401.4316099835204
 20
176.6557852735573
 30
0.0
 11
401.4316099835204
 21
179.6202513676246
 31
0.0
  0
LINE
  5
19D
330
75
100
AcDbEntity
  8
Visible (ISO)
100
AcDbLine
 10
399.4316099835205
 20
176.6557852735573
 30
0.0
 11
401.4316099835204
 21
176.6557852735573
 31
0.0
  0
LINE
  5
19E
330
75
100
AcDbEntity
  8
Visible (ISO)
100
AcDbLine
 10
399.4316099835205
 20
255.1057852735574
 30
0.0
 11
399.4316099835205
 21
229.6057852735574
 31
0.0
  0
LINE
  5
19F
330
75
100
AcDbEntity
  8
Visible (ISO)
100
AcDbLine
 10
401.4316099835204
 20
255.1057852735574
 30
0.0
 11
399.4316099835205
 21
255.1057852735574
 31
0.0
  0
LINE
  5
1A0
330
75
100
AcDbEntity
  8
Visible (ISO)
100
AcDbLine
 10
401.4316099835204
 20
255.1057852735574
 30
0.0
 11
401.4316099835204
 21
252.1413191794902
 31
0.0
  0
LINE
  5
1A1
330
75
100
AcDbEntity
  8
Visible (ISO)
100
AcDbLine
 10
408.9316099835205
 20
255.1057852735574
 30
0.0
 11
408.9316099835205
 21
252.1413191794902
 31
0.0
  0
LINE
  5
1A2
330
75
100
AcDbEntity
  8
Visible (ISO)
100
AcDbLine
 10
410.9316099835204
 20
255.1057852735574
 30
0.0
 11
408.9316099835205
 21
255.1057852735574
 31
0.0
  0
LINE
  5
1A3
330
75
100
AcDbEntity
  8
Visible (ISO)
100
AcDbLine
 10
410.9316099835204
 20
229.6057852735574
 30
0.0
 11
410.9316099835204
 21
255.1057852735574
 31
0.0
  0
LINE
  5
1A4
330
75
100
AcDbEntity
  8
Visible (ISO)
100
AcDbLine
 10
399.4316099835205
 20
229.6057852735574
 30
0.0
 11
410.9316099835204
 21
229.6057852735574
 31
0.0
  0
LINE
  5
1A5
330
75
100
AcDbEntity
  8
Visible (ISO)
100
AcDbLine
 10
431.4316099835219
 20
185.5699988359304
 30
0.0
 11
431.4316099835219
 21
197.1557852735573
 31
0.0
  0
LINE
  5
1A6
330
75
100
AcDbEntity
  8
Visible (ISO)
100
AcDbLine
 10
431.4316099835217
 20
184.8628920547439
 30
0.0
 11
431.4316099835218
 21
185.5699988359304
 31
0.0
  0
LINE
  5
1A7
330
75
100
AcDbEntity
  8
Visible (ISO)
100
AcDbLine
 10
431.4316099835207
 20
181.388018320591
 30
0.0
 11
431.4316099835218
 21
184.8628920547439
 31
0.0
  0
LINE
  5
1A8
330
75
100
AcDbEntity
  8
Visible (ISO)
100
AcDbLine
 10
431.4316099835207
 20
181.388018320591
 30
0.0
 11
431.4316099835204
 21
179.6202513676246
 31
0.0
  0
LINE
  5
1A9
330
75
100
AcDbEntity
  8
Visible (ISO)
100
AcDbLine
 10
408.9316099835218
 20
185.5699988359305
 30
0.0
 11
408.9316099835218
 21
197.1557852735573
 31
0.0
  0
LINE
  5
1AA
330
75
100
AcDbEntity
  8
Visible (ISO)
100
AcDbLine
 10
408.9316099835217
 20
184.8628920547439
 30
0.0
 11
408.9316099835218
 21
185.5699988359304
 31
0.0
  0
LINE
  5
1AB
330
75
100
AcDbEntity
  8
Visible (ISO)
100
AcDbLine
 10
408.9316099835206
 20
181.388018320591
 30
0.0
 11
408.9316099835217
 21
184.8628920547439
 31
0.0
  0
LINE
  5
1AC
330
75
100
AcDbEntity
  8
Visible (ISO)
100
AcDbLine
 10
408.9316099835206
 20
181.388018320591
 30
0.0
 11
408.9316099835205
 21
179.6202513676246
 31
0.0
  0
LINE
  5
1AD
330
75
100
AcDbEntity
  8
Visible (ISO)
100
AcDbLine
 10
423.9316099835207
 20
181.388018320591
 30
0.0
 11
423.9316099835205
 21
179.6202513676246
 31
0.0
  0
LINE
  5
1AE
330
75
100
AcDbEntity
  8
Visible (ISO)
100
AcDbLine
 10
423.9316099835218
 20
246.1915717111843
 30
0.0
 11
423.9316099835218
 21
234.6057852735575
 31
0.0
  0
LINE
  5
1AF
330
75
100
AcDbEntity
  8
Visible (ISO)
100
AcDbLine
 10
423.9316099835217
 20
246.8986784923709
 30
0.0
 11
423.9316099835217
 21
246.1915717111843
 31
0.0
  0
LINE
  5
1B0
330
75
100
AcDbEntity
  8
Visible (ISO)
100
AcDbLine
 10
423.9316099835207
 20
250.3735522265238
 30
0.0
 11
423.9316099835217
 21
246.8986784923709
 31
0.0
  0
LINE
  5
1B1
330
75
100
AcDbEntity
  8
Visible (ISO)
100
AcDbLine
 10
423.9316099835207
 20
250.3735522265238
 30
0.0
 11
423.9316099835205
 21
252.1413191794902
 31
0.0
  0
LINE
  5
1B2
330
75
100
AcDbEntity
  8
Visible (ISO)
100
AcDbLine
 10
401.4316099835218
 20
246.1915717111843
 30
0.0
 11
401.4316099835218
 21
234.6057852735575
 31
0.0
  0
LINE
  5
1B3
330
75
100
AcDbEntity
  8
Visible (ISO)
100
AcDbLine
 10
401.4316099835217
 20
246.8986784923709
 30
0.0
 11
401.4316099835218
 21
246.1915717111843
 31
0.0
  0
LINE
  5
1B4
330
75
100
AcDbEntity
  8
Visible (ISO)
100
AcDbLine
 10
401.4316099835207
 20
250.3735522265238
 30
0.0
 11
401.4316099835217
 21
246.8986784923709
 31
0.0
  0
LINE
  5
1B5
330
75
100
AcDbEntity
  8
Visible (ISO)
100
AcDbLine
 10
401.4316099835207
 20
250.3735522265238
 30
0.0
 11
401.4316099835204
 21
252.1413191794902
 31
0.0
  0
LINE
  5
1B6
330
75
100
AcDbEntity
  8
Visible (ISO)
100
AcDbLine
 10
408.9316099835206
 20
250.3735522265238
 30
0.0
 11
408.9316099835205
 21
252.1413191794902
 31
0.0
  0
LINE
  5
1B7
330
75
100
AcDbEntity
  8
Visible (ISO)
100
AcDbLine
 10
401.4316099835207
 20
181.388018320591
 30
0.0
 11
401.4316099835204
 21
179.6202513676246
 31
0.0
  0
LINE
  5
1B8
330
75
100
AcDbEntity
  8
Visible (ISO)
100
AcDbLine
 10
401.4316099835207
 20
181.388018320591
 30
0.0
 11
401.4316099835218
 21
184.8628920547439
 31
0.0
  0
LINE
  5
1B9
330
75
100
AcDbEntity
  8
Visible (ISO)
100
AcDbLine
 10
401.4316099835217
 20
184.8628920547439
 30
0.0
 11
401.4316099835218
 21
185.5699988359304
 31
0.0
  0
LINE
  5
1BA
330
75
100
AcDbEntity
  8
Visible (ISO)
100
AcDbLine
 10
401.4316099835218
 20
185.5699988359305
 30
0.0
 11
401.4316099835218
 21
197.1557852735573
 31
0.0
  0
LINE
  5
1BB
330
75
100
AcDbEntity
  8
Visible (ISO)
100
AcDbLine
 10
431.4316099835207
 20
250.3735522265238
 30
0.0
 11
431.4316099835204
 21
252.1413191794902
 31
0.0
  0
LINE
  5
1BC
330
75
100
AcDbEntity
  8
Visible (ISO)
100
AcDbLine
 10
423.9316099835207
 20
181.388018320591
 30
0.0
 11
423.9316099835217
 21
184.8628920547439
 31
0.0
  0
LINE
  5
1BD
330
75
100
AcDbEntity
  8
Visible (ISO)
100
AcDbLine
 10
423.9316099835217
 20
184.8628920547439
 30
0.0
 11
423.9316099835218
 21
185.5699988359304
 31
0.0
  0
LINE
  5
1BE
330
75
100
AcDbEntity
  8
Visible (ISO)
100
AcDbLine
 10
423.9316099835218
 20
185.5699988359304
 30
0.0
 11
423.9316099835218
 21
197.1557852735573
 31
0.0
  0
LINE
  5
1BF
330
75
100
AcDbEntity
  8
Visible (ISO)
100
AcDbLine
 10
431.4316099835207
 20
250.3735522265238
 30
0.0
 11
431.4316099835218
 21
246.8986784923709
 31
0.0
  0
LINE
  5
1C0
330
75
100
AcDbEntity
  8
Visible (ISO)
100
AcDbLine
 10
431.4316099835217
 20
246.8986784923709
 30
0.0
 11
431.4316099835218
 21
246.1915717111843
 31
0.0
  0
LINE
  5
1C1
330
75
100
AcDbEntity
  8
Visible (ISO)
100
AcDbLine
 10
431.4316099835219
 20
246.1915717111843
 30
0.0
 11
431.4316099835219
 21
234.6057852735575
 31
0.0
  0
LINE
  5
1C2
330
75
100
AcDbEntity
  8
Visible (ISO)
100
AcDbLine
 10
408.9316099835206
 20
250.3735522265238
 30
0.0
 11
408.9316099835217
 21
246.8986784923709
 31
0.0
  0
LINE
  5
1C3
330
75
100
AcDbEntity
  8
Visible (ISO)
100
AcDbLine
 10
408.9316099835217
 20
246.8986784923709
 30
0.0
 11
408.9316099835218
 21
246.1915717111843
 31
0.0
  0
LINE
  5
1C4
330
75
100
AcDbEntity
  8
Visible (ISO)
100
AcDbLine
 10
408.9316099835218
 20
246.1915717111843
 30
0.0
 11
408.9316099835218
 21
234.6057852735575
 31
0.0
  0
LINE
  5
1C5
330
75
100
AcDbEntity
  8
Visible (ISO)
100
AcDbLine
 10
423.9316099835218
 20
197.1557852735573
 30
0.0
 11
431.4316099835219
 21
197.1557852735573
 31
0.0
  0
LINE
  5
1C6
330
75
100
AcDbEntity
  8
Visible (ISO)
100
AcDbLine
 10
401.4316099835218
 20
197.1557852735573
 30
0.0
 11
408.9316099835218
 21
197.1557852735573
 31
0.0
  0
LINE
  5
1C7
330
75
100
AcDbEntity
  8
Visible (ISO)
100
AcDbLine
 10
423.9316099835218
 20
234.6057852735575
 30
0.0
 11
431.4316099835219
 21
234.6057852735575
 31
0.0
  0
LINE
  5
1C8
330
75
100
AcDbEntity
  8
Visible (ISO)
100
AcDbLine
 10
401.4316099835218
 20
234.6057852735575
 30
0.0
 11
408.9316099835218
 21
234.6057852735575
 31
0.0
  0
LINE
  5
1C9
330
75
100
AcDbEntity
  8
Hidden (ISO)
100
AcDbLine
 10
395.931609983527
 20
277.7807852735574
 30
0.0
 11
394.431609983527
 21
277.7807852735574
 31
0.0
  0
LINE
  5
1CA
330
75
100
AcDbEntity
  8
Hidden (ISO)
100
AcDbLine
 10
395.9316099835212
 20
158.2807852735573
 30
0.0
 11
395.9316099835212
 21
273.2807852735574
 31
0.0
  0
LINE
  5
1CB
330
75
100
AcDbEntity
  8
Hidden (ISO)
100
AcDbLine
 10
395.931609983527
 20
153.7807852735574
 30
0.0
 11
394.431609983527
 21
153.7807852735574
 31
0.0
  0
LINE
  5
1CC
330
75
100
AcDbEntity
  8
Hidden (ISO)
100
AcDbLine
 10
395.9316099835297
 20
263.1807852735574
 30
0.0
 11
394.4316099835297
 21
263.1807852735574
 31
0.0
  0
LINE
  5
1CD
330
75
100
AcDbEntity
  8
Hidden (ISO)
100
AcDbLine
 10
395.9316099835297
 20
268.5807852735574
 30
0.0
 11
394.4316099835297
 21
268.5807852735574
 31
0.0
  0
LINE
  5
1CE
330
75
100
AcDbEntity
  8
Hidden (ISO)
100
AcDbLine
 10
395.9316099835297
 20
201.5807852735574
 30
0.0
 11
394.4316099835297
 21
201.5807852735574
 31
0.0
  0
LINE
  5
1CF
330
75
100
AcDbEntity
  8
Hidden (ISO)
100
AcDbLine
 10
395.9316099835244
 20
196.4107852735574
 30
0.0
 11
394.4316099835244
 21
196.4107852735574
 31
0.0
  0
LINE
  5
1D0
330
75
100
AcDbEntity
  8
Hidden (ISO)
100
AcDbLine
 10
395.9316099835244
 20
198.2107852735573
 30
0.0
 11
394.4316099835244
 21
198.2107852735573
 31
0.0
  0
LINE
  5
1D1
330
75
100
AcDbEntity
  8
Hidden (ISO)
100
AcDbLine
 10
395.9316099835302
 20
261.1807852735574
 30
0.0
 11
394.4316099835302
 21
261.1807852735574
 31
0.0
  0
LINE
  5
1D2
330
75
100
AcDbEntity
  8
Hidden (ISO)
100
AcDbLine
 10
395.9316099835302
 20
254.3807852735574
 30
0.0
 11
394.4316099835302
 21
254.3807852735574
 31
0.0
  0
LINE
  5
1D3
330
75
100
AcDbEntity
  8
Hidden (ISO)
100
AcDbLine
 10
395.9316099835303
 20
187.3807852735574
 30
0.0
 11
394.4316099835302
 21
187.3807852735574
 31
0.0
  0
LINE
  5
1D4
330
75
100
AcDbEntity
  8
Hidden (ISO)
100
AcDbLine
 10
395.9316099835303
 20
194.1807852735573
 30
0.0
 11
394.4316099835302
 21
194.1807852735573
 31
0.0
  0
LINE
  5
1D5
330
75
100
AcDbEntity
  8
Hidden (ISO)
100
AcDbLine
 10
395.9316099835297
 20
196.1807852735574
 30
0.0
 11
394.4316099835297
 21
196.1807852735574
 31
0.0
  0
LINE
  5
1D6
330
75
100
AcDbEntity
  8
Hidden (ISO)
100
AcDbLine
 10
395.9316099835303
 20
180.9807852735574
 30
0.0
 11
394.4316099835302
 21
180.9807852735574
 31
0.0
  0
LINE
  5
1D7
330
75
100
AcDbEntity
  8
Hidden (ISO)
100
AcDbLine
 10
395.9316099835303
 20
185.3807852735574
 30
0.0
 11
394.4316099835302
 21
185.3807852735574
 31
0.0
  0
LINE
  5
1D8
330
75
100
AcDbEntity
  8
Hidden (ISO)
100
AcDbLine
 10
395.9316099835309
 20
208.9307852735574
 30
0.0
 11
394.4316099835308
 21
208.9307852735574
 31
0.0
  0
LINE
  5
1D9
330
75
100
AcDbEntity
  8
Hidden (ISO)
100
AcDbLine
 10
395.9316099835309
 20
213.4307852735574
 30
0.0
 11
394.4316099835308
 21
213.4307852735574
 31
0.0
  0
LINE
  5
1DA
330
75
100
AcDbEntity
  8
Hidden (ISO)
100
AcDbLine
 10
395.9316099835247
 20
145.8807852735573
 30
0.0
 11
394.4316099835247
 21
145.8807852735573
 31
0.0
  0
LINE
  5
1DB
330
75
100
AcDbEntity
  8
Hidden (ISO)
100
AcDbLine
 10
395.9316099835247
 20
151.0807852735574
 30
0.0
 11
394.4316099835247
 21
151.0807852735574
 31
0.0
  0
LINE
  5
1DC
330
75
100
AcDbEntity
  8
Hidden (ISO)
100
AcDbLine
 10
395.9316099835374
 20
145.6807852735574
 30
0.0
 11
394.4316099835374
 21
145.6807852735574
 31
0.0
  0
LINE
  5
1DD
330
75
100
AcDbEntity
  8
Hidden (ISO)
100
AcDbLine
 10
395.9316099835374
 20
150.8807852735574
 30
0.0
 11
394.4316099835374
 21
150.8807852735574
 31
0.0
  0
LINE
  5
1DE
330
75
100
AcDbEntity
  8
Hidden (ISO)
100
AcDbLine
 10
395.9316099835247
 20
280.6807852735574
 30
0.0
 11
394.4316099835247
 21
280.6807852735574
 31
0.0
  0
LINE
  5
1DF
330
75
100
AcDbEntity
  8
Hidden (ISO)
100
AcDbLine
 10
395.9316099835247
 20
285.8807852735574
 30
0.0
 11
394.4316099835247
 21
285.8807852735574
 31
0.0
  0
LINE
  5
1E0
330
75
100
AcDbEntity
  8
Hidden (ISO)
100
AcDbLine
 10
395.9316099835255
 20
238.8307852735573
 30
0.0
 11
394.4316099835255
 21
238.8307852735573
 31
0.0
  0
LINE
  5
1E1
330
75
100
AcDbEntity
  8
Hidden (ISO)
100
AcDbLine
 10
395.9316099835255
 20
241.5307852735574
 30
0.0
 11
394.4316099835255
 21
241.5307852735574
 31
0.0
  0
LINE
  5
1E2
330
75
100
AcDbEntity
  8
Hidden (ISO)
100
AcDbLine
 10
395.9316099835256
 20
190.2307852735573
 30
0.0
 11
394.4316099835255
 21
190.2307852735573
 31
0.0
  0
LINE
  5
1E3
330
75
100
AcDbEntity
  8
Hidden (ISO)
100
AcDbLine
 10
395.9316099835256
 20
192.9307852735573
 30
0.0
 11
394.4316099835255
 21
192.9307852735573
 31
0.0
  0
CIRCLE
  5
1E4
330
75
100
AcDbEntity
  8
Visible (ISO)
100
AcDbCircle
 10
218.2973324083619
 20
191.5807852735573
 30
0.0
 40
1.65
  0
CIRCLE
  5
1E5
330
75
100
AcDbEntity
  8
Visible (ISO)
100
AcDbCircle
 10
195.7973324083618
 20
191.5807852735573
 30
0.0
 40
1.65
  0
CIRCLE
  5
1E6
330
75
100
AcDbEntity
  8
Visible (ISO)
100
AcDbCircle
 10
195.7973324083618
 20
240.1807852735574
 30
0.0
 40
1.65
  0
CIRCLE
  5
1E7
330
75
100
AcDbEntity
  8
Visible (ISO)
100
AcDbCircle
 10
218.2973324083619
 20
240.1807852735574
 30
0.0
 40
1.65
  0
CIRCLE
  5
1E8
330
75
100
AcDbEntity
  8
Hidden (ISO)
100
AcDbCircle
 10
218.2973324083616
 20
191.5807852735573
 30
0.0
 40
2.249999999999999
  0
CIRCLE
  5
1E9
330
75
100
AcDbEntity
  8
Hidden (ISO)
100
AcDbCircle
 10
195.7973324083616
 20
191.5807852735573
 30
0.0
 40
2.249999999999999
  0
CIRCLE
  5
1EA
330
75
100
AcDbEntity
  8
Hidden (ISO)
100
AcDbCircle
 10
218.2973324083616
 20
240.1807852735574
 30
0.0
 40
2.249999999999999
  0
CIRCLE
  5
1EB
330
75
100
AcDbEntity
  8
Hidden (ISO)
100
AcDbCircle
 10
195.7973324083616
 20
240.1807852735574
 30
0.0
 40
2.249999999999999
  0
LINE
  5
1EC
330
75
100
AcDbEntity
  8
Hidden (ISO)
100
AcDbLine
 10
227.5473324083749
 20
277.7807852735574
 30
0.0
 11
229.0473324083749
 21
277.7807852735574
 31
0.0
  0
LINE
  5
1ED
330
75
100
AcDbEntity
  8
Hidden (ISO)
100
AcDbLine
 10
227.5473324083714
 20
194.1807852735573
 30
0.0
 11
229.0473324083714
 21
194.1807852735573
 31
0.0
  0
LINE
  5
1EE
330
75
100
AcDbEntity
  8
Hidden (ISO)
100
AcDbLine
 10
227.5473324083714
 20
187.3807852735574
 30
0.0
 11
229.0473324083714
 21
187.3807852735574
 31
0.0
  0
LINE
  5
1EF
330
75
100
AcDbEntity
  8
Hidden (ISO)
100
AcDbLine
 10
227.547332408372
 20
268.5807852735574
 30
0.0
 11
229.047332408372
 21
268.5807852735574
 31
0.0
  0
LINE
  5
1F0
330
75
100
AcDbEntity
  8
Hidden (ISO)
100
AcDbLine
 10
227.547332408372
 20
263.1807852735574
 30
0.0
 11
229.047332408372
 21
263.1807852735574
 31
0.0
  0
LINE
  5
1F1
330
75
100
AcDbEntity
  8
Hidden (ISO)
100
AcDbLine
 10
227.5473324083719
 20
201.5807852735574
 30
0.0
 11
229.047332408372
 21
201.5807852735574
 31
0.0
  0
LINE
  5
1F2
330
75
100
AcDbEntity
  8
Hidden (ISO)
100
AcDbLine
 10
227.5473324083749
 20
153.7807852735574
 30
0.0
 11
229.0473324083749
 21
153.7807852735574
 31
0.0
  0
LINE
  5
1F3
330
75
100
AcDbEntity
  8
Hidden (ISO)
100
AcDbLine
 10
227.5473324083714
 20
254.3807852735574
 30
0.0
 11
229.0473324083714
 21
254.3807852735574
 31
0.0
  0
LINE
  5
1F4
330
75
100
AcDbEntity
  8
Hidden (ISO)
100
AcDbLine
 10
227.5473324083714
 20
180.9807852735574
 30
0.0
 11
229.0473324083714
 21
180.9807852735574
 31
0.0
  0
LINE
  5
1F5
330
75
100
AcDbEntity
  8
Hidden (ISO)
100
AcDbLine
 10
227.5473324083621
 20
158.2807852735573
 30
0.0
 11
229.0473324083621
 21
158.2807852735573
 31
0.0
  0
LINE
  5
1F6
330
75
100
AcDbEntity
  8
Hidden (ISO)
100
AcDbLine
 10
227.5473324083719
 20
196.1807852735574
 30
0.0
 11
229.047332408372
 21
196.1807852735574
 31
0.0
  0
LINE
  5
1F7
330
75
100
AcDbEntity
  8
Hidden (ISO)
100
AcDbLine
 10
227.5473324083784
 20
196.4107852735574
 30
0.0
 11
229.0473324083784
 21
196.4107852735574
 31
0.0
  0
LINE
  5
1F8
330
75
100
AcDbEntity
  8
Hidden (ISO)
100
AcDbLine
 10
227.5473324083784
 20
198.2107852735573
 30
0.0
 11
229.0473324083784
 21
198.2107852735573
 31
0.0
  0
LINE
  5
1F9
330
75
100
AcDbEntity
  8
Hidden (ISO)
100
AcDbLine
 10
227.5473324083714
 20
185.3807852735574
 30
0.0
 11
229.0473324083714
 21
185.3807852735574
 31
0.0
  0
LINE
  5
1FA
330
75
100
AcDbEntity
  8
Hidden (ISO)
100
AcDbLine
 10
227.5473324083714
 20
261.1807852735574
 30
0.0
 11
229.0473324083714
 21
261.1807852735574
 31
0.0
  0
LINE
  5
1FB
330
75
100
AcDbEntity
  8
Hidden (ISO)
100
AcDbLine
 10
229.0473324083621
 20
273.2807852735574
 30
0.0
 11
227.5473324083622
 21
273.2807852735574
 31
0.0
  0
LINE
  5
1FC
330
75
100
AcDbEntity
  8
Hidden (ISO)
100
AcDbLine
 10
227.5473324083707
 20
213.4307852735574
 30
0.0
 11
229.0473324083707
 21
213.4307852735574
 31
0.0
  0
LINE
  5
1FD
330
75
100
AcDbEntity
  8
Hidden (ISO)
100
AcDbLine
 10
227.5473324083707
 20
208.9307852735574
 30
0.0
 11
229.0473324083707
 21
208.9307852735574
 31
0.0
  0
LINE
  5
1FE
330
75
100
AcDbEntity
  8
Hidden (ISO)
100
AcDbLine
 10
227.5473324083645
 20
151.0807852735574
 30
0.0
 11
229.0473324083645
 21
151.0807852735574
 31
0.0
  0
LINE
  5
1FF
330
75
100
AcDbEntity
  8
Hidden (ISO)
100
AcDbLine
 10
227.5473324083645
 20
145.8807852735573
 30
0.0
 11
229.0473324083645
 21
145.8807852735573
 31
0.0
  0
LINE
  5
200
330
75
100
AcDbEntity
  8
Hidden (ISO)
100
AcDbLine
 10
227.5473324083773
 20
150.8807852735574
 30
0.0
 11
229.0473324083772
 21
150.8807852735574
 31
0.0
  0
LINE
  5
201
330
75
100
AcDbEntity
  8
Hidden (ISO)
100
AcDbLine
 10
227.5473324083773
 20
145.6807852735574
 30
0.0
 11
229.0473324083772
 21
145.6807852735574
 31
0.0
  0
LINE
  5
202
330
75
100
AcDbEntity
  8
Hidden (ISO)
100
AcDbLine
 10
227.5473324083773
 20
285.8807852735574
 30
0.0
 11
229.0473324083773
 21
285.8807852735574
 31
0.0
  0
LINE
  5
203
330
75
100
AcDbEntity
  8
Hidden (ISO)
100
AcDbLine
 10
227.5473324083773
 20
280.6807852735574
 30
0.0
 11
229.0473324083773
 21
280.6807852735574
 31
0.0
  0
LINE
  5
204
330
75
100
AcDbEntity
  8
Hidden (ISO)
100
AcDbLine
 10
227.5473324083773
 20
192.9307852735573
 30
0.0
 11
229.0473324083772
 21
192.9307852735573
 31
0.0
  0
LINE
  5
205
330
75
100
AcDbEntity
  8
Hidden (ISO)
100
AcDbLine
 10
227.5473324083773
 20
190.2307852735573
 30
0.0
 11
229.0473324083772
 21
190.2307852735573
 31
0.0
  0
LINE
  5
206
330
75
100
AcDbEntity
  8
Hidden (ISO)
100
AcDbLine
 10
227.5473324083773
 20
241.5307852735574
 30
0.0
 11
229.0473324083773
 21
241.5307852735574
 31
0.0
  0
LINE
  5
207
330
75
100
AcDbEntity
  8
Hidden (ISO)
100
AcDbLine
 10
227.5473324083773
 20
238.8307852735573
 30
0.0
 11
229.0473324083773
 21
238.8307852735573
 31
0.0
  0
LINE
  5
208
330
75
100
AcDbEntity
  8
Visible (ISO)
100
AcDbLine
 10
229.047332408379
 20
288.2807852735574
 30
0.0
 11
229.0473324083796
 21
286.2807852735574
 31
0.0
  0
LINE
  5
209
330
75
100
AcDbEntity
  8
Visible (ISO)
100
AcDbLine
 10
229.0473324083796
 20
145.2807852735574
 30
0.0
 11
229.0473324083796
 21
286.2807852735574
 31
0.0
  0
LINE
  5
20A
330
75
100
AcDbEntity
  8
Visible (ISO)
100
AcDbLine
 10
229.0473324083796
 20
145.2807852735574
 30
0.0
 11
229.047332408379
 21
143.2807852735574
 31
0.0
  0
LINE
  5
20B
330
75
100
AcDbEntity
  8
Visible (ISO)
100
AcDbLine
 10
227.547332408379
 20
143.2807852735574
 30
0.0
 11
227.5473324083796
 21
145.2807852735574
 31
0.0
  0
LINE
  5
20C
330
75
100
AcDbEntity
  8
Visible (ISO)
100
AcDbLine
 10
227.5473324083796
 20
145.2807852735574
 30
0.0
 11
227.5473324083796
 21
286.2807852735573
 31
0.0
  0
LINE
  5
20D
330
75
100
AcDbEntity
  8
Visible (ISO)
100
AcDbLine
 10
227.5473324083796
 20
286.2807852735573
 30
0.0
 11
227.547332408379
 21
288.2807852735574
 31
0.0
  0
LINE
  5
20E
330
75
100
AcDbEntity
  8
Visible (ISO)
100
AcDbLine
 10
229.047332408379
 20
143.2807852735574
 30
0.0
 11
227.547332408379
 21
143.2807852735574
 31
0.0
  0
LINE
  5
20F
330
75
100
AcDbEntity
  8
Visible (ISO)
100
AcDbLine
 10
227.547332408379
 20
288.2807852735574
 30
0.0
 11
229.047332408379
 21
288.2807852735574
 31
0.0
  0
LINE
  5
210
330
75
100
AcDbEntity
  8
Visible (ISO)
100
AcDbLine
 10
227.5473324083796
 20
145.2807852735574
 30
0.0
 11
229.0473324083796
 21
145.2807852735574
 31
0.0
  0
LINE
  5
211
330
75
100
AcDbEntity
  8
Visible (ISO)
100
AcDbLine
 10
229.0473324083796
 20
286.2807852735574
 30
0.0
 11
227.5473324083796
 21
286.2807852735573
 31
0.0
  0
LINE
  5
212
330
75
100
AcDbEntity
  8
Visible (ISO)
100
AcDbLine
 10
227.547332408361
 20
158.2807852735573
 30
0.0
 11
226.5473324083608
 21
158.2807852735573
 31
0.0
  0
LINE
  5
213
330
75
100
AcDbEntity
  8
Visible (ISO)
100
AcDbLine
 10
227.5473324083611
 20
273.2807852735574
 30
0.0
 11
226.5473324083608
 21
273.2807852735574
 31
0.0
  0
LINE
  5
214
330
75
100
AcDbEntity
  8
Visible (ISO)
100
AcDbLine
 10
199.5473324083608
 20
255.1057852735574
 30
0.0
 11
201.5473324083608
 21
255.1057852735574
 31
0.0
  0
LINE
  5
215
330
75
100
AcDbEntity
  8
Visible (ISO)
100
AcDbLine
 10
201.5473324083608
 20
255.1057852735574
 30
0.0
 11
201.5473324083608
 21
176.6557852735573
 31
0.0
  0
LINE
  5
216
330
75
100
AcDbEntity
  8
Visible (ISO)
100
AcDbLine
 10
201.5473324083608
 20
176.6557852735573
 30
0.0
 11
199.5473324083608
 21
176.6557852735573
 31
0.0
  0
LINE
  5
217
330
75
100
AcDbEntity
  8
Visible (ISO)
100
AcDbLine
 10
199.5473324083608
 20
179.6202513676246
 30
0.0
 11
199.5473324083608
 21
176.6557852735573
 31
0.0
  0
LINE
  5
218
330
75
100
AcDbEntity
  8
Visible (ISO)
100
AcDbLine
 10
192.0473324083608
 20
158.2807852735574
 30
0.0
 11
192.0473324083608
 21
179.6202513676246
 31
0.0
  0
LINE
  5
219
330
75
100
AcDbEntity
  8
Visible (ISO)
100
AcDbLine
 10
192.0473324083608
 20
158.2807852735574
 30
0.0
 11
226.5473324083608
 21
158.2807852735573
 31
0.0
  0
LINE
  5
21A
330
75
100
AcDbEntity
  8
Visible (ISO)
100
AcDbLine
 10
192.0473324083608
 20
273.2807852735574
 30
0.0
 11
226.5473324083608
 21
273.2807852735574
 31
0.0
  0
LINE
  5
21B
330
75
100
AcDbEntity
  8
Visible (ISO)
100
AcDbLine
 10
192.0473324083608
 20
252.1413191794902
 30
0.0
 11
192.0473324083608
 21
273.2807852735574
 31
0.0
  0
LINE
  5
21C
330
75
100
AcDbEntity
  8
Visible (ISO)
100
AcDbLine
 10
199.5473324083608
 20
252.1413191794902
 30
0.0
 11
199.5473324083608
 21
255.1057852735574
 31
0.0
  0
LINE
  5
21D
330
75
100
AcDbEntity
  8
Visible (ISO)
100
AcDbLine
 10
212.5473324083608
 20
255.1057852735574
 30
0.0
 11
214.5473324083608
 21
255.1057852735574
 31
0.0
  0
LINE
  5
21E
330
75
100
AcDbEntity
  8
Visible (ISO)
100
AcDbLine
 10
214.5473324083608
 20
252.1413191794902
 30
0.0
 11
214.5473324083608
 21
255.1057852735574
 31
0.0
  0
LINE
  5
21F
330
75
100
AcDbEntity
  8
Visible (ISO)
100
AcDbLine
 10
222.0473324083608
 20
252.1413191794902
 30
0.0
 11
222.0473324083608
 21
255.1057852735574
 31
0.0
  0
LINE
  5
220
330
75
100
AcDbEntity
  8
Visible (ISO)
100
AcDbLine
 10
222.0473324083608
 20
255.1057852735574
 30
0.0
 11
224.0473324083608
 21
255.1057852735574
 31
0.0
  0
LINE
  5
221
330
75
100
AcDbEntity
  8
Visible (ISO)
100
AcDbLine
 10
224.0473324083608
 20
255.1057852735574
 30
0.0
 11
224.0473324083608
 21
229.6057852735574
 31
0.0
  0
LINE
  5
222
330
75
100
AcDbEntity
  8
Visible (ISO)
100
AcDbLine
 10
224.0473324083608
 20
229.6057852735574
 30
0.0
 11
212.5473324083606
 21
229.6057852735574
 31
0.0
  0
LINE
  5
223
330
75
100
AcDbEntity
  8
Visible (ISO)
100
AcDbLine
 10
212.5473324083606
 20
229.6057852735574
 30
0.0
 11
212.5473324083608
 21
255.1057852735574
 31
0.0
  0
LINE
  5
224
330
75
100
AcDbEntity
  8
Visible (ISO)
100
AcDbLine
 10
212.5473324083608
 20
202.1557852735574
 30
0.0
 11
224.0473324083608
 21
202.1557852735574
 31
0.0
  0
LINE
  5
225
330
75
100
AcDbEntity
  8
Visible (ISO)
100
AcDbLine
 10
224.0473324083608
 20
202.1557852735574
 30
0.0
 11
224.0473324083608
 21
176.6557852735573
 31
0.0
  0
LINE
  5
226
330
75
100
AcDbEntity
  8
Visible (ISO)
100
AcDbLine
 10
224.0473324083608
 20
176.6557852735573
 30
0.0
 11
222.0473324083608
 21
176.6557852735573
 31
0.0
  0
LINE
  5
227
330
75
100
AcDbEntity
  8
Visible (ISO)
100
AcDbLine
 10
222.0473324083608
 20
179.6202513676246
 30
0.0
 11
222.0473324083608
 21
176.6557852735573
 31
0.0
  0
LINE
  5
228
330
75
100
AcDbEntity
  8
Visible (ISO)
100
AcDbLine
 10
214.5473324083608
 20
179.6202513676246
 30
0.0
 11
214.5473324083608
 21
176.6557852735573
 31
0.0
  0
LINE
  5
229
330
75
100
AcDbEntity
  8
Visible (ISO)
100
AcDbLine
 10
214.5473324083608
 20
176.6557852735573
 30
0.0
 11
212.5473324083606
 21
176.6557852735573
 31
0.0
  0
LINE
  5
22A
330
75
100
AcDbEntity
  8
Visible (ISO)
100
AcDbLine
 10
212.5473324083606
 20
176.6557852735573
 30
0.0
 11
212.5473324083608
 21
202.1557852735574
 31
0.0
  0
LINE
  5
22B
330
75
100
AcDbEntity
  8
Visible (ISO)
100
AcDbLine
 10
192.0473324083609
 20
180.3273581488111
 30
0.0
 11
192.0473324083608
 21
179.6202513676246
 31
0.0
  0
LINE
  5
22C
330
75
100
AcDbEntity
  8
Visible (ISO)
100
AcDbLine
 10
192.0473324083619
 20
183.802231882964
 30
0.0
 11
192.0473324083609
 21
180.3273581488111
 31
0.0
  0
LINE
  5
22D
330
75
100
AcDbEntity
  8
Visible (ISO)
100
AcDbLine
 10
192.0473324083619
 20
183.802231882964
 30
0.0
 11
192.0473324083621
 21
185.5699988359304
 31
0.0
  0
LINE
  5
22E
330
75
100
AcDbEntity
  8
Visible (ISO)
100
AcDbLine
 10
192.0473324083621
 20
197.1557852735573
 30
0.0
 11
192.0473324083621
 21
185.5699988359304
 31
0.0
  0
LINE
  5
22F
330
75
100
AcDbEntity
  8
Visible (ISO)
100
AcDbLine
 10
214.5473324083608
 20
180.3273581488111
 30
0.0
 11
214.5473324083608
 21
179.6202513676246
 31
0.0
  0
LINE
  5
230
330
75
100
AcDbEntity
  8
Visible (ISO)
100
AcDbLine
 10
214.5473324083619
 20
183.802231882964
 30
0.0
 11
214.5473324083608
 21
180.3273581488111
 31
0.0
  0
LINE
  5
231
330
75
100
AcDbEntity
  8
Visible (ISO)
100
AcDbLine
 10
214.5473324083619
 20
183.802231882964
 30
0.0
 11
214.5473324083621
 21
185.5699988359304
 31
0.0
  0
LINE
  5
232
330
75
100
AcDbEntity
  8
Visible (ISO)
100
AcDbLine
 10
214.5473324083621
 20
197.1557852735573
 30
0.0
 11
214.5473324083621
 21
185.5699988359304
 31
0.0
  0
LINE
  5
233
330
75
100
AcDbEntity
  8
Visible (ISO)
100
AcDbLine
 10
199.5473324083608
 20
251.4342123983036
 30
0.0
 11
199.5473324083608
 21
252.1413191794901
 31
0.0
  0
LINE
  5
234
330
75
100
AcDbEntity
  8
Visible (ISO)
100
AcDbLine
 10
199.5473324083619
 20
247.9593386641507
 30
0.0
 11
199.5473324083609
 21
251.4342123983036
 31
0.0
  0
LINE
  5
235
330
75
100
AcDbEntity
  8
Visible (ISO)
100
AcDbLine
 10
199.5473324083619
 20
247.9593386641507
 30
0.0
 11
199.5473324083621
 21
246.1915717111843
 31
0.0
  0
LINE
  5
236
330
75
100
AcDbEntity
  8
Visible (ISO)
100
AcDbLine
 10
199.5473324083621
 20
234.6057852735575
 30
0.0
 11
199.5473324083621
 21
246.1915717111843
 31
0.0
  0
LINE
  5
237
330
75
100
AcDbEntity
  8
Visible (ISO)
100
AcDbLine
 10
222.0473324083609
 20
251.4342123983036
 30
0.0
 11
222.0473324083608
 21
252.1413191794901
 31
0.0
  0
LINE
  5
238
330
75
100
AcDbEntity
  8
Visible (ISO)
100
AcDbLine
 10
222.0473324083619
 20
247.9593386641507
 30
0.0
 11
222.0473324083609
 21
251.4342123983036
 31
0.0
  0
LINE
  5
239
330
75
100
AcDbEntity
  8
Visible (ISO)
100
AcDbLine
 10
222.0473324083619
 20
247.9593386641507
 30
0.0
 11
222.0473324083621
 21
246.1915717111843
 31
0.0
  0
LINE
  5
23A
330
75
100
AcDbEntity
  8
Visible (ISO)
100
AcDbLine
 10
222.0473324083621
 20
234.6057852735575
 30
0.0
 11
222.0473324083621
 21
246.1915717111843
 31
0.0
  0
LINE
  5
23B
330
75
100
AcDbEntity
  8
Visible (ISO)
100
AcDbLine
 10
222.0473324083621
 20
197.1557852735573
 30
0.0
 11
222.0473324083621
 21
185.5699988359304
 31
0.0
  0
LINE
  5
23C
330
75
100
AcDbEntity
  8
Visible (ISO)
100
AcDbLine
 10
222.0473324083619
 20
183.802231882964
 30
0.0
 11
222.0473324083621
 21
185.5699988359304
 31
0.0
  0
LINE
  5
23D
330
75
100
AcDbEntity
  8
Visible (ISO)
100
AcDbLine
 10
222.0473324083619
 20
183.802231882964
 30
0.0
 11
222.0473324083609
 21
180.3273581488111
 31
0.0
  0
LINE
  5
23E
330
75
100
AcDbEntity
  8
Visible (ISO)
100
AcDbLine
 10
222.0473324083608
 20
180.3273581488111
 30
0.0
 11
222.0473324083608
 21
179.6202513676246
 31
0.0
  0
LINE
  5
23F
330
75
100
AcDbEntity
  8
Visible (ISO)
100
AcDbLine
 10
199.5473324083621
 20
197.1557852735573
 30
0.0
 11
199.5473324083621
 21
185.5699988359304
 31
0.0
  0
LINE
  5
240
330
75
100
AcDbEntity
  8
Visible (ISO)
100
AcDbLine
 10
199.5473324083619
 20
183.802231882964
 30
0.0
 11
199.5473324083621
 21
185.5699988359304
 31
0.0
  0
LINE
  5
241
330
75
100
AcDbEntity
  8
Visible (ISO)
100
AcDbLine
 10
199.5473324083619
 20
183.802231882964
 30
0.0
 11
199.5473324083609
 21
180.3273581488111
 31
0.0
  0
LINE
  5
242
330
75
100
AcDbEntity
  8
Visible (ISO)
100
AcDbLine
 10
199.5473324083608
 20
180.3273581488111
 30
0.0
 11
199.5473324083608
 21
179.6202513676246
 31
0.0
  0
LINE
  5
243
330
75
100
AcDbEntity
  8
Visible (ISO)
100
AcDbLine
 10
192.0473324083621
 20
234.6057852735575
 30
0.0
 11
192.0473324083621
 21
246.1915717111843
 31
0.0
  0
LINE
  5
244
330
75
100
AcDbEntity
  8
Visible (ISO)
100
AcDbLine
 10
192.0473324083619
 20
247.9593386641507
 30
0.0
 11
192.0473324083621
 21
246.1915717111843
 31
0.0
  0
LINE
  5
245
330
75
100
AcDbEntity
  8
Visible (ISO)
100
AcDbLine
 10
192.0473324083619
 20
247.9593386641507
 30
0.0
 11
192.0473324083609
 21
251.4342123983036
 31
0.0
  0
LINE
  5
246
330
75
100
AcDbEntity
  8
Visible (ISO)
100
AcDbLine
 10
192.0473324083609
 20
251.4342123983036
 30
0.0
 11
192.0473324083608
 21
252.1413191794902
 31
0.0
  0
LINE
  5
247
330
75
100
AcDbEntity
  8
Visible (ISO)
100
AcDbLine
 10
214.5473324083621
 20
234.6057852735575
 30
0.0
 11
214.5473324083621
 21
246.1915717111843
 31
0.0
  0
LINE
  5
248
330
75
100
AcDbEntity
  8
Visible (ISO)
100
AcDbLine
 10
214.5473324083619
 20
247.9593386641507
 30
0.0
 11
214.5473324083621
 21
246.1915717111843
 31
0.0
  0
LINE
  5
249
330
75
100
AcDbEntity
  8
Visible (ISO)
100
AcDbLine
 10
214.5473324083619
 20
247.9593386641507
 30
0.0
 11
214.5473324083609
 21
251.4342123983036
 31
0.0
  0
LINE
  5
24A
330
75
100
AcDbEntity
  8
Visible (ISO)
100
AcDbLine
 10
214.5473324083609
 20
251.4342123983036
 30
0.0
 11
214.5473324083608
 21
252.1413191794902
 31
0.0
  0
LINE
  5
24B
330
75
100
AcDbEntity
  8
Visible (ISO)
100
AcDbLine
 10
199.5473324083621
 20
197.1557852735573
 30
0.0
 11
192.0473324083621
 21
197.1557852735573
 31
0.0
  0
LINE
  5
24C
330
75
100
AcDbEntity
  8
Visible (ISO)
100
AcDbLine
 10
222.0473324083621
 20
197.1557852735573
 30
0.0
 11
214.5473324083621
 21
197.1557852735573
 31
0.0
  0
LINE
  5
24D
330
75
100
AcDbEntity
  8
Visible (ISO)
100
AcDbLine
 10
199.5473324083621
 20
234.6057852735575
 30
0.0
 11
192.0473324083621
 21
234.6057852735575
 31
0.0
  0
LINE
  5
24E
330
75
100
AcDbEntity
  8
Visible (ISO)
100
AcDbLine
 10
222.0473324083621
 20
234.6057852735575
 30
0.0
 11
214.5473324083621
 21
234.6057852735575
 31
0.0
  0
LINE
  5
24F
330
75
100
AcDbEntity
  8
Hidden (ISO)
100
AcDbLine
 10
284.1250839485147
 20
344.4918826627777
 30
0.0
 11
284.1250839485147
 21
341.1918826627777
 31
0.0
  0
LINE
  5
250
330
75
100
AcDbEntity
  8
Hidden (ISO)
100
AcDbLine
 10
284.1250839485148
 20
366.9918826627777
 30
0.0
 11
284.1250839485148
 21
363.6918826627777
 31
0.0
  0
LINE
  5
251
330
75
100
AcDbEntity
  8
Hidden (ISO)
100
AcDbLine
 10
282.3865674678013
 20
344.4918826627777
 30
0.0
 11
284.1250839485147
 21
344.4918826627777
 31
0.0
  0
LINE
  5
252
330
75
100
AcDbEntity
  8
Hidden (ISO)
100
AcDbLine
 10
282.3865674678013
 20
341.1918826627777
 30
0.0
 11
284.1250839485147
 21
341.1918826627777
 31
0.0
  0
LINE
  5
253
330
75
100
AcDbEntity
  8
Hidden (ISO)
100
AcDbLine
 10
282.3865674678014
 20
366.9918826627777
 30
0.0
 11
284.1250839485148
 21
366.9918826627777
 31
0.0
  0
LINE
  5
254
330
75
100
AcDbEntity
  8
Hidden (ISO)
100
AcDbLine
 10
282.3865674678014
 20
363.6918826627777
 30
0.0
 11
284.1250839485148
 21
363.6918826627777
 31
0.0
  0
LINE
  5
255
330
75
100
AcDbEntity
  8
Hidden (ISO)
100
AcDbLine
 10
282.3865674678013
 20
345.0918826627777
 30
0.0
 11
282.3865674678013
 21
340.5918826627777
 31
0.0
  0
LINE
  5
256
330
75
100
AcDbEntity
  8
Hidden (ISO)
100
AcDbLine
 10
282.3865674678014
 20
367.5918826627777
 30
0.0
 11
282.3865674678014
 21
363.0918826627777
 31
0.0
  0
LINE
  5
257
330
75
100
AcDbEntity
  8
Hidden (ISO)
100
AcDbLine
 10
292.0865674678013
 20
333.5918826627791
 30
0.0
 11
292.0865674678013
 21
332.0918826627791
 31
0.0
  0
LINE
  5
258
330
75
100
AcDbEntity
  8
Hidden (ISO)
100
AcDbLine
 10
300.0865674678013
 20
333.5918826627791
 30
0.0
 11
300.0865674678013
 21
332.0918826627791
 31
0.0
  0
LINE
  5
259
330
75
100
AcDbEntity
  8
Hidden (ISO)
100
AcDbLine
 10
309.8865674678013
 20
333.591882662779
 30
0.0
 11
309.8865674678013
 21
332.0918826627791
 31
0.0
  0
LINE
  5
25A
330
75
100
AcDbEntity
  8
Hidden (ISO)
100
AcDbLine
 10
316.2865674678013
 20
333.5918826627745
 30
0.0
 11
316.2865674678013
 21
332.0918826627746
 31
0.0
  0
LINE
  5
25B
330
75
100
AcDbEntity
  8
Hidden (ISO)
100
AcDbLine
 10
311.8865674678013
 20
333.5918826627745
 30
0.0
 11
311.8865674678013
 21
332.0918826627746
 31
0.0
  0
LINE
  5
25C
330
75
100
AcDbEntity
  8
Hidden (ISO)
100
AcDbLine
 10
318.2865674678013
 20
333.591882662779
 30
0.0
 11
318.2865674678013
 21
332.0918826627791
 31
0.0
  0
LINE
  5
25D
330
75
100
AcDbEntity
  8
Hidden (ISO)
100
AcDbLine
 10
340.0865674678013
 20
333.5918826627791
 30
0.0
 11
340.0865674678013
 21
332.0918826627791
 31
0.0
  0
LINE
  5
25E
330
75
100
AcDbEntity
  8
Hidden (ISO)
100
AcDbLine
 10
332.0865674678013
 20
333.5918826627791
 30
0.0
 11
332.0865674678013
 21
332.0918826627791
 31
0.0
  0
LINE
  5
25F
330
75
100
AcDbEntity
  8
Hidden (ISO)
100
AcDbLine
 10
280.5865674678012
 20
339.0918826627733
 30
0.0
 11
279.0865674678013
 21
339.0918826627733
 31
0.0
  0
LINE
  5
260
330
75
100
AcDbEntity
  8
Hidden (ISO)
100
AcDbLine
 10
280.5865674678013
 20
337.0918826627733
 30
0.0
 11
279.0865674678013
 21
337.0918826627733
 31
0.0
  0
LINE
  5
261
330
75
100
AcDbEntity
  8
Hidden (ISO)
100
AcDbLine
 10
280.5865674678011
 20
359.5918826627733
 30
0.0
 11
279.0865674678012
 21
359.5918826627733
 31
0.0
  0
LINE
  5
262
330
75
100
AcDbEntity
  8
Hidden (ISO)
100
AcDbLine
 10
280.5865674678012
 20
346.5918826627733
 30
0.0
 11
279.0865674678013
 21
346.5918826627733
 31
0.0
  0
LINE
  5
263
330
75
100
AcDbEntity
  8
Hidden (ISO)
100
AcDbLine
 10
280.5865674678011
 20
361.5918826627733
 30
0.0
 11
279.0865674678012
 21
361.5918826627733
 31
0.0
  0
LINE
  5
264
330
75
100
AcDbEntity
  8
Hidden (ISO)
100
AcDbLine
 10
280.5865674678012
 20
348.5918826627735
 30
0.0
 11
279.0865674678012
 21
348.5918826627733
 31
0.0
  0
LINE
  5
265
330
75
100
AcDbEntity
  8
Hidden (ISO)
100
AcDbLine
 10
283.5865674678013
 20
361.591882662776
 30
0.0
 11
283.5865674678013
 21
369.0918826627759
 31
0.0
  0
LINE
  5
266
330
75
100
AcDbEntity
  8
Hidden (ISO)
100
AcDbLine
 10
283.5865674678012
 20
339.091882662776
 30
0.0
 11
283.5865674678012
 21
346.591882662776
 31
0.0
  0
LINE
  5
267
330
75
100
AcDbEntity
  8
Hidden (ISO)
100
AcDbLine
 10
283.5865674678013
 20
340.5918826627777
 30
0.0
 11
282.3865674678013
 21
340.5918826627777
 31
0.0
  0
LINE
  5
268
330
75
100
AcDbEntity
  8
Hidden (ISO)
100
AcDbLine
 10
283.5865674678013
 20
345.0918826627777
 30
0.0
 11
282.3865674678013
 21
345.0918826627777
 31
0.0
  0
LINE
  5
269
330
75
100
AcDbEntity
  8
Hidden (ISO)
100
AcDbLine
 10
283.5865674678013
 20
363.0918826627777
 30
0.0
 11
282.3865674678014
 21
363.0918826627777
 31
0.0
  0
LINE
  5
26A
330
75
100
AcDbEntity
  8
Hidden (ISO)
100
AcDbLine
 10
283.5865674678013
 20
367.5918826627777
 30
0.0
 11
282.3865674678014
 21
367.5918826627777
 31
0.0
  0
LINE
  5
26B
330
75
100
AcDbEntity
  8
Hidden (ISO)
100
AcDbLine
 10
316.3365674678013
 20
333.5918826627835
 30
0.0
 11
316.3365674678013
 21
332.0918826627835
 31
0.0
  0
LINE
  5
26C
330
75
100
AcDbEntity
  8
Hidden (ISO)
100
AcDbLine
 10
311.8365674678013
 20
333.5918826627835
 30
0.0
 11
311.8365674678013
 21
332.0918826627835
 31
0.0
  0
LINE
  5
26D
330
75
100
AcDbEntity
  8
Hidden (ISO)
100
AcDbLine
 10
295.6865674678013
 20
333.5918826627649
 30
0.0
 11
295.6865674678013
 21
332.0918826627649
 31
0.0
  0
LINE
  5
26E
330
75
100
AcDbEntity
  8
Hidden (ISO)
100
AcDbLine
 10
290.4865674678013
 20
333.5918826627649
 30
0.0
 11
290.4865674678013
 21
332.0918826627649
 31
0.0
  0
LINE
  5
26F
330
75
100
AcDbEntity
  8
Hidden (ISO)
100
AcDbLine
 10
338.6865674678012
 20
333.5918826627649
 30
0.0
 11
338.6865674678012
 21
332.0918826627649
 31
0.0
  0
LINE
  5
270
330
75
100
AcDbEntity
  8
Hidden (ISO)
100
AcDbLine
 10
333.4865674678013
 20
333.5918826627649
 30
0.0
 11
333.4865674678013
 21
332.0918826627649
 31
0.0
  0
LINE
  5
271
330
75
100
AcDbEntity
  8
Hidden (ISO)
100
AcDbLine
 10
337.4365674678013
 20
333.5918826627777
 30
0.0
 11
337.4365674678013
 21
332.0918826627777
 31
0.0
  0
LINE
  5
272
330
75
100
AcDbEntity
  8
Hidden (ISO)
100
AcDbLine
 10
334.7365674678013
 20
333.5918826627777
 30
0.0
 11
334.7365674678013
 21
332.0918826627777
 31
0.0
  0
LINE
  5
273
330
75
100
AcDbEntity
  8
Hidden (ISO)
100
AcDbLine
 10
297.4365674678013
 20
333.5918826627777
 30
0.0
 11
297.4365674678013
 21
332.0918826627777
 31
0.0
  0
LINE
  5
274
330
75
100
AcDbEntity
  8
Hidden (ISO)
100
AcDbLine
 10
294.7365674678013
 20
333.5918826627777
 30
0.0
 11
294.7365674678013
 21
332.0918826627777
 31
0.0
  0
ARC
  5
275
330
75
100
AcDbEntity
  8
Hidden (ISO)
100
AcDbCircle
 10
283.5865674678013
 20
368.3918826627778
 30
0.0
 40
1.5
100
AcDbArc
 50
291.0394697813168
 51
0.0
  0
ARC
  5
276
330
75
100
AcDbEntity
  8
Hidden (ISO)
100
AcDbCircle
 10
283.5865674678013
 20
362.2918826627778
 30
0.0
 40
1.5
100
AcDbArc
 50
0.0
 51
68.96053021868194
  0
ARC
  5
277
330
75
100
AcDbEntity
  8
Hidden (ISO)
100
AcDbCircle
 10
283.5865674678012
 20
345.8918826627777
 30
0.0
 40
1.5
100
AcDbArc
 50
291.0394697813168
 51
0.0
  0
ARC
  5
278
330
75
100
AcDbEntity
  8
Hidden (ISO)
100
AcDbCircle
 10
283.5865674678012
 20
339.7918826627777
 30
0.0
 40
1.5
100
AcDbArc
 50
0.0
 51
68.9605302186832
  0
LINE
  5
279
330
75
100
AcDbEntity
  8
Visible (ISO)
100
AcDbLine
 10
330.0865674678013
 20
332.0918826627634
 30
0.0
 11
342.0865674678012
 21
332.0918826627634
 31
0.0
  0
LINE
  5
27A
330
75
100
AcDbEntity
  8
Visible (ISO)
100
AcDbLine
 10
330.0865674678013
 20
332.0918826627634
 30
0.0
 11
328.0865674678012
 21
332.091882662764
 31
0.0
  0
LINE
  5
27B
330
75
100
AcDbEntity
  8
Visible (ISO)
100
AcDbLine
 10
301.0865674678013
 20
332.0918826627665
 30
0.0
 11
328.0865674678012
 21
332.0918826627665
 31
0.0
  0
LINE
  5
27C
330
75
100
AcDbEntity
  8
Visible (ISO)
100
AcDbLine
 10
301.0865674678013
 20
332.091882662764
 30
0.0
 11
299.0865674678013
 21
332.0918826627634
 31
0.0
  0
LINE
  5
27D
330
75
100
AcDbEntity
  8
Visible (ISO)
100
AcDbLine
 10
287.0865674678013
 20
332.0918826627633
 30
0.0
 11
299.0865674678013
 21
332.0918826627634
 31
0.0
  0
LINE
  5
27E
330
75
100
AcDbEntity
  8
Visible (ISO)
100
AcDbLine
 10
287.0865674678013
 20
332.0918826627633
 30
0.0
 11
285.0865674678013
 21
332.091882662764
 31
0.0
  0
LINE
  5
27F
330
75
100
AcDbEntity
  8
Visible (ISO)
100
AcDbLine
 10
281.5865674678013
 20
332.0918826627679
 30
0.0
 11
285.0865674678013
 21
332.0918826627679
 31
0.0
  0
LINE
  5
280
330
75
100
AcDbEntity
  8
Visible (ISO)
100
AcDbLine
 10
344.0865674678013
 20
332.091882662764
 30
0.0
 11
342.0865674678012
 21
332.0918826627634
 31
0.0
  0
LINE
  5
281
330
75
100
AcDbEntity
  8
Visible (ISO)
100
AcDbLine
 10
328.0865674678013
 20
333.591882662764
 30
0.0
 11
330.0865674678013
 21
333.5918826627634
 31
0.0
  0
LINE
  5
282
330
75
100
AcDbEntity
  8
Visible (ISO)
100
AcDbLine
 10
330.0865674678013
 20
333.5918826627634
 30
0.0
 11
342.0865674678012
 21
333.5918826627634
 31
0.0
  0
LINE
  5
283
330
75
100
AcDbEntity
  8
Visible (ISO)
100
AcDbLine
 10
342.0865674678012
 20
333.5918826627634
 30
0.0
 11
344.0865674678013
 21
333.591882662764
 31
0.0
  0
LINE
  5
284
330
75
100
AcDbEntity
  8
Visible (ISO)
100
AcDbLine
 10
281.5865674678013
 20
333.5918826627678
 30
0.0
 11
285.0865674678013
 21
333.5918826627678
 31
0.0
  0
LINE
  5
285
330
75
100
AcDbEntity
  8
Visible (ISO)
100
AcDbLine
 10
285.0865674678013
 20
333.591882662764
 30
0.0
 11
287.0865674678012
 21
333.5918826627634
 31
0.0
  0
LINE
  5
286
330
75
100
AcDbEntity
  8
Visible (ISO)
100
AcDbLine
 10
287.0865674678012
 20
333.5918826627634
 30
0.0
 11
299.0865674678012
 21
333.5918826627634
 31
0.0
  0
LINE
  5
287
330
75
100
AcDbEntity
  8
Visible (ISO)
100
AcDbLine
 10
299.0865674678012
 20
333.5918826627634
 30
0.0
 11
301.0865674678013
 21
333.591882662764
 31
0.0
  0
LINE
  5
288
330
75
100
AcDbEntity
  8
Visible (ISO)
100
AcDbLine
 10
301.0865674678013
 20
333.5918826627665
 30
0.0
 11
328.0865674678012
 21
333.5918826627665
 31
0.0
  0
LINE
  5
289
330
75
100
AcDbEntity
  8
Visible (ISO)
100
AcDbLine
 10
301.0865674678013
 20
333.591882662764
 30
0.0
 11
301.0865674678013
 21
332.091882662764
 31
0.0
  0
LINE
  5
28A
330
75
100
AcDbEntity
  8
Visible (ISO)
100
AcDbLine
 10
330.0865674678013
 20
333.5918826627634
 30
0.0
 11
330.0865674678013
 21
332.0918826627634
 31
0.0
  0
LINE
  5
28B
330
75
100
AcDbEntity
  8
Visible (ISO)
100
AcDbLine
 10
342.0865674678012
 20
332.0918826627634
 30
0.0
 11
342.0865674678012
 21
333.5918826627634
 31
0.0
  0
LINE
  5
28C
330
75
100
AcDbEntity
  8
Visible (ISO)
100
AcDbLine
 10
328.0865674678012
 20
332.091882662764
 30
0.0
 11
328.0865674678013
 21
333.591882662764
 31
0.0
  0
ARC
  5
28D
330
75
100
AcDbEntity
  8
Visible (ISO)
100
AcDbCircle
 10
281.5865674678013
 20
334.5918826627678
 30
0.0
 40
2.499999999999998
100
AcDbArc
 50
180.0
 51
270.0
  0
LINE
  5
28E
330
75
100
AcDbEntity
  8
Visible (ISO)
100
AcDbLine
 10
299.0865674678013
 20
332.0918826627634
 30
0.0
 11
299.0865674678012
 21
333.5918826627634
 31
0.0
  0
LINE
  5
28F
330
75
100
AcDbEntity
  8
Visible (ISO)
100
AcDbLine
 10
287.0865674678012
 20
333.5918826627634
 30
0.0
 11
287.0865674678013
 21
332.0918826627633
 31
0.0
  0
LINE
  5
290
330
75
100
AcDbEntity
  8
Visible (ISO)
100
AcDbLine
 10
285.0865674678013
 20
332.091882662764
 30
0.0
 11
285.0865674678013
 21
333.591882662764
 31
0.0
  0
LINE
  5
291
330
75
100
AcDbEntity
  8
Visible (ISO)
100
AcDbLine
 10
344.0865674678013
 20
333.591882662764
 30
0.0
 11
344.0865674678013
 21
332.091882662764
 31
0.0
  0
ARC
  5
292
330
75
100
AcDbEntity
  8
Visible (ISO)
100
AcDbCircle
 10
281.5865674678013
 20
334.5918826627678
 30
0.0
 40
1.0
100
AcDbArc
 50
180.0
 51
270.0
  0
LINE
  5
293
330
75
100
AcDbEntity
  8
Visible (ISO)
100
AcDbLine
 10
279.0865674678012
 20
369.0918826627678
 30
0.0
 11
279.086567467801
 21
334.5918826627678
 31
0.0
  0
LINE
  5
294
330
75
100
AcDbEntity
  8
Visible (ISO)
100
AcDbLine
 10
280.5865674678011
 20
369.0918826627678
 30
0.0
 11
280.5865674678013
 21
334.5918826627678
 31
0.0
  0
LINE
  5
295
330
75
100
AcDbEntity
  8
Visible (ISO)
100
AcDbLine
 10
279.0865674678012
 20
369.0918826627678
 30
0.0
 11
280.5865674678011
 21
369.0918826627678
 31
0.0
  0
LINE
  5
296
330
75
100
AcDbEntity
  8
Visible (ISO)
100
AcDbLine
 10
280.8794606866148
 20
369.0918826627743
 30
0.0
 11
280.5865674678013
 21
369.0918826627741
 31
0.0
  0
LINE
  5
297
330
75
100
AcDbEntity
  8
Visible (ISO)
100
AcDbLine
 10
284.3543344207676
 20
369.0918826627754
 30
0.0
 11
280.8794606866147
 21
369.0918826627744
 31
0.0
  0
LINE
  5
298
330
75
100
AcDbEntity
  8
Visible (ISO)
100
AcDbLine
 10
284.3543344207676
 20
369.0918826627754
 30
0.0
 11
285.0865674678013
 21
369.0918826627759
 31
0.0
  0
LINE
  5
299
330
75
100
AcDbEntity
  8
Visible (ISO)
100
AcDbLine
 10
280.8794606866147
 20
346.5918826627744
 30
0.0
 11
280.5865674678012
 21
346.5918826627742
 31
0.0
  0
LINE
  5
29A
330
75
100
AcDbEntity
  8
Visible (ISO)
100
AcDbLine
 10
284.3543344207676
 20
346.5918826627754
 30
0.0
 11
280.8794606866147
 21
346.5918826627744
 31
0.0
  0
LINE
  5
29B
330
75
100
AcDbEntity
  8
Visible (ISO)
100
AcDbLine
 10
284.3543344207676
 20
346.5918826627754
 30
0.0
 11
285.0865674678012
 21
346.5918826627759
 31
0.0
  0
LINE
  5
29C
330
75
100
AcDbEntity
  8
Visible (ISO)
100
AcDbLine
 10
284.3543344207676
 20
339.0918826627754
 30
0.0
 11
285.0865674678012
 21
339.0918826627759
 31
0.0
  0
LINE
  5
29D
330
75
100
AcDbEntity
  8
Visible (ISO)
100
AcDbLine
 10
284.3543344207676
 20
339.0918826627754
 30
0.0
 11
280.8794606866147
 21
339.0918826627744
 31
0.0
  0
LINE
  5
29E
330
75
100
AcDbEntity
  8
Visible (ISO)
100
AcDbLine
 10
280.8794606866147
 20
339.0918826627744
 30
0.0
 11
280.5865674678012
 21
339.0918826627742
 31
0.0
  0
LINE
  5
29F
330
75
100
AcDbEntity
  8
Visible (ISO)
100
AcDbLine
 10
284.3543344207677
 20
361.5918826627754
 30
0.0
 11
285.0865674678013
 21
361.591882662776
 31
0.0
  0
LINE
  5
2A0
330
75
100
AcDbEntity
  8
Visible (ISO)
100
AcDbLine
 10
284.3543344207677
 20
361.5918826627754
 30
0.0
 11
280.8794606866148
 21
361.5918826627744
 31
0.0
  0
LINE
  5
2A1
330
75
100
AcDbEntity
  8
Visible (ISO)
100
AcDbLine
 10
280.8794606866148
 20
361.5918826627744
 30
0.0
 11
280.5865674678013
 21
361.5918826627742
 31
0.0
  0
LINE
  5
2A2
330
75
100
AcDbEntity
  8
Visible (ISO)
100
AcDbLine
 10
285.0865674678013
 20
361.591882662776
 30
0.0
 11
285.0865674678013
 21
369.0918826627759
 31
0.0
  0
LINE
  5
2A3
330
75
100
AcDbEntity
  8
Visible (ISO)
100
AcDbLine
 10
285.0865674678013
 20
339.091882662776
 30
0.0
 11
285.0865674678012
 21
346.591882662776
 31
0.0
  0
LINE
  5
2A4
330
75
100
AcDbEntity
  8
Hidden (ISO)
100
AcDbLine
 10
284.1250839483763
 20
62.54404761661984
 30
0.0
 11
284.1250839483763
 21
59.24404761661984
 31
0.0
  0
LINE
  5
2A5
330
75
100
AcDbEntity
  8
Hidden (ISO)
100
AcDbLine
 10
284.1250839483763
 20
85.04404761661986
 30
0.0
 11
284.1250839483763
 21
81.74404761661987
 31
0.0
  0
LINE
  5
2A6
330
75
100
AcDbEntity
  8
Hidden (ISO)
100
AcDbLine
 10
282.3865674676629
 20
62.54404761661984
 30
0.0
 11
284.1250839483763
 21
62.54404761661984
 31
0.0
  0
LINE
  5
2A7
330
75
100
AcDbEntity
  8
Hidden (ISO)
100
AcDbLine
 10
282.3865674676629
 20
59.24404761661984
 30
0.0
 11
284.1250839483763
 21
59.24404761661984
 31
0.0
  0
LINE
  5
2A8
330
75
100
AcDbEntity
  8
Hidden (ISO)
100
AcDbLine
 10
282.3865674676628
 20
85.04404761661986
 30
0.0
 11
284.1250839483763
 21
85.04404761661986
 31
0.0
  0
LINE
  5
2A9
330
75
100
AcDbEntity
  8
Hidden (ISO)
100
AcDbLine
 10
282.3865674676628
 20
81.74404761661984
 30
0.0
 11
284.1250839483763
 21
81.74404761661984
 31
0.0
  0
LINE
  5
2AA
330
75
100
AcDbEntity
  8
Hidden (ISO)
100
AcDbLine
 10
282.3865674676628
 20
81.14404761661985
 30
0.0
 11
282.3865674676628
 21
85.64404761661984
 31
0.0
  0
LINE
  5
2AB
330
75
100
AcDbEntity
  8
Hidden (ISO)
100
AcDbLine
 10
282.3865674676629
 20
58.64404761661986
 30
0.0
 11
282.3865674676629
 21
63.14404761661984
 31
0.0
  0
LINE
  5
2AC
330
75
100
AcDbEntity
  8
Hidden (ISO)
100
AcDbLine
 10
318.2865674676628
 20
92.64404761662829
 30
0.0
 11
318.2865674676628
 21
94.14404761662826
 31
0.0
  0
LINE
  5
2AD
330
75
100
AcDbEntity
  8
Hidden (ISO)
100
AcDbLine
 10
309.8865674676628
 20
92.64404761662829
 30
0.0
 11
309.8865674676628
 21
94.14404761662826
 31
0.0
  0
LINE
  5
2AE
330
75
100
AcDbEntity
  8
Hidden (ISO)
100
AcDbLine
 10
292.0865674676629
 20
92.6440476166074
 30
0.0
 11
292.0865674676629
 21
94.14404761660737
 31
0.0
  0
LINE
  5
2AF
330
75
100
AcDbEntity
  8
Hidden (ISO)
100
AcDbLine
 10
311.8865674676629
 20
92.64404761662607
 30
0.0
 11
311.8865674676629
 21
94.14404761662607
 31
0.0
  0
LINE
  5
2B0
330
75
100
AcDbEntity
  8
Hidden (ISO)
100
AcDbLine
 10
332.0865674676628
 20
92.64404761660737
 30
0.0
 11
332.0865674676628
 21
94.14404761660737
 31
0.0
  0
LINE
  5
2B1
330
75
100
AcDbEntity
  8
Hidden (ISO)
100
AcDbLine
 10
340.0865674676629
 20
92.64404761660737
 30
0.0
 11
340.0865674676629
 21
94.14404761660737
 31
0.0
  0
LINE
  5
2B2
330
75
100
AcDbEntity
  8
Hidden (ISO)
100
AcDbLine
 10
300.0865674676628
 20
92.6440476166074
 30
0.0
 11
300.0865674676628
 21
94.14404761660737
 31
0.0
  0
LINE
  5
2B3
330
75
100
AcDbEntity
  8
Hidden (ISO)
100
AcDbLine
 10
316.2865674676628
 20
92.64404761662607
 30
0.0
 11
316.2865674676628
 21
94.14404761662607
 31
0.0
  0
LINE
  5
2B4
330
75
100
AcDbEntity
  8
Hidden (ISO)
100
AcDbLine
 10
280.5865674676627
 20
66.64404761662428
 30
0.0
 11
279.0865674676628
 21
66.64404761662428
 31
0.0
  0
LINE
  5
2B5
330
75
100
AcDbEntity
  8
Hidden (ISO)
100
AcDbLine
 10
280.5865674676627
 20
64.64404761662428
 30
0.0
 11
279.0865674676627
 21
64.64404761662428
 31
0.0
  0
LINE
  5
2B6
330
75
100
AcDbEntity
  8
Hidden (ISO)
100
AcDbLine
 10
280.5865674676628
 20
87.14404761662429
 30
0.0
 11
279.0865674676628
 21
87.14404761662429
 31
0.0
  0
LINE
  5
2B7
330
75
100
AcDbEntity
  8
Hidden (ISO)
100
AcDbLine
 10
280.5865674676628
 20
89.14404761662428
 30
0.0
 11
279.0865674676628
 21
89.14404761662428
 31
0.0
  0
LINE
  5
2B8
330
75
100
AcDbEntity
  8
Hidden (ISO)
100
AcDbLine
 10
280.5865674676628
 20
79.64404761662428
 30
0.0
 11
279.0865674676628
 21
79.64404761662429
 31
0.0
  0
LINE
  5
2B9
330
75
100
AcDbEntity
  8
Hidden (ISO)
100
AcDbLine
 10
280.5865674676628
 20
77.64404761662428
 30
0.0
 11
279.0865674676628
 21
77.64404761662428
 31
0.0
  0
LINE
  5
2BA
330
75
100
AcDbEntity
  8
Hidden (ISO)
100
AcDbLine
 10
283.5865674676629
 20
64.64404761662162
 30
0.0
 11
283.5865674676629
 21
57.1440476166216
 31
0.0
  0
LINE
  5
2BB
330
75
100
AcDbEntity
  8
Hidden (ISO)
100
AcDbLine
 10
283.5865674676628
 20
87.14404761662164
 30
0.0
 11
283.5865674676627
 21
79.64404761662163
 31
0.0
  0
LINE
  5
2BC
330
75
100
AcDbEntity
  8
Hidden (ISO)
100
AcDbLine
 10
283.5865674676628
 20
81.14404761661987
 30
0.0
 11
282.3865674676628
 21
81.14404761661987
 31
0.0
  0
LINE
  5
2BD
330
75
100
AcDbEntity
  8
Hidden (ISO)
100
AcDbLine
 10
283.5865674676628
 20
85.64404761661988
 30
0.0
 11
282.3865674676629
 21
85.64404761661988
 31
0.0
  0
LINE
  5
2BE
330
75
100
AcDbEntity
  8
Hidden (ISO)
100
AcDbLine
 10
283.5865674676629
 20
58.64404761661987
 30
0.0
 11
282.3865674676629
 21
58.64404761661987
 31
0.0
  0
LINE
  5
2BF
330
75
100
AcDbEntity
  8
Hidden (ISO)
100
AcDbLine
 10
283.5865674676629
 20
63.14404761661986
 30
0.0
 11
282.3865674676629
 21
63.14404761661986
 31
0.0
  0
LINE
  5
2C0
330
75
100
AcDbEntity
  8
Hidden (ISO)
100
AcDbLine
 10
311.8365674676628
 20
92.64404761661124
 30
0.0
 11
311.8365674676628
 21
94.14404761661122
 31
0.0
  0
LINE
  5
2C1
330
75
100
AcDbEntity
  8
Hidden (ISO)
100
AcDbLine
 10
316.3365674676628
 20
92.64404761661124
 30
0.0
 11
316.3365674676628
 21
94.14404761661122
 31
0.0
  0
LINE
  5
2C2
330
75
100
AcDbEntity
  8
Hidden (ISO)
100
AcDbLine
 10
290.4865674676628
 20
92.64404761663262
 30
0.0
 11
290.4865674676628
 21
94.14404761663263
 31
0.0
  0
LINE
  5
2C3
330
75
100
AcDbEntity
  8
Hidden (ISO)
100
AcDbLine
 10
295.6865674676628
 20
92.64404761663262
 30
0.0
 11
295.6865674676628
 21
94.14404761663263
 31
0.0
  0
LINE
  5
2C4
330
75
100
AcDbEntity
  8
Hidden (ISO)
100
AcDbLine
 10
294.7365674676628
 20
92.64404761661984
 30
0.0
 11
294.7365674676628
 21
94.14404761661984
 31
0.0
  0
LINE
  5
2C5
330
75
100
AcDbEntity
  8
Hidden (ISO)
100
AcDbLine
 10
297.4365674676628
 20
92.64404761661984
 30
0.0
 11
297.4365674676628
 21
94.14404761661984
 31
0.0
  0
LINE
  5
2C6
330
75
100
AcDbEntity
  8
Hidden (ISO)
100
AcDbLine
 10
333.4865674676628
 20
92.64404761663262
 30
0.0
 11
333.4865674676628
 21
94.14404761663263
 31
0.0
  0
LINE
  5
2C7
330
75
100
AcDbEntity
  8
Hidden (ISO)
100
AcDbLine
 10
338.6865674676628
 20
92.64404761663262
 30
0.0
 11
338.6865674676628
 21
94.14404761663263
 31
0.0
  0
LINE
  5
2C8
330
75
100
AcDbEntity
  8
Hidden (ISO)
100
AcDbLine
 10
334.7365674676628
 20
92.64404761661984
 30
0.0
 11
334.7365674676628
 21
94.14404761661984
 31
0.0
  0
LINE
  5
2C9
330
75
100
AcDbEntity
  8
Hidden (ISO)
100
AcDbLine
 10
337.4365674676628
 20
92.64404761661984
 30
0.0
 11
337.4365674676628
 21
94.14404761661984
 31
0.0
  0
ARC
  5
2CA
330
75
100
AcDbEntity
  8
Hidden (ISO)
100
AcDbCircle
 10
283.5865674676629
 20
57.84404761661985
 30
0.0
 40
1.5
100
AcDbArc
 50
0.0
 51
68.96053021868173
  0
ARC
  5
2CB
330
75
100
AcDbEntity
  8
Hidden (ISO)
100
AcDbCircle
 10
283.5865674676629
 20
63.94404761661984
 30
0.0
 40
1.5
100
AcDbArc
 50
291.039469781318
 51
0.0
  0
ARC
  5
2CC
330
75
100
AcDbEntity
  8
Hidden (ISO)
100
AcDbCircle
 10
283.5865674676628
 20
80.34404761661987
 30
0.0
 40
1.5
100
AcDbArc
 50
0.0
 51
68.96053021868197
  0
ARC
  5
2CD
330
75
100
AcDbEntity
  8
Hidden (ISO)
100
AcDbCircle
 10
283.5865674676628
 20
86.44404761661986
 30
0.0
 40
1.5
100
AcDbArc
 50
291.0394697813183
 51
0.0
  0
LINE
  5
2CE
330
75
100
AcDbEntity
  8
Visible (ISO)
100
AcDbLine
 10
328.0865674676628
 20
94.14404761663099
 30
0.0
 11
301.0865674676628
 21
94.14404761663099
 31
0.0
  0
LINE
  5
2CF
330
75
100
AcDbEntity
  8
Visible (ISO)
100
AcDbLine
 10
328.0865674676628
 20
92.64404761663099
 30
0.0
 11
301.0865674676628
 21
92.64404761663099
 31
0.0
  0
LINE
  5
2D0
330
75
100
AcDbEntity
  8
Visible (ISO)
100
AcDbLine
 10
285.0865674676628
 20
94.14404761662966
 30
0.0
 11
281.5865674676628
 21
94.14404761662966
 31
0.0
  0
LINE
  5
2D1
330
75
100
AcDbEntity
  8
Visible (ISO)
100
AcDbLine
 10
285.0865674676628
 20
94.14404761663352
 30
0.0
 11
287.0865674676628
 21
94.14404761663412
 31
0.0
  0
LINE
  5
2D2
330
75
100
AcDbEntity
  8
Visible (ISO)
100
AcDbLine
 10
299.0865674676628
 20
94.14404761663412
 30
0.0
 11
287.0865674676628
 21
94.14404761663412
 31
0.0
  0
LINE
  5
2D3
330
75
100
AcDbEntity
  8
Visible (ISO)
100
AcDbLine
 10
299.0865674676628
 20
94.14404761663412
 30
0.0
 11
301.0865674676628
 21
94.14404761663352
 31
0.0
  0
LINE
  5
2D4
330
75
100
AcDbEntity
  8
Visible (ISO)
100
AcDbLine
 10
328.0865674676628
 20
94.14404761663352
 30
0.0
 11
330.0865674676629
 21
94.14404761663412
 31
0.0
  0
LINE
  5
2D5
330
75
100
AcDbEntity
  8
Visible (ISO)
100
AcDbLine
 10
342.0865674676628
 20
94.1440476166341
 30
0.0
 11
330.0865674676629
 21
94.14404761663412
 31
0.0
  0
LINE
  5
2D6
330
75
100
AcDbEntity
  8
Visible (ISO)
100
AcDbLine
 10
342.0865674676628
 20
94.1440476166341
 30
0.0
 11
344.0865674676628
 21
94.14404761663352
 31
0.0
  0
LINE
  5
2D7
330
75
100
AcDbEntity
  8
Visible (ISO)
100
AcDbLine
 10
344.0865674676628
 20
92.64404761663351
 30
0.0
 11
342.0865674676628
 21
92.64404761663412
 31
0.0
  0
LINE
  5
2D8
330
75
100
AcDbEntity
  8
Visible (ISO)
100
AcDbLine
 10
342.0865674676628
 20
92.64404761663412
 30
0.0
 11
330.0865674676629
 21
92.64404761663412
 31
0.0
  0
LINE
  5
2D9
330
75
100
AcDbEntity
  8
Visible (ISO)
100
AcDbLine
 10
330.0865674676629
 20
92.64404761663412
 30
0.0
 11
328.0865674676628
 21
92.64404761663351
 31
0.0
  0
LINE
  5
2DA
330
75
100
AcDbEntity
  8
Visible (ISO)
100
AcDbLine
 10
301.0865674676628
 20
92.64404761663351
 30
0.0
 11
299.0865674676628
 21
92.64404761663412
 31
0.0
  0
LINE
  5
2DB
330
75
100
AcDbEntity
  8
Visible (ISO)
100
AcDbLine
 10
299.0865674676628
 20
92.64404761663412
 30
0.0
 11
287.0865674676628
 21
92.64404761663412
 31
0.0
  0
LINE
  5
2DC
330
75
100
AcDbEntity
  8
Visible (ISO)
100
AcDbLine
 10
287.0865674676628
 20
92.64404761663412
 30
0.0
 11
285.0865674676628
 21
92.64404761663355
 31
0.0
  0
LINE
  5
2DD
330
75
100
AcDbEntity
  8
Visible (ISO)
100
AcDbLine
 10
285.0865674676628
 20
92.64404761662966
 30
0.0
 11
281.5865674676628
 21
92.64404761662966
 31
0.0
  0
LINE
  5
2DE
330
75
100
AcDbEntity
  8
Visible (ISO)
100
AcDbLine
 10
328.0865674676628
 20
92.64404761663351
 30
0.0
 11
328.0865674676628
 21
94.14404761663352
 31
0.0
  0
LINE
  5
2DF
330
75
100
AcDbEntity
  8
Visible (ISO)
100
AcDbLine
 10
301.0865674676628
 20
94.14404761663352
 30
0.0
 11
301.0865674676628
 21
92.64404761663351
 31
0.0
  0
LINE
  5
2E0
330
75
100
AcDbEntity
  8
Visible (ISO)
100
AcDbLine
 10
299.0865674676628
 20
92.64404761663412
 30
0.0
 11
299.0865674676628
 21
94.14404761663412
 31
0.0
  0
LINE
  5
2E1
330
75
100
AcDbEntity
  8
Visible (ISO)
100
AcDbLine
 10
287.0865674676628
 20
94.14404761663412
 30
0.0
 11
287.0865674676628
 21
92.64404761663412
 31
0.0
  0
LINE
  5
2E2
330
75
100
AcDbEntity
  8
Visible (ISO)
100
AcDbLine
 10
330.0865674676629
 20
94.14404761663412
 30
0.0
 11
330.0865674676629
 21
92.64404761663412
 31
0.0
  0
LINE
  5
2E3
330
75
100
AcDbEntity
  8
Visible (ISO)
100
AcDbLine
 10
342.0865674676628
 20
92.64404761663412
 30
0.0
 11
342.0865674676628
 21
94.1440476166341
 31
0.0
  0
LINE
  5
2E4
330
75
100
AcDbEntity
  8
Visible (ISO)
100
AcDbLine
 10
285.0865674676628
 20
92.64404761663355
 30
0.0
 11
285.0865674676628
 21
94.14404761663352
 31
0.0
  0
ARC
  5
2E5
330
75
100
AcDbEntity
  8
Visible (ISO)
100
AcDbCircle
 10
281.5865674676628
 20
91.64404761662966
 30
0.0
 40
2.499999999999999
100
AcDbArc
 50
90.0
 51
180.0
  0
LINE
  5
2E6
330
75
100
AcDbEntity
  8
Visible (ISO)
100
AcDbLine
 10
344.0865674676628
 20
94.14404761663352
 30
0.0
 11
344.0865674676628
 21
92.64404761663351
 31
0.0
  0
ARC
  5
2E7
330
75
100
AcDbEntity
  8
Visible (ISO)
100
AcDbCircle
 10
281.5865674676628
 20
91.64404761662966
 30
0.0
 40
1.000000000000001
100
AcDbArc
 50
90.0
 51
180.0
  0
LINE
  5
2E8
330
75
100
AcDbEntity
  8
Visible (ISO)
100
AcDbLine
 10
279.0865674676627
 20
57.14404761662969
 30
0.0
 11
279.0865674676628
 21
91.64404761662968
 31
0.0
  0
LINE
  5
2E9
330
75
100
AcDbEntity
  8
Visible (ISO)
100
AcDbLine
 10
280.5865674676627
 20
57.14404761662968
 30
0.0
 11
280.5865674676628
 21
91.64404761662966
 31
0.0
  0
LINE
  5
2EA
330
75
100
AcDbEntity
  8
Visible (ISO)
100
AcDbLine
 10
280.5865674676627
 20
57.14404761662968
 30
0.0
 11
279.0865674676627
 21
57.14404761662969
 31
0.0
  0
LINE
  5
2EB
330
75
100
AcDbEntity
  8
Visible (ISO)
100
AcDbLine
 10
280.8794606864763
 20
64.64404761662317
 30
0.0
 11
280.5865674676629
 21
64.64404761662338
 31
0.0
  0
LINE
  5
2EC
330
75
100
AcDbEntity
  8
Visible (ISO)
100
AcDbLine
 10
284.3543344206292
 20
64.64404761662215
 30
0.0
 11
280.8794606864763
 21
64.64404761662319
 31
0.0
  0
LINE
  5
2ED
330
75
100
AcDbEntity
  8
Visible (ISO)
100
AcDbLine
 10
284.3543344206292
 20
64.64404761662215
 30
0.0
 11
285.0865674676628
 21
64.64404761662163
 31
0.0
  0
LINE
  5
2EE
330
75
100
AcDbEntity
  8
Visible (ISO)
100
AcDbLine
 10
280.8794606864763
 20
87.1440476166232
 30
0.0
 11
280.5865674676628
 21
87.1440476166234
 31
0.0
  0
LINE
  5
2EF
330
75
100
AcDbEntity
  8
Visible (ISO)
100
AcDbLine
 10
284.3543344206291
 20
87.14404761662214
 30
0.0
 11
280.8794606864763
 21
87.1440476166232
 31
0.0
  0
LINE
  5
2F0
330
75
100
AcDbEntity
  8
Visible (ISO)
100
AcDbLine
 10
284.3543344206291
 20
87.14404761662216
 30
0.0
 11
285.0865674676628
 21
87.14404761662164
 31
0.0
  0
LINE
  5
2F1
330
75
100
AcDbEntity
  8
Visible (ISO)
100
AcDbLine
 10
284.3543344206292
 20
57.14404761662216
 30
0.0
 11
285.0865674676628
 21
57.14404761662165
 31
0.0
  0
LINE
  5
2F2
330
75
100
AcDbEntity
  8
Visible (ISO)
100
AcDbLine
 10
284.3543344206292
 20
57.14404761662215
 30
0.0
 11
280.8794606864763
 21
57.14404761662319
 31
0.0
  0
LINE
  5
2F3
330
75
100
AcDbEntity
  8
Visible (ISO)
100
AcDbLine
 10
280.8794606864763
 20
57.14404761662319
 30
0.0
 11
280.5865674676628
 21
57.1440476166234
 31
0.0
  0
LINE
  5
2F4
330
75
100
AcDbEntity
  8
Visible (ISO)
100
AcDbLine
 10
284.3543344206291
 20
79.64404761662215
 30
0.0
 11
285.0865674676628
 21
79.64404761662163
 31
0.0
  0
LINE
  5
2F5
330
75
100
AcDbEntity
  8
Visible (ISO)
100
AcDbLine
 10
284.3543344206291
 20
79.64404761662215
 30
0.0
 11
280.8794606864762
 21
79.64404761662319
 31
0.0
  0
LINE
  5
2F6
330
75
100
AcDbEntity
  8
Visible (ISO)
100
AcDbLine
 10
280.8794606864762
 20
79.64404761662319
 30
0.0
 11
280.5865674676628
 21
79.6440476166234
 31
0.0
  0
LINE
  5
2F7
330
75
100
AcDbEntity
  8
Visible (ISO)
100
AcDbLine
 10
285.0865674676628
 20
64.64404761662162
 30
0.0
 11
285.0865674676628
 21
57.1440476166216
 31
0.0
  0
LINE
  5
2F8
330
75
100
AcDbEntity
  8
Visible (ISO)
100
AcDbLine
 10
285.0865674676628
 20
87.14404761662164
 30
0.0
 11
285.0865674676628
 21
79.64404761662162
 31
0.0
  0
ELLIPSE
  5
2F9
330
75
100
AcDbEntity
  8
Visible (ISO)
100
AcDbEllipse
 10
75.85892548550273
 20
207.3878385074948
 30
0.0
 11
0.8234031491138999
 21
1.429862669639748
 31
0.0
210
0.0
220
0.0
230
1.0
 40
0.5780931159156393
 41
2.881066455884216
 42
6.543711504885187
  0
ELLIPSE
  5
2FA
330
75
100
AcDbEntity
  8
Visible (ISO)
100
AcDbEllipse
 10
74.62960869278552
 20
208.0957549667985
 30
0.0
 11
0.8234031491138063
 21
1.429862669639783
 31
0.0
210
0.0
220
0.0
230
1.0
 40
0.5780931159156392
 41
4.170364932779365
 42
5.254413027989782
  0
ELLIPSE
  5
2FB
330
75
100
AcDbEntity
  8
Visible (ISO)
100
AcDbEllipse
 10
59.94902290880782
 20
198.2259349471658
 30
0.0
 11
0.8234031491139026
 21
1.429862669639752
 31
0.0
210
0.0
220
0.0
230
1.0
 40
0.5780931159156394
 41
2.881066455884223
 42
6.543711504885179
  0
ELLIPSE
  5
2FC
330
75
100
AcDbEntity
  8
Visible (ISO)
100
AcDbEllipse
 10
58.71970611609061
 20
198.9338514064695
 30
0.0
 11
0.8234031491138171
 21
1.429862669639802
 31
0.0
210
0.0
220
0.0
230
1.0
 40
0.5780931159156392
 41
4.170364932779365
 42
5.25441302798978
  0
ELLIPSE
  5
2FD
330
75
100
AcDbEntity
  8
Visible (ISO)
100
AcDbEllipse
 10
59.94902290880784
 20
237.9587252145133
 30
0.0
 11
0.8234031491139019
 21
1.429862669639751
 31
0.0
210
0.0
220
0.0
230
1.0
 40
0.5780931159156392
 41
2.881066455884216
 42
6.543711504885178
  0
ELLIPSE
  5
2FE
330
75
100
AcDbEntity
  8
Visible (ISO)
100
AcDbEllipse
 10
58.71970611609063
 20
238.666641673817
 30
0.0
 11
0.8234031491138093
 21
1.429862669639788
 31
0.0
210
0.0
220
0.0
230
0.9999999999999998
 40
0.5780931159156393
 41
4.17036493277936
 42
5.25441302798978
  0
ELLIPSE
  5
2FF
330
75
100
AcDbEntity
  8
Visible (ISO)
100
AcDbEllipse
 10
75.85892548550273
 20
247.1206287748422
 30
0.0
 11
0.8234031491139013
 21
1.42986266963975
 31
0.0
210
0.0
220
0.0
230
1.0
 40
0.5780931159156392
 41
2.881066455884223
 42
6.54371150488517
  0
ELLIPSE
  5
300
330
75
100
AcDbEntity
  8
Visible (ISO)
100
AcDbEllipse
 10
74.62960869278553
 20
247.8285452341459
 30
0.0
 11
0.8234031491138086
 21
1.429862669639788
 31
0.0
210
0.0
220
0.0
230
0.9999999999999998
 40
0.578093115915639
 41
4.170364932779358
 42
5.25441302798978
  0
LINE
  5
301
330
75
100
AcDbEntity
  8
Visible (ISO)
100
AcDbLine
 10
113.4851263189901
 20
264.947620501875
 30
0.0
 11
95.45390339873021
 21
275.3311112035782
 31
0.0
  0
LINE
  5
302
330
75
100
AcDbEntity
  8
Visible (ISO)
100
AcDbLine
 10
94.39324322695055
 20
274.7203176328896
 30
0.0
 11
95.45390339873021
 21
275.3311112035782
 31
0.0
  0
LINE
  5
303
330
75
100
AcDbEntity
  8
Visible (ISO)
100
AcDbLine
 10
113.4851263189901
 20
263.7260333604982
 30
0.0
 11
94.39324322695052
 21
274.7203176328896
 31
0.0
  0
LINE
  5
304
330
75
100
AcDbEntity
  8
Visible (ISO)
100
AcDbLine
 10
95.45390339873016
 20
167.0061171619416
 30
0.0
 11
95.45390339873016
 21
172.7336805817264
 31
0.0
  0
LINE
  5
305
330
75
100
AcDbEntity
  8
Visible (ISO)
100
AcDbLine
 10
95.45390339873016
 20
167.0061171619416
 30
0.0
 11
94.03968983635683
 21
166.1854143398411
 31
0.0
  0
LINE
  5
306
330
75
100
AcDbEntity
  8
Visible (ISO)
100
AcDbLine
 10
83.07953472796407
 20
278.7780741331514
 30
0.0
 11
81.66532116559046
 21
279.5924655607361
 31
0.0
  0
LINE
  5
307
330
75
100
AcDbEntity
  8
Visible (ISO)
100
AcDbLine
 10
94.03968983635691
 20
284.7297474420094
 30
0.0
 11
85.55440846211707
 21
289.6160960075167
 31
0.0
  0
LINE
  5
308
330
75
100
AcDbEntity
  8
Visible (ISO)
100
AcDbLine
 10
94.03968983635691
 20
284.7297474420094
 30
0.0
 11
95.45390339873021
 21
282.2802617647397
 31
0.0
  0
LINE
  5
309
330
75
100
AcDbEntity
  8
Visible (ISO)
100
AcDbLine
 10
95.45390339873021
 20
275.3311112035782
 30
0.0
 11
95.45390339873021
 21
282.2802617647397
 31
0.0
  0
LINE
  5
30A
330
75
100
AcDbEntity
  8
Visible (ISO)
100
AcDbLine
 10
124.4452814273829
 20
267.2203317489417
 30
0.0
 11
115.9600000531431
 21
272.1066803144489
 31
0.0
  0
LINE
  5
30B
330
75
100
AcDbEntity
  8
Visible (ISO)
100
AcDbLine
 10
124.4452814273829
 20
267.2203317489417
 30
0.0
 11
125.8594949897562
 21
264.770846071672
 31
0.0
  0
LINE
  5
30C
330
75
100
AcDbEntity
  8
Visible (ISO)
100
AcDbLine
 10
125.8594949897562
 20
149.4967014688739
 30
0.0
 11
125.8594949897562
 21
264.770846071672
 31
0.0
  0
LINE
  5
30D
330
75
100
AcDbEntity
  8
Visible (ISO)
100
AcDbLine
 10
125.8594949897562
 20
149.4967014688739
 30
0.0
 11
124.4452814273829
 21
148.6759986467733
 31
0.0
  0
ELLIPSE
  5
30E
330
75
100
AcDbEntity
  8
Visible (ISO)
100
AcDbEllipse
 10
89.79704914923695
 20
283.0851861005503
 30
0.0
 11
-1.29748375011932
 21
2.253116933977538
 31
0.0
210
0.0
220
0.0
230
0.9999999999999998
 40
0.5780931159158107
 41
0.4193421108859355
 42
2.722250542704692
  0
ELLIPSE
  5
30F
330
75
100
AcDbEntity
  8
Visible (ISO)
100
AcDbEllipse
 10
120.202640740263
 20
265.5757704074825
 30
0.0
 11
-1.297483750119319
 21
2.253116933977537
 31
0.0
210
0.0
220
0.0
230
1.0
 40
0.5780931159158106
 41
0.4193421108859346
 42
2.722250542704692
  0
ELLIPSE
  5
310
330
75
100
AcDbEntity
  8
Visible (ISO)
100
AcDbEllipse
 10
120.202640740263
 20
155.2069085537397
 30
0.0
 11
-1.297483750119322
 21
2.253116933977542
 31
0.0
210
0.0
220
0.0
230
1.0
 40
0.5780931159158106
 41
0.4193421108859435
 42
2.722250542704692
  0
LINE
  5
311
330
75
100
AcDbEntity
  8
Visible (ISO)
100
AcDbLine
 10
89.08994236805032
 20
212.4720630792711
 30
0.0
 11
89.08994236805032
 21
212.7220607626108
 31
0.0
  0
LINE
  5
312
330
75
100
AcDbEntity
  8
Visible (ISO)
100
AcDbLine
 10
93.68613644576386
 20
209.8252909396211
 30
0.0
 11
89.08994236805032
 21
212.4720630792711
 31
0.0
  0
LINE
  5
313
330
75
100
AcDbEntity
  8
Visible (ISO)
100
AcDbLine
 10
117.3742136155164
 20
196.1842345275801
 30
0.0
 11
117.3742136155164
 21
196.4342322109199
 31
0.0
  0
LINE
  5
314
330
75
100
AcDbEntity
  8
Visible (ISO)
100
AcDbLine
 10
121.9704076932299
 20
193.5374623879302
 30
0.0
 11
117.3742136155164
 21
196.1842345275801
 31
0.0
  0
ELLIPSE
  5
315
330
75
100
AcDbEntity
  8
Visible (ISO)
100
AcDbEllipse
 10
91.91836949279693
 20
246.62731787846
 30
0.0
 11
-0.6736934856388723
 21
1.169887638796019
 31
0.0
210
0.0
220
0.0
230
1.0
 40
0.5780931159158107
 41
0.9013402729254016
 42
2.240252380664738
  0
ELLIPSE
  5
316
330
75
100
AcDbEntity
  8
Visible (ISO)
100
AcDbEllipse
 10
91.91836949279691
 20
206.8945276111125
 30
0.0
 11
-0.6736934856388767
 21
1.169887638796027
 31
0.0
210
0.0
220
0.0
230
0.9999999999999998
 40
0.5780931159158106
 41
0.9013402729254096
 42
2.240252380664756
  0
ELLIPSE
  5
317
330
75
100
AcDbEntity
  8
Visible (ISO)
100
AcDbEllipse
 10
120.202640740263
 20
230.3394893267691
 30
0.0
 11
-0.6736934856388794
 21
1.169887638796031
 31
0.0
210
0.0
220
0.0
230
0.9999999999999998
 40
0.5780931159158106
 41
0.9013402729254087
 42
2.240252380664738
  0
ELLIPSE
  5
318
330
75
100
AcDbEntity
  8
Visible (ISO)
100
AcDbEllipse
 10
120.202640740263
 20
190.6066990594216
 30
0.0
 11
-0.6736934856388714
 21
1.169887638796018
 31
0.0
210
0.0
220
0.0
230
1.0
 40
0.5780931159158106
 41
0.9013402729254025
 42
2.240252380664738
  0
ELLIPSE
  5
319
330
75
100
AcDbEntity
  8
Visible (ISO)
100
AcDbEllipse
 10
104.6462915541566
 20
215.5889284097654
 30
0.0
 11
-1.122822476064793
 21
1.949812731326711
 31
0.0
210
0.0
220
0.0
230
0.9999999999999998
 40
0.5780931159158108
 41
0.4898523421849621
 42
2.651740311405601
  0
LINE
  5
31A
330
75
100
AcDbEntity
  8
Visible (ISO)
100
AcDbLine
 10
103.090656635546
 20
191.7948358098637
 30
0.0
 11
103.090656635546
 21
194.1704560177941
 31
0.0
  0
LINE
  5
31B
330
75
100
AcDbEntity
  8
Visible (ISO)
100
AcDbLine
 10
105.1412663009876
 20
190.613968239866
 30
0.0
 11
103.090656635546
 21
191.7948358098637
 31
0.0
  0
LINE
  5
31C
330
75
100
AcDbEntity
  8
Visible (ISO)
100
AcDbLine
 10
101.6764430731727
 20
205.0359435350549
 30
0.0
 11
101.6764430731727
 21
208.2291108678278
 31
0.0
  0
LINE
  5
31D
330
75
100
AcDbEntity
  8
Visible (ISO)
100
AcDbLine
 10
103.090656635546
 20
202.5864578577853
 30
0.0
 11
101.6764430731727
 21
205.0359435350549
 31
0.0
  0
LINE
  5
31E
330
75
100
AcDbEntity
  8
Visible (ISO)
100
AcDbLine
 10
103.090656635546
 20
197.027137408856
 30
0.0
 11
103.090656635546
 21
202.5864578577853
 31
0.0
  0
LINE
  5
31F
330
75
100
AcDbEntity
  8
Visible (ISO)
100
AcDbLine
 10
105.1412663009876
 20
195.8462698388582
 30
0.0
 11
103.090656635546
 21
197.027137408856
 31
0.0
  0
LINE
  5
320
330
75
100
AcDbEntity
  8
Visible (ISO)
100
AcDbLine
 10
101.6764430731727
 20
259.8116008995051
 30
0.0
 11
101.6764430731727
 21
263.004768232278
 31
0.0
  0
LINE
  5
321
330
75
100
AcDbEntity
  8
Visible (ISO)
100
AcDbLine
 10
103.090656635546
 20
257.3621152222354
 30
0.0
 11
101.6764430731727
 21
259.8116008995051
 31
0.0
  0
LINE
  5
322
330
75
100
AcDbEntity
  8
Visible (ISO)
100
AcDbLine
 10
103.090656635546
 20
251.8027947733062
 30
0.0
 11
103.090656635546
 21
257.3621152222354
 31
0.0
  0
LINE
  5
323
330
75
100
AcDbEntity
  8
Visible (ISO)
100
AcDbLine
 10
105.1412663009876
 20
250.6219272033084
 30
0.0
 11
103.090656635546
 21
251.8027947733062
 31
0.0
  0
ELLIPSE
  5
324
330
75
100
AcDbEntity
  8
Visible (ISO)
100
AcDbEllipse
 10
89.79704914923692
 20
172.8798336717759
 30
0.0
 11
-1.29748375011932
 21
2.253116933977538
 31
0.0
210
0.0
220
0.0
230
0.9999999999999998
 40
0.5780931159158107
 41
0.4193421108859355
 42
2.722250542704692
  0
LINE
  5
325
330
75
100
AcDbEntity
  8
Visible (ISO)
100
AcDbLine
 10
113.4851263189901
 20
162.3501898800232
 30
0.0
 11
113.4851263189901
 21
155.4010393188616
 31
0.0
  0
LINE
  5
326
330
75
100
AcDbEntity
  8
Visible (ISO)
100
AcDbLine
 10
113.4851263189901
 20
155.4010393188616
 30
0.0
 11
114.8993398813634
 21
152.951553641592
 31
0.0
  0
LINE
  5
327
330
75
100
AcDbEntity
  8
Visible (ISO)
100
AcDbLine
 10
114.8993398813634
 20
152.951553641592
 30
0.0
 11
123.3846212556032
 21
148.0652050760847
 31
0.0
  0
LINE
  5
328
330
75
100
AcDbEntity
  8
Visible (ISO)
100
AcDbLine
 10
123.3846212556032
 20
148.0652050760847
 30
0.0
 11
124.7988348179765
 21
148.8859078981852
 31
0.0
  0
LINE
  5
329
330
75
100
AcDbEntity
  8
Visible (ISO)
100
AcDbLine
 10
124.7988348179765
 20
148.8859078981852
 30
0.0
 11
124.7988348179766
 21
264.1600525009834
 31
0.0
  0
LINE
  5
32A
330
75
100
AcDbEntity
  8
Visible (ISO)
100
AcDbLine
 10
124.7988348179766
 20
264.1600525009834
 30
0.0
 11
123.3846212556032
 21
266.609538178253
 31
0.0
  0
LINE
  5
32B
330
75
100
AcDbEntity
  8
Visible (ISO)
100
AcDbLine
 10
123.3846212556032
 20
266.609538178253
 30
0.0
 11
114.8993398813634
 21
271.4958867437604
 31
0.0
  0
LINE
  5
32C
330
75
100
AcDbEntity
  8
Visible (ISO)
100
AcDbLine
 10
114.8993398813634
 20
271.4958867437604
 30
0.0
 11
113.4851263189901
 21
270.6751839216598
 31
0.0
  0
LINE
  5
32D
330
75
100
AcDbEntity
  8
Visible (ISO)
100
AcDbLine
 10
113.4851263189901
 20
270.6751839216598
 30
0.0
 11
113.4851263189901
 21
263.7260333604982
 31
0.0
  0
LINE
  5
32E
330
75
100
AcDbEntity
  8
Visible (ISO)
100
AcDbLine
 10
94.39324322695055
 20
274.7203176328896
 30
0.0
 11
94.39324322695055
 21
281.6694681940512
 31
0.0
  0
LINE
  5
32F
330
75
100
AcDbEntity
  8
Visible (ISO)
100
AcDbLine
 10
94.39324322695055
 20
281.6694681940512
 30
0.0
 11
92.97902966457725
 21
284.1189538713208
 31
0.0
  0
LINE
  5
330
330
75
100
AcDbEntity
  8
Visible (ISO)
100
AcDbLine
 10
92.97902966457725
 20
284.1189538713208
 30
0.0
 11
84.49374829033738
 21
289.0053024368281
 31
0.0
  0
LINE
  5
331
330
75
100
AcDbEntity
  8
Visible (ISO)
100
AcDbLine
 10
84.49374829033738
 20
289.0053024368281
 30
0.0
 11
83.07953472796407
 21
288.1845996147275
 31
0.0
  0
LINE
  5
332
330
75
100
AcDbEntity
  8
Visible (ISO)
100
AcDbLine
 10
83.07953472796407
 20
288.1845996147275
 30
0.0
 11
83.07953472796407
 21
277.5564869917746
 31
0.0
  0
LINE
  5
333
330
75
100
AcDbEntity
  8
Visible (ISO)
100
AcDbLine
 10
83.07953472796407
 20
277.5564869917746
 30
0.0
 11
80.60466099381079
 21
278.9816719900475
 31
0.0
  0
LINE
  5
334
330
75
100
AcDbEntity
  8
Visible Narrow (ISO)
100
AcDbLine
 10
80.60466099381077
 20
184.9637526331553
 30
0.0
 11
80.60466099381079
 21
278.9816719900475
 31
0.0
  0
LINE
  5
335
330
75
100
AcDbEntity
  8
Visible (ISO)
100
AcDbLine
 10
80.60466099381077
 20
184.9637526331553
 30
0.0
 11
83.07953472796405
 21
183.5385676348824
 31
0.0
  0
LINE
  5
336
330
75
100
AcDbEntity
  8
Visible (ISO)
100
AcDbLine
 10
83.07953472796405
 20
183.5385676348824
 30
0.0
 11
83.07953472796405
 21
172.9104550119293
 31
0.0
  0
LINE
  5
337
330
75
100
AcDbEntity
  8
Visible (ISO)
100
AcDbLine
 10
83.07953472796405
 20
172.9104550119293
 30
0.0
 11
84.49374829033731
 21
170.4609693346598
 31
0.0
  0
LINE
  5
338
330
75
100
AcDbEntity
  8
Visible (ISO)
100
AcDbLine
 10
84.49374829033731
 20
170.4609693346598
 30
0.0
 11
92.97902966457716
 21
165.5746207691525
 31
0.0
  0
LINE
  5
339
330
75
100
AcDbEntity
  8
Visible (ISO)
100
AcDbLine
 10
92.97902966457716
 20
165.5746207691525
 30
0.0
 11
94.3932432269505
 21
166.395323591253
 31
0.0
  0
LINE
  5
33A
330
75
100
AcDbEntity
  8
Visible (ISO)
100
AcDbLine
 10
94.3932432269505
 20
166.395323591253
 30
0.0
 11
94.3932432269505
 21
173.3444741524146
 31
0.0
  0
LINE
  5
33B
330
75
100
AcDbEntity
  8
Visible (ISO)
100
AcDbLine
 10
94.3932432269505
 20
173.3444741524146
 30
0.0
 11
113.4851263189901
 21
162.3501898800232
 31
0.0
  0
ELLIPSE
  5
33C
330
75
100
AcDbEntity
  8
Visible (ISO)
100
AcDbEllipse
 10
88.73638897745726
 20
172.2690401010873
 30
0.0
 11
1.297483750119318
 21
-2.253116933977536
 31
0.0
210
0.0
220
0.0
230
0.9999999999999998
 40
0.5780931159158107
 41
0.0
 42
6.283185307179586
  0
ELLIPSE
  5
33D
330
75
100
AcDbEntity
  8
Visible (ISO)
100
AcDbEllipse
 10
88.73638897745729
 20
282.4743925298617
 30
0.0
 11
1.297483750119318
 21
-2.253116933977536
 31
0.0
210
0.0
220
0.0
230
0.9999999999999998
 40
0.5780931159158107
 41
0.0
 42
6.283185307179586
  0
ELLIPSE
  5
33E
330
75
100
AcDbEntity
  8
Visible (ISO)
100
AcDbEllipse
 10
119.1419805684833
 20
264.964976836794
 30
0.0
 11
1.297483750119318
 21
-2.253116933977536
 31
0.0
210
0.0
220
0.0
230
0.9999999999999998
 40
0.5780931159158107
 41
0.0
 42
6.283185307179586
  0
ELLIPSE
  5
33F
330
75
100
AcDbEntity
  8
Visible (ISO)
100
AcDbEllipse
 10
119.1419805684833
 20
154.596114983051
 30
0.0
 11
1.297483750119318
 21
-2.253116933977536
 31
0.0
210
0.0
220
0.0
230
0.9999999999999998
 40
0.5780931159158107
 41
0.0
 42
6.283185307179586
  0
LINE
  5
340
330
75
100
AcDbEntity
  8
Visible (ISO)
100
AcDbLine
 10
88.02928219627064
 20
211.8612695085825
 30
0.0
 11
88.02928219627064
 21
213.3328543332991
 31
0.0
  0
LINE
  5
341
330
75
100
AcDbEntity
  8
Visible (ISO)
100
AcDbLine
 10
88.02928219627064
 20
213.3328543332991
 30
0.0
 11
93.68613644576386
 21
210.0752886229609
 31
0.0
  0
LINE
  5
342
330
75
100
AcDbEntity
  8
Visible (ISO)
100
AcDbLine
 10
93.68613644576386
 20
210.0752886229609
 30
0.0
 11
93.68613644576386
 21
208.6037037982443
 31
0.0
  0
LINE
  5
343
330
75
100
AcDbEntity
  8
Visible (ISO)
100
AcDbLine
 10
93.68613644576386
 20
208.6037037982443
 30
0.0
 11
88.02928219627064
 21
211.8612695085825
 31
0.0
  0
LINE
  5
344
330
75
100
AcDbEntity
  8
Visible (ISO)
100
AcDbLine
 10
116.3135534437367
 20
195.5734409568916
 30
0.0
 11
116.3135534437367
 21
197.0450257816081
 31
0.0
  0
LINE
  5
345
330
75
100
AcDbEntity
  8
Visible (ISO)
100
AcDbLine
 10
116.3135534437367
 20
197.0450257816081
 30
0.0
 11
121.9704076932299
 21
193.7874600712699
 31
0.0
  0
LINE
  5
346
330
75
100
AcDbEntity
  8
Visible (ISO)
100
AcDbLine
 10
121.9704076932299
 20
193.7874600712699
 30
0.0
 11
121.9704076932299
 21
192.3158752465534
 31
0.0
  0
LINE
  5
347
330
75
100
AcDbEntity
  8
Visible (ISO)
100
AcDbLine
 10
121.9704076932299
 20
192.3158752465534
 30
0.0
 11
116.3135534437367
 21
195.5734409568916
 31
0.0
  0
ELLIPSE
  5
348
330
75
100
AcDbEntity
  8
Visible (ISO)
100
AcDbEllipse
 10
90.85770932101727
 20
246.0165243077714
 30
0.0
 11
0.6736934856388745
 21
-1.169887638796024
 31
0.0
210
0.0
220
0.0
230
0.9999999999999998
 40
0.5780931159158106
 41
0.0
 42
6.283185307179586
  0
ELLIPSE
  5
349
330
75
100
AcDbEntity
  8
Visible (ISO)
100
AcDbEllipse
 10
90.85770932101725
 20
206.2837340404239
 30
0.0
 11
0.6736934856388761
 21
-1.169887638796027
 31
0.0
210
0.0
220
0.0
230
0.9999999999999998
 40
0.5780931159158107
 41
0.0
 42
6.283185307179586
  0
ELLIPSE
  5
34A
330
75
100
AcDbEntity
  8
Visible (ISO)
100
AcDbEllipse
 10
119.1419805684833
 20
229.7286957560805
 30
0.0
 11
0.6736934856388745
 21
-1.169887638796024
 31
0.0
210
0.0
220
0.0
230
0.9999999999999998
 40
0.5780931159158106
 41
0.0
 42
6.283185307179586
  0
ELLIPSE
  5
34B
330
75
100
AcDbEntity
  8
Visible (ISO)
100
AcDbEllipse
 10
119.1419805684833
 20
189.995905488733
 30
0.0
 11
0.6736934856388761
 21
-1.169887638796027
 31
0.0
210
0.0
220
0.0
230
0.9999999999999998
 40
0.5780931159158107
 41
0.0
 42
6.283185307179586
  0
ELLIPSE
  5
34C
330
75
100
AcDbEntity
  8
Visible (ISO)
100
AcDbEllipse
 10
103.585631382377
 20
214.9781348390769
 30
0.0
 11
1.12282247606491
 21
-1.949812731326644
 31
0.0
210
0.0
220
0.0
230
1.0
 40
0.5780931159158106
 41
0.0
 42
6.283185307179586
  0
LINE
  5
34D
330
75
100
AcDbEntity
  8
Visible (ISO)
100
AcDbLine
 10
102.0299964637663
 20
191.1840422391751
 30
0.0
 11
105.1412663009876
 21
189.3923810984891
 31
0.0
  0
LINE
  5
34E
330
75
100
AcDbEntity
  8
Visible (ISO)
100
AcDbLine
 10
102.0299964637663
 20
194.7812495884823
 30
0.0
 11
102.0299964637663
 21
191.1840422391751
 31
0.0
  0
LINE
  5
34F
330
75
100
AcDbEntity
  8
Visible (ISO)
100
AcDbLine
 10
105.1412663009876
 20
192.9895884477963
 30
0.0
 11
102.0299964637663
 21
194.7812495884823
 31
0.0
  0
LINE
  5
350
330
75
100
AcDbEntity
  8
Visible (ISO)
100
AcDbLine
 10
105.1412663009876
 20
189.3923810984891
 30
0.0
 11
105.1412663009876
 21
192.9895884477963
 31
0.0
  0
LINE
  5
351
330
75
100
AcDbEntity
  8
Visible (ISO)
100
AcDbLine
 10
100.615782901393
 20
208.839904438516
 30
0.0
 11
100.615782901393
 21
204.4251499643663
 31
0.0
  0
LINE
  5
352
330
75
100
AcDbEntity
  8
Visible (ISO)
100
AcDbLine
 10
106.5554798633609
 20
205.4194604426609
 30
0.0
 11
100.615782901393
 21
208.839904438516
 31
0.0
  0
LINE
  5
353
330
75
100
AcDbEntity
  8
Visible (ISO)
100
AcDbLine
 10
106.5554798633609
 20
201.0047059685112
 30
0.0
 11
106.5554798633609
 21
205.4194604426609
 31
0.0
  0
LINE
  5
354
330
75
100
AcDbEntity
  8
Visible (ISO)
100
AcDbLine
 10
105.1412663009876
 20
200.1840031464107
 30
0.0
 11
106.5554798633609
 21
201.0047059685112
 31
0.0
  0
LINE
  5
355
330
75
100
AcDbEntity
  8
Visible (ISO)
100
AcDbLine
 10
105.1412663009876
 20
194.6246826974814
 30
0.0
 11
105.1412663009876
 21
200.1840031464107
 31
0.0
  0
LINE
  5
356
330
75
100
AcDbEntity
  8
Visible (ISO)
100
AcDbLine
 10
102.0299964637663
 20
196.4163438381674
 30
0.0
 11
105.1412663009876
 21
194.6246826974814
 31
0.0
  0
LINE
  5
357
330
75
100
AcDbEntity
  8
Visible (ISO)
100
AcDbLine
 10
102.0299964637663
 20
201.9756642870967
 30
0.0
 11
102.0299964637663
 21
196.4163438381674
 31
0.0
  0
LINE
  5
358
330
75
100
AcDbEntity
  8
Visible (ISO)
100
AcDbLine
 10
100.615782901393
 20
204.4251499643663
 30
0.0
 11
102.0299964637663
 21
201.9756642870967
 31
0.0
  0
LINE
  5
359
330
75
100
AcDbEntity
  8
Visible (ISO)
100
AcDbLine
 10
100.615782901393
 20
263.6155618029662
 30
0.0
 11
100.615782901393
 21
259.2008073288165
 31
0.0
  0
LINE
  5
35A
330
75
100
AcDbEntity
  8
Visible (ISO)
100
AcDbLine
 10
106.5554798633609
 20
260.1951178071111
 30
0.0
 11
100.6157829013931
 21
263.6155618029662
 31
0.0
  0
LINE
  5
35B
330
75
100
AcDbEntity
  8
Visible (ISO)
100
AcDbLine
 10
106.5554798633609
 20
255.7803633329614
 30
0.0
 11
106.5554798633609
 21
260.1951178071111
 31
0.0
  0
LINE
  5
35C
330
75
100
AcDbEntity
  8
Visible (ISO)
100
AcDbLine
 10
105.1412663009876
 20
254.9596605108609
 30
0.0
 11
106.5554798633609
 21
255.7803633329614
 31
0.0
  0
LINE
  5
35D
330
75
100
AcDbEntity
  8
Visible (ISO)
100
AcDbLine
 10
105.1412663009876
 20
249.4003400619316
 30
0.0
 11
105.1412663009876
 21
254.9596605108609
 31
0.0
  0
LINE
  5
35E
330
75
100
AcDbEntity
  8
Visible (ISO)
100
AcDbLine
 10
102.0299964637663
 20
251.1920012026176
 30
0.0
 11
105.1412663009876
 21
249.4003400619316
 31
0.0
  0
LINE
  5
35F
330
75
100
AcDbEntity
  8
Visible (ISO)
100
AcDbLine
 10
102.0299964637663
 20
256.7513216515469
 30
0.0
 11
102.0299964637663
 21
251.1920012026176
 31
0.0
  0
LINE
  5
360
330
75
100
AcDbEntity
  8
Visible (ISO)
100
AcDbLine
 10
100.615782901393
 20
259.2008073288165
 30
0.0
 11
102.0299964637663
 21
256.7513216515469
 31
0.0
  0
LINE
  5
361
330
75
100
AcDbEntity
  8
Visible (ISO)
100
AcDbLine
 10
95.45390339873021
 20
282.2802617647397
 30
0.0
 11
94.39324322695055
 21
281.6694681940512
 31
0.0
  0
LINE
  5
362
330
75
100
AcDbEntity
  8
Visible (ISO)
100
AcDbLine
 10
94.3932432269505
 20
166.395323591253
 30
0.0
 11
95.45390339873016
 21
167.0061171619416
 31
0.0
  0
LINE
  5
363
330
75
100
AcDbEntity
  8
Visible (ISO)
100
AcDbLine
 10
124.4452814273829
 20
148.6759986467733
 30
0.0
 11
123.3846212556032
 21
148.0652050760847
 31
0.0
  0
LINE
  5
364
330
75
100
AcDbEntity
  8
Visible (ISO)
100
AcDbLine
 10
100.615782901393
 20
259.2008073288165
 30
0.0
 11
101.6764430731727
 21
259.8116008995051
 31
0.0
  0
LINE
  5
365
330
75
100
AcDbEntity
  8
Visible (ISO)
100
AcDbLine
 10
92.97902966457725
 20
284.1189538713208
 30
0.0
 11
94.03968983635691
 21
284.7297474420094
 31
0.0
  0
LINE
  5
366
330
75
100
AcDbEntity
  8
Visible (ISO)
100
AcDbLine
 10
85.55440846211707
 20
289.6160960075167
 30
0.0
 11
84.49374829033738
 21
289.0053024368281
 31
0.0
  0
LINE
  5
367
330
75
100
AcDbEntity
  8
Visible (ISO)
100
AcDbLine
 10
88.02928219627064
 20
211.8612695085825
 30
0.0
 11
89.08994236805032
 21
212.4720630792711
 31
0.0
  0
LINE
  5
368
330
75
100
AcDbEntity
  8
Visible (ISO)
100
AcDbLine
 10
115.9600000531431
 20
272.1066803144489
 30
0.0
 11
114.8993398813634
 21
271.4958867437604
 31
0.0
  0
LINE
  5
369
330
75
100
AcDbEntity
  8
Visible (ISO)
100
AcDbLine
 10
123.3846212556032
 20
266.609538178253
 30
0.0
 11
124.4452814273829
 21
267.2203317489417
 31
0.0
  0
LINE
  5
36A
330
75
100
AcDbEntity
  8
Visible (ISO)
100
AcDbLine
 10
102.0299964637663
 20
256.7513216515469
 30
0.0
 11
103.090656635546
 21
257.3621152222354
 31
0.0
  0
ELLIPSE
  5
36B
330
75
100
AcDbEntity
  8
Visible (ISO)
100
AcDbEllipse
 10
79.89755421262436
 20
278.5744762762551
 30
0.0
 11
-2.499999999999999
 21
-0.0000000000001484
 31
0.0
210
0.0
220
0.0
230
1.0
 40
0.5758617009853117
 41
3.926990816987139
 42
5.497787143782037
  0
LINE
  5
36C
330
75
100
AcDbEntity
  8
Visible (ISO)
100
AcDbLine
 10
94.03968983635683
 20
166.1854143398411
 30
0.0
 11
92.97902966457716
 21
165.5746207691525
 31
0.0
  0
LINE
  5
36D
330
75
100
AcDbEntity
  8
Visible (ISO)
100
AcDbLine
 10
102.0299964637663
 20
251.1920012026176
 30
0.0
 11
103.090656635546
 21
251.8027947733062
 31
0.0
  0
LINE
  5
36E
330
75
100
AcDbEntity
  8
Visible (ISO)
100
AcDbLine
 10
102.0299964637663
 20
196.4163438381674
 30
0.0
 11
103.090656635546
 21
197.027137408856
 31
0.0
  0
LINE
  5
36F
330
75
100
AcDbEntity
  8
Visible (ISO)
100
AcDbLine
 10
102.0299964637663
 20
201.9756642870967
 30
0.0
 11
103.090656635546
 21
202.5864578577853
 31
0.0
  0
LINE
  5
370
330
75
100
AcDbEntity
  8
Visible (ISO)
100
AcDbLine
 10
100.615782901393
 20
204.4251499643663
 30
0.0
 11
101.6764430731727
 21
205.0359435350549
 31
0.0
  0
LINE
  5
371
330
75
100
AcDbEntity
  8
Visible (ISO)
100
AcDbLine
 10
102.0299964637663
 20
191.1840422391751
 30
0.0
 11
103.090656635546
 21
191.7948358098637
 31
0.0
  0
LINE
  5
372
330
75
100
AcDbEntity
  8
Visible (ISO)
100
AcDbLine
 10
124.7988348179765
 20
148.8859078981852
 30
0.0
 11
125.8594949897562
 21
149.4967014688739
 31
0.0
  0
LINE
  5
373
330
75
100
AcDbEntity
  8
Visible (ISO)
100
AcDbLine
 10
125.8594949897562
 20
264.770846071672
 30
0.0
 11
124.7988348179766
 21
264.1600525009834
 31
0.0
  0
LINE
  5
374
330
75
100
AcDbEntity
  8
Visible (ISO)
100
AcDbLine
 10
116.3135534437367
 20
195.5734409568916
 30
0.0
 11
117.3742136155164
 21
196.1842345275801
 31
0.0
  0
LINE
  5
375
330
75
100
AcDbEntity
  8
Visible Narrow (ISO)
100
AcDbLine
 10
81.66532116559046
 20
279.5924655607361
 30
0.0
 11
80.60466099381079
 21
278.9816719900475
 31
0.0
  0
ELLIPSE
  5
376
330
75
100
AcDbEntity
  8
Visible (ISO)
100
AcDbEllipse
 10
79.89755421262433
 20
184.5565569193629
 30
0.0
 11
-1.0
 21
-0.0000000000000593
 31
0.0
210
0.0
220
0.0
230
1.0
 40
0.5758617009853118
 41
3.92699081698711
 42
5.497787143782022
  0
ELLIPSE
  5
377
330
75
100
AcDbEntity
  8
Visible (ISO)
100
AcDbEllipse
 10
79.89755421262436
 20
278.5744762762551
 30
0.0
 11
-1.000000000000001
 21
-0.0000000000000593
 31
0.0
210
0.0
220
0.0
230
1.0
 40
0.5758617009853119
 41
3.92699081698711
 42
5.497787143782022
  0
LINE
  5
378
330
75
100
AcDbEntity
  8
Visible Narrow (ISO)
100
AcDbLine
 10
79.1904474314377
 20
278.9816719900474
 30
0.0
 11
79.1904474314377
 21
253.1702019037528
 31
0.0
  0
LINE
  5
379
330
75
100
AcDbEntity
  8
Visible Narrow (ISO)
100
AcDbLine
 10
79.1904474314377
 20
243.6982755126312
 30
0.0
 11
79.19044743143769
 21
213.0811356872779
 31
0.0
  0
LINE
  5
37A
330
75
100
AcDbEntity
  8
Visible Narrow (ISO)
100
AcDbLine
 10
79.19044743143769
 20
203.6092092961564
 30
0.0
 11
79.19044743143769
 21
184.9637526331552
 31
0.0
  0
LINE
  5
37B
330
75
100
AcDbEntity
  8
Visible Narrow (ISO)
100
AcDbLine
 10
79.1904474314377
 20
278.9816719900474
 30
0.0
 11
78.12978725965773
 21
279.5924655607358
 31
0.0
  0
LINE
  5
37C
330
75
100
AcDbEntity
  8
Visible (ISO)
100
AcDbLine
 10
60.45211772999659
 20
253.3320665805356
 30
0.0
 11
60.45211772999659
 21
249.7538674654363
 31
0.0
  0
LINE
  5
37D
330
75
100
AcDbEntity
  8
Visible (ISO)
100
AcDbLine
 10
60.45211772999658
 20
232.9075890971319
 30
0.0
 11
60.45211772999658
 21
203.5120364131558
 31
0.0
  0
LINE
  5
37E
330
75
100
AcDbEntity
  8
Visible (ISO)
100
AcDbLine
 10
60.45211772999658
 20
191.9593023241538
 30
0.0
 11
60.45211772999658
 21
190.4170817780155
 31
0.0
  0
LINE
  5
37F
330
75
100
AcDbEntity
  8
Visible (ISO)
100
AcDbLine
 10
53.73460330872548
 20
248.2617037089872
 30
0.0
 11
53.73460330872537
 21
265.5442134348983
 31
0.0
  0
LINE
  5
380
330
75
100
AcDbEntity
  8
Visible (ISO)
100
AcDbLine
 10
53.73460330872537
 20
265.5442134348983
 30
0.0
 11
78.12978725965773
 21
279.5924655607358
 31
0.0
  0
LINE
  5
381
330
75
100
AcDbEntity
  8
Visible (ISO)
100
AcDbLine
 10
53.73460330872536
 20
171.5262940780061
 30
0.0
 11
53.73460330872546
 21
188.9723132288856
 31
0.0
  0
LINE
  5
382
330
75
100
AcDbEntity
  8
Visible (ISO)
100
AcDbLine
 10
60.45211772999658
 20
190.4170817780155
 30
0.0
 11
60.09856433940371
 21
190.2134839211195
 31
0.0
  0
LINE
  5
383
330
75
100
AcDbEntity
  8
Visible (ISO)
100
AcDbLine
 10
76.3620203066916
 20
219.2048498804519
 30
0.0
 11
76.3620203066916
 21
212.6739399734848
 31
0.0
  0
LINE
  5
384
330
75
100
AcDbEntity
  8
Visible (ISO)
100
AcDbLine
 10
76.3620203066916
 20
201.1212058844828
 30
0.0
 11
76.3620203066916
 21
199.5789853383443
 31
0.0
  0
LINE
  5
385
330
75
100
AcDbEntity
  8
Visible (ISO)
100
AcDbLine
 10
69.64450588542037
 20
195.7106260573166
 30
0.0
 11
69.29095249482728
 21
195.5070282004204
 31
0.0
  0
LINE
  5
386
330
75
100
AcDbEntity
  8
Visible (ISO)
100
AcDbLine
 10
69.64450588542037
 20
195.7106260573166
 30
0.0
 11
69.64450588542037
 21
198.1342167892145
 31
0.0
  0
LINE
  5
387
330
75
100
AcDbEntity
  8
Visible (ISO)
100
AcDbLine
 10
76.3620203066916
 20
199.5789853383443
 30
0.0
 11
76.00846691609868
 21
199.3753874814483
 31
0.0
  0
LINE
  5
388
330
75
100
AcDbEntity
  8
Visible (ISO)
100
AcDbLine
 10
76.36202030669162
 20
262.4939701408645
 30
0.0
 11
76.36202030669162
 21
258.915771025765
 31
0.0
  0
LINE
  5
389
330
75
100
AcDbEntity
  8
Visible (ISO)
100
AcDbLine
 10
69.64450588542039
 20
258.6256108598367
 30
0.0
 11
69.64450588542039
 21
257.423607269316
 31
0.0
  0
LINE
  5
38A
330
75
100
AcDbEntity
  8
Visible (ISO)
100
AcDbLine
 10
73.19373968341264
 20
241.0436141298361
 30
0.0
 11
69.29095249482731
 21
238.796148460833
 31
0.0
  0
LINE
  5
38B
330
75
100
AcDbEntity
  8
Visible (ISO)
100
AcDbLine
 10
60.09856433940367
 20
253.1284687236396
 30
0.0
 11
61.51277790177656
 21
253.9428601512244
 31
0.0
  0
LINE
  5
38C
330
75
100
AcDbEntity
  8
Visible (ISO)
100
AcDbLine
 10
61.51277790177656
 20
253.9428601512244
 30
0.0
 11
61.51277790177656
 21
247.916753207484
 31
0.0
  0
LINE
  5
38D
330
75
100
AcDbEntity
  8
Visible (ISO)
100
AcDbLine
 10
61.51277790177655
 20
233.5183826678207
 30
0.0
 11
61.51277790177655
 21
204.1228299838446
 31
0.0
  0
LINE
  5
38E
330
75
100
AcDbEntity
  8
Visible (ISO)
100
AcDbLine
 10
61.51277790177655
 20
192.5748294407292
 30
0.0
 11
61.51277790177655
 21
189.8062882073271
 31
0.0
  0
LINE
  5
38F
330
75
100
AcDbEntity
  8
Visible (ISO)
100
AcDbLine
 10
61.51277790177655
 20
189.8062882073271
 30
0.0
 11
60.09856433940365
 21
188.9918967797423
 31
0.0
  0
LINE
  5
390
330
75
100
AcDbEntity
  8
Visible (ISO)
100
AcDbLine
 10
60.09856433940377
 20
191.4154875116401
 30
0.0
 11
60.09856433940365
 21
188.9918967797423
 31
0.0
  0
LINE
  5
391
330
75
100
AcDbEntity
  8
Visible Narrow (ISO)
100
AcDbLine
 10
60.09856433940377
 20
191.4154875116401
 30
0.0
 11
54.79526348050544
 21
188.3615196581972
 31
0.0
  0
LINE
  5
392
330
75
100
AcDbEntity
  8
Visible (ISO)
100
AcDbLine
 10
54.79526348050533
 20
170.9155005073177
 30
0.0
 11
54.79526348050544
 21
188.3615196581972
 31
0.0
  0
LINE
  5
393
330
75
100
AcDbEntity
  8
Visible (ISO)
100
AcDbLine
 10
54.79526348050533
 20
170.9155005073177
 30
0.0
 11
79.19044743143769
 21
184.9637526331552
 31
0.0
  0
LINE
  5
394
330
75
100
AcDbEntity
  8
Visible (ISO)
100
AcDbLine
 10
54.79526348050534
 20
264.9334198642098
 30
0.0
 11
79.1904474314377
 21
278.9816719900474
 31
0.0
  0
LINE
  5
395
330
75
100
AcDbEntity
  8
Visible (ISO)
100
AcDbLine
 10
54.79526348050544
 20
247.6509101382987
 30
0.0
 11
54.79526348050534
 21
264.9334198642098
 31
0.0
  0
LINE
  5
396
330
75
100
AcDbEntity
  8
Visible Narrow (ISO)
100
AcDbLine
 10
60.09856433940378
 20
250.7048779917417
 30
0.0
 11
54.79526348050544
 21
247.6509101382987
 31
0.0
  0
LINE
  5
397
330
75
100
AcDbEntity
  8
Visible (ISO)
100
AcDbLine
 10
60.09856433940378
 20
250.7048779917417
 30
0.0
 11
60.09856433940367
 21
253.1284687236396
 31
0.0
  0
LINE
  5
398
330
75
100
AcDbEntity
  8
Visible (ISO)
100
AcDbLine
 10
69.29095249482745
 20
258.4220130029407
 30
0.0
 11
70.70516605720036
 21
259.2364044305254
 31
0.0
  0
LINE
  5
399
330
75
100
AcDbEntity
  8
Visible (ISO)
100
AcDbLine
 10
70.70516605720033
 20
256.8128136986276
 30
0.0
 11
70.70516605720036
 21
259.2364044305254
 31
0.0
  0
LINE
  5
39A
330
75
100
AcDbEntity
  8
Visible Narrow (ISO)
100
AcDbLine
 10
76.00846691609868
 20
259.8667815520706
 30
0.0
 11
70.70516605720033
 21
256.8128136986276
 31
0.0
  0
LINE
  5
39B
330
75
100
AcDbEntity
  8
Visible (ISO)
100
AcDbLine
 10
76.00846691609868
 20
259.8667815520706
 30
0.0
 11
76.00846691609868
 21
262.2903722839684
 31
0.0
  0
LINE
  5
39C
330
75
100
AcDbEntity
  8
Visible (ISO)
100
AcDbLine
 10
76.00846691609868
 20
262.2903722839684
 30
0.0
 11
77.42268047847159
 21
263.1047637115532
 31
0.0
  0
LINE
  5
39D
330
75
100
AcDbEntity
  8
Visible (ISO)
100
AcDbLine
 10
77.42268047847159
 20
263.1047637115532
 30
0.0
 11
77.42268047847159
 21
257.0786567678127
 31
0.0
  0
LINE
  5
39E
330
75
100
AcDbEntity
  8
Visible (ISO)
100
AcDbLine
 10
77.42268047847159
 20
242.6802862281496
 30
0.0
 11
77.42268047847159
 21
242.2573120280684
 31
0.0
  0
LINE
  5
39F
330
75
100
AcDbEntity
  8
Visible (ISO)
100
AcDbLine
 10
77.42268047847159
 20
242.2573120280684
 30
0.0
 11
69.29095249482729
 21
237.5745613194558
 31
0.0
  0
LINE
  5
3A0
330
75
100
AcDbEntity
  8
Visible (ISO)
100
AcDbLine
 10
69.29095249482729
 20
237.5745613194558
 30
0.0
 11
69.29095249482745
 21
258.4220130029407
 31
0.0
  0
LINE
  5
3A1
330
75
100
AcDbEntity
  8
Visible (ISO)
100
AcDbLine
 10
69.29095249482745
 20
215.1328927425282
 30
0.0
 11
77.42268047847159
 21
219.8156434511407
 31
0.0
  0
LINE
  5
3A2
330
75
100
AcDbEntity
  8
Visible (ISO)
100
AcDbLine
 10
77.42268047847159
 20
219.8156434511407
 30
0.0
 11
77.42268047847159
 21
213.2847335441736
 31
0.0
  0
LINE
  5
3A3
330
75
100
AcDbEntity
  8
Visible (ISO)
100
AcDbLine
 10
77.42268047847159
 20
201.7367330010582
 30
0.0
 11
77.42268047847159
 21
198.9681917676559
 31
0.0
  0
LINE
  5
3A4
330
75
100
AcDbEntity
  8
Visible (ISO)
100
AcDbLine
 10
77.42268047847159
 20
198.9681917676559
 30
0.0
 11
76.00846691609868
 21
198.1538003400712
 31
0.0
  0
LINE
  5
3A5
330
75
100
AcDbEntity
  8
Visible (ISO)
100
AcDbLine
 10
76.00846691609866
 20
200.5773910719691
 30
0.0
 11
76.00846691609868
 21
198.1538003400712
 31
0.0
  0
LINE
  5
3A6
330
75
100
AcDbEntity
  8
Visible Narrow (ISO)
100
AcDbLine
 10
76.00846691609866
 20
200.5773910719691
 30
0.0
 11
70.70516605720033
 21
197.5234232185261
 31
0.0
  0
LINE
  5
3A7
330
75
100
AcDbEntity
  8
Visible (ISO)
100
AcDbLine
 10
70.70516605720033
 20
197.5234232185261
 30
0.0
 11
70.70516605720036
 21
195.0998324866282
 31
0.0
  0
LINE
  5
3A8
330
75
100
AcDbEntity
  8
Visible (ISO)
100
AcDbLine
 10
70.70516605720036
 20
195.0998324866282
 30
0.0
 11
69.29095249482729
 21
194.2854410590433
 31
0.0
  0
LINE
  5
3A9
330
75
100
AcDbEntity
  8
Visible (ISO)
100
AcDbLine
 10
69.29095249482729
 20
194.2854410590433
 30
0.0
 11
69.29095249482745
 21
215.1328927425282
 31
0.0
  0
LINE
  5
3AA
330
75
100
AcDbEntity
  8
Visible (ISO)
100
AcDbLine
 10
54.79526348050534
 20
264.9334198642098
 30
0.0
 11
53.73460330872537
 21
265.5442134348983
 31
0.0
  0
LINE
  5
3AB
330
75
100
AcDbEntity
  8
Visible (ISO)
100
AcDbLine
 10
77.42268047847159
 20
198.9681917676559
 30
0.0
 11
76.3620203066916
 21
199.5789853383443
 31
0.0
  0
LINE
  5
3AC
330
75
100
AcDbEntity
  8
Visible (ISO)
100
AcDbLine
 10
61.51277790177655
 20
189.8062882073271
 30
0.0
 11
60.45211772999658
 21
190.4170817780155
 31
0.0
  0
LINE
  5
3AD
330
75
100
AcDbEntity
  8
Visible (ISO)
100
AcDbLine
 10
53.73460330872536
 20
171.5262940780061
 30
0.0
 11
54.79526348050533
 21
170.9155005073177
 31
0.0
  0
ELLIPSE
  5
3AE
330
75
100
AcDbEntity
  8
Visible (ISO)
100
AcDbEllipse
 10
55.50237026169209
 20
187.9543239444049
 30
0.0
 11
-0.4990322115844143
 21
0.8665834361451924
 31
0.0
210
0.0
220
0.0
230
0.9999999999999998
 40
0.5780931159158107
 41
0.0019337084228822
 42
0.7873318718202928
  0
LINE
  5
3AF
330
75
100
AcDbEntity
  8
Visible (ISO)
100
AcDbLine
 10
57.45947704287893
 20
190.2462672508443
 30
0.0
 11
55.00237026169202
 21
188.8203479108132
 31
0.0
  0
ELLIPSE
  5
3B0
330
75
100
AcDbEntity
  8
Visible (ISO)
100
AcDbEllipse
 10
56.20947704287877
 20
192.4113271668652
 30
0.0
 11
1.247580528960988
 21
-2.166458590362899
 31
0.0
210
0.0
220
0.0
230
1.0
 40
0.5780931159158106
 41
0.0019337084228903
 42
0.7873318718203546
  0
LINE
  5
3B1
330
75
100
AcDbEntity
  8
Visible (ISO)
100
AcDbLine
 10
57.97724399584538
 20
200.8652642735061
 30
0.0
 11
57.97724399584537
 21
191.3933378823845
 31
0.0
  0
LINE
  5
3B2
330
75
100
AcDbEntity
  8
Visible (ISO)
100
AcDbLine
 10
56.9165838240654
 20
201.4760578441945
 30
0.0
 11
57.97724399584538
 21
200.8652642735061
 31
0.0
  0
LINE
  5
3B3
330
75
100
AcDbEntity
  8
Visible (ISO)
100
AcDbLine
 10
56.91658382406537
 20
192.0041314530729
 30
0.0
 11
56.9165838240654
 21
201.4760578441945
 31
0.0
  0
ELLIPSE
  5
3B4
330
75
100
AcDbEntity
  8
Visible (ISO)
100
AcDbEllipse
 10
56.20947704287875
 20
192.4113271668652
 30
0.0
 11
0.4990322115844034
 21
-0.8665834361451734
 31
0.0
210
0.0
220
0.0
230
1.0
 40
0.5780931159158106
 41
0.0019337084229531
 42
0.7873318718203738
  0
LINE
  5
3B5
330
75
100
AcDbEntity
  8
Visible (ISO)
100
AcDbLine
 10
54.25237026169192
 20
190.1193838604257
 30
0.0
 11
56.70947704287882
 21
191.5453032004569
 31
0.0
  0
ELLIPSE
  5
3B6
330
75
100
AcDbEntity
  8
Visible (ISO)
100
AcDbEllipse
 10
55.50237026169212
 20
187.9543239444048
 30
0.0
 11
-1.247580528961026
 21
2.166458590362964
 31
0.0
210
0.0
220
0.0
230
0.9999999999999998
 40
0.578093115915811
 41
0.0019337084228832
 42
0.7873318718203182
  0
LINE
  5
3B7
330
75
100
AcDbEntity
  8
Visible (ISO)
100
AcDbLine
 10
70.70516605720036
 20
195.0998324866282
 30
0.0
 11
69.64450588542037
 21
195.7106260573166
 31
0.0
  0
ELLIPSE
  5
3B8
330
75
100
AcDbEntity
  8
Visible (ISO)
100
AcDbEllipse
 10
71.41227283838701
 20
197.1162275047338
 30
0.0
 11
-0.4990322115844205
 21
0.8665834361452036
 31
0.0
210
0.0
220
0.0
230
1.0
 40
0.5780931159158107
 41
0.0019337084228521
 42
0.7873318718202624
  0
LINE
  5
3B9
330
75
100
AcDbEntity
  8
Visible (ISO)
100
AcDbLine
 10
73.36937961957383
 20
199.4081708111733
 30
0.0
 11
70.91227283838692
 21
197.9822514711421
 31
0.0
  0
ELLIPSE
  5
3BA
330
75
100
AcDbEntity
  8
Visible (ISO)
100
AcDbEllipse
 10
72.11937961957366
 20
201.5732307271941
 30
0.0
 11
1.24758052896099
 21
-2.166458590362903
 31
0.0
210
0.0
220
0.0
230
1.0
 40
0.5780931159158106
 41
0.0019337084228903
 42
0.7873318718203546
  0
LINE
  5
3BB
330
75
100
AcDbEntity
  8
Visible (ISO)
100
AcDbLine
 10
73.88714657254029
 20
210.027167833835
 30
0.0
 11
73.88714657254027
 21
200.5552414427135
 31
0.0
  0
LINE
  5
3BC
330
75
100
AcDbEntity
  8
Visible (ISO)
100
AcDbLine
 10
72.8264864007603
 20
210.6379614045234
 30
0.0
 11
73.88714657254029
 21
210.027167833835
 31
0.0
  0
LINE
  5
3BD
330
75
100
AcDbEntity
  8
Visible (ISO)
100
AcDbLine
 10
72.82648640076029
 20
201.1660350134019
 30
0.0
 11
72.8264864007603
 21
210.6379614045234
 31
0.0
  0
ELLIPSE
  5
3BE
330
75
100
AcDbEntity
  8
Visible (ISO)
100
AcDbEllipse
 10
72.11937961957366
 20
201.5732307271941
 30
0.0
 11
0.4990322115843812
 21
-0.8665834361451352
 31
0.0
210
0.0
220
0.0
230
1.0
 40
0.5780931159158107
 41
0.001933708422904
 42
0.7873318718203488
  0
LINE
  5
3BF
330
75
100
AcDbEntity
  8
Visible (ISO)
100
AcDbLine
 10
70.16227283838682
 20
199.2812874207546
 30
0.0
 11
72.61937961957372
 21
200.7072067607858
 31
0.0
  0
ELLIPSE
  5
3C0
330
75
100
AcDbEntity
  8
Visible (ISO)
100
AcDbEllipse
 10
71.41227283838699
 20
197.1162275047338
 30
0.0
 11
-1.247580528961022
 21
2.166458590362956
 31
0.0
210
0.0
220
0.0
230
1.0
 40
0.5780931159158108
 41
0.001933708422877
 42
0.7873318718203173
  0
LINE
  5
3C1
330
75
100
AcDbEntity
  8
Visible (ISO)
100
AcDbLine
 10
77.42268047847159
 20
242.2573120280684
 30
0.0
 11
77.05542719581927
 21
242.468799128109
 31
0.0
  0
ELLIPSE
  5
3C2
330
75
100
AcDbEntity
  8
Visible (ISO)
100
AcDbEllipse
 10
60.80567112059043
 20
250.2976822779494
 30
0.0
 11
-0.4990322115844096
 21
0.8665834361451842
 31
0.0
210
0.0
220
0.0
230
1.0
 40
0.5780931159158107
 41
0.7873318718203795
 42
1.572730035217845
  0
LINE
  5
3C3
330
75
100
AcDbEntity
  8
Visible (ISO)
100
AcDbLine
 10
62.76277790177728
 20
245.7516932914623
 30
0.0
 11
60.30567112059038
 21
250.0075200125263
 31
0.0
  0
ELLIPSE
  5
3C4
330
75
100
AcDbEntity
  8
Visible (ISO)
100
AcDbEllipse
 10
61.51277790177709
 20
245.0262876279045
 30
0.0
 11
-1.247580528961131
 21
2.166458590362847
 31
0.0
210
0.0
220
0.0
230
1.0
 40
0.5780931159158107
 41
3.928924525409877
 42
4.714322688807456
  0
LINE
  5
3C5
330
75
100
AcDbEntity
  8
Visible (ISO)
100
AcDbLine
 10
63.28054485474372
 20
234.5363719523023
 30
0.0
 11
63.28054485474371
 21
244.0082983434238
 31
0.0
  0
ELLIPSE
  5
3C6
330
75
100
AcDbEntity
  8
Visible (ISO)
100
AcDbEllipse
 10
76.71557369728535
 20
259.4595858382783
 30
0.0
 11
-0.4990322115844143
 21
0.8665834361451924
 31
0.0
210
0.0
220
0.0
230
0.9999999999999998
 40
0.5780931159158106
 41
0.7873318718203422
 42
1.572730035217809
  0
LINE
  5
3C7
330
75
100
AcDbEntity
  8
Visible (ISO)
100
AcDbLine
 10
78.67268047847218
 20
254.9135968517912
 30
0.0
 11
76.21557369728527
 21
259.1694235728552
 31
0.0
  0
ELLIPSE
  5
3C8
330
75
100
AcDbEntity
  8
Visible (ISO)
100
AcDbEllipse
 10
77.42268047847199
 20
254.1881911882335
 30
0.0
 11
-1.24758052896114
 21
2.166458590362863
 31
0.0
210
0.0
220
0.0
230
0.9999999999999998
 40
0.5780931159158108
 41
3.928924525409865
 42
4.714322688807466
  0
LINE
  5
3C9
330
75
100
AcDbEntity
  8
Visible (ISO)
100
AcDbLine
 10
79.19044743143863
 20
243.6982755126312
 30
0.0
 11
79.19044743143863
 21
253.1702019037528
 31
0.0
  0
ELLIPSE
  5
3CA
330
75
100
AcDbEntity
  8
Visible (ISO)
100
AcDbEllipse
 10
71.41227283838701
 20
256.4056179848354
 30
0.0
 11
1.247580528961151
 21
-2.166458590362881
 31
0.0
210
0.0
220
0.0
230
1.0
 40
0.5780931159158106
 41
3.928924525409904
 42
4.714322688807496
  0
LINE
  5
3CB
330
75
100
AcDbEntity
  8
Visible (ISO)
100
AcDbLine
 10
78.12978725965866
 20
213.6919292579664
 30
0.0
 11
79.19044743143863
 21
213.0811356872779
 31
0.0
  0
LINE
  5
3CC
330
75
100
AcDbEntity
  8
Visible (ISO)
100
AcDbLine
 10
79.19044743143863
 20
213.0811356872779
 30
0.0
 11
79.19044743143861
 21
203.6092092961564
 31
0.0
  0
ELLIPSE
  5
3CD
330
75
100
AcDbEntity
  8
Visible (ISO)
100
AcDbEllipse
 10
77.42268047847201
 20
204.627198580637
 30
0.0
 11
1.247580528960997
 21
-2.166458590362914
 31
0.0
210
0.0
220
0.0
230
1.0
 40
0.5780931159158106
 41
0.0019337084228965
 42
0.7873318718203599
  0
LINE
  5
3CE
330
75
100
AcDbEntity
  8
Visible (ISO)
100
AcDbLine
 10
78.67268047847217
 20
202.4621386646162
 30
0.0
 11
76.21557369728527
 21
201.0362193245851
 31
0.0
  0
ELLIPSE
  5
3CF
330
75
100
AcDbEntity
  8
Visible (ISO)
100
AcDbEllipse
 10
76.71557369728532
 20
200.1701953581767
 30
0.0
 11
-0.4990322115843941
 21
0.8665834361451572
 31
0.0
210
0.0
220
0.0
230
1.0
 40
0.5780931159158106
 41
0.0019337084228024
 42
0.7873318718202742
  0
ELLIPSE
  5
3D0
330
75
100
AcDbEntity
  8
Visible (ISO)
100
AcDbEllipse
 10
55.50237026169213
 20
247.2437144245065
 30
0.0
 11
1.247580528961162
 21
-2.1664585903629
 31
0.0
210
0.0
220
0.0
230
1.0
 40
0.5780931159158107
 41
3.928924525409907
 42
4.714322688807478
  0
LINE
  5
3D1
330
75
100
AcDbEntity
  8
Visible (ISO)
100
AcDbLine
 10
62.21988468296373
 20
204.5300256976375
 30
0.0
 11
63.28054485474371
 21
203.919232126949
 31
0.0
  0
LINE
  5
3D2
330
75
100
AcDbEntity
  8
Visible (ISO)
100
AcDbLine
 10
63.28054485474371
 20
203.919232126949
 30
0.0
 11
63.28054485474371
 21
194.4473057358275
 31
0.0
  0
ELLIPSE
  5
3D3
330
75
100
AcDbEntity
  8
Visible (ISO)
100
AcDbEllipse
 10
61.5127779017771
 20
195.4652950203081
 30
0.0
 11
1.247580528960988
 21
-2.166458590362899
 31
0.0
210
0.0
220
0.0
230
1.0
 40
0.5780931159158106
 41
0.0019337084228903
 42
0.7873318718203546
  0
LINE
  5
3D4
330
75
100
AcDbEntity
  8
Visible (ISO)
100
AcDbLine
 10
62.76277790177727
 20
193.3002351042873
 30
0.0
 11
60.30567112059038
 21
191.8743157642561
 31
0.0
  0
ELLIPSE
  5
3D5
330
75
100
AcDbEntity
  8
Visible (ISO)
100
AcDbEllipse
 10
60.80567112059042
 20
191.0082917978478
 30
0.0
 11
-0.4990322115844003
 21
0.8665834361451679
 31
0.0
210
0.0
220
0.0
230
1.0
 40
0.5780931159158107
 41
0.0019337084228424
 42
0.7873318718202805
  0
LINE
  5
3D6
330
75
100
AcDbEntity
  8
Visible (ISO)
100
AcDbLine
 10
54.25237026169193
 20
246.5183087609486
 30
0.0
 11
56.70947704287882
 21
242.2624820398846
 31
0.0
  0
ELLIPSE
  5
3D7
330
75
100
AcDbEntity
  8
Visible (ISO)
100
AcDbEllipse
 10
56.20947704287876
 20
241.9723197744616
 30
0.0
 11
0.4990322115843956
 21
-0.8665834361451596
 31
0.0
210
0.0
220
0.0
230
1.0
 40
0.5780931159158106
 41
0.7873318718203235
 42
1.572730035217744
  0
LINE
  5
3D8
330
75
100
AcDbEntity
  8
Visible (ISO)
100
AcDbLine
 10
56.91658382406538
 20
241.5651240606693
 30
0.0
 11
56.9165838240654
 21
232.0931976695477
 31
0.0
  0
LINE
  5
3D9
330
75
100
AcDbEntity
  8
Visible (ISO)
100
AcDbLine
 10
56.9165838240654
 20
232.0931976695477
 30
0.0
 11
57.97724399584538
 21
231.4824040988593
 31
0.0
  0
LINE
  5
3DA
330
75
100
AcDbEntity
  8
Visible (ISO)
100
AcDbLine
 10
57.97724399584538
 20
231.4824040988593
 30
0.0
 11
57.97724399584538
 21
240.9543304899809
 31
0.0
  0
ELLIPSE
  5
3DB
330
75
100
AcDbEntity
  8
Visible (ISO)
100
AcDbEllipse
 10
56.20947704287879
 20
241.9723197744616
 30
0.0
 11
-1.247580528961104
 21
2.166458590362801
 31
0.0
210
0.0
220
0.0
230
0.9999999999999998
 40
0.5780931159158106
 41
3.92892452540987
 42
4.714322688807478
  0
LINE
  5
3DC
330
75
100
AcDbEntity
  8
Visible (ISO)
100
AcDbLine
 10
57.45947704287893
 20
242.6977254380194
 30
0.0
 11
55.00237026169203
 21
246.9535521590833
 31
0.0
  0
ELLIPSE
  5
3DD
330
75
100
AcDbEntity
  8
Visible (ISO)
100
AcDbEllipse
 10
55.50237026169212
 20
247.2437144245065
 30
0.0
 11
-0.4990322115844209
 21
0.8665834361452034
 31
0.0
210
0.0
220
0.0
230
0.9999999999999998
 40
0.5780931159158107
 41
0.7873318718204292
 42
1.572730035217805
  0
LINE
  5
3DE
330
75
100
AcDbEntity
  8
Visible (ISO)
100
AcDbLine
 10
70.16227283838685
 20
255.6802123212776
 30
0.0
 11
72.61937961957372
 21
251.4243856002136
 31
0.0
  0
ELLIPSE
  5
3DF
330
75
100
AcDbEntity
  8
Visible (ISO)
100
AcDbEllipse
 10
72.11937961957366
 20
251.1342233347905
 30
0.0
 11
0.4990322115843924
 21
-0.8665834361451542
 31
0.0
210
0.0
220
0.0
230
1.0
 40
0.5780931159158107
 41
0.7873318718203173
 42
1.572730035217784
  0
LINE
  5
3E0
330
75
100
AcDbEntity
  8
Visible (ISO)
100
AcDbLine
 10
72.8264864007603
 20
250.7270276209982
 30
0.0
 11
72.82648640076032
 21
241.2551012298767
 31
0.0
  0
LINE
  5
3E1
330
75
100
AcDbEntity
  8
Visible (ISO)
100
AcDbLine
 10
72.82648640076032
 20
241.2551012298767
 30
0.0
 11
73.88714657254029
 21
240.6443076591882
 31
0.0
  0
LINE
  5
3E2
330
75
100
AcDbEntity
  8
Visible (ISO)
100
AcDbLine
 10
73.88714657254029
 20
240.6443076591882
 30
0.0
 11
73.88714657254029
 21
250.1162340503098
 31
0.0
  0
ELLIPSE
  5
3E3
330
75
100
AcDbEntity
  8
Visible (ISO)
100
AcDbEllipse
 10
72.11937961957365
 20
251.1342233347905
 30
0.0
 11
-1.24758052896114
 21
2.166458590362863
 31
0.0
210
0.0
220
0.0
230
0.9999999999999998
 40
0.5780931159158108
 41
3.928924525409865
 42
4.714322688807466
  0
LINE
  5
3E4
330
75
100
AcDbEntity
  8
Visible (ISO)
100
AcDbLine
 10
73.36937961957383
 20
251.8596289983483
 30
0.0
 11
70.91227283838694
 21
256.1154557194122
 31
0.0
  0
ELLIPSE
  5
3E5
330
75
100
AcDbEntity
  8
Visible (ISO)
100
AcDbEllipse
 10
71.41227283838701
 20
256.4056179848354
 30
0.0
 11
-0.4990322115844177
 21
0.8665834361451979
 31
0.0
210
0.0
220
0.0
230
1.0
 40
0.5780931159158108
 41
0.7873318718203422
 42
1.572730035217805
  0
LINE
  5
3E6
330
75
100
AcDbEntity
  8
Visible Narrow (ISO)
100
AcDbLine
 10
76.21557369728527
 20
201.0362193245851
 30
0.0
 11
70.91227283838692
 21
197.9822514711421
 31
0.0
  0
LINE
  5
3E7
330
75
100
AcDbEntity
  8
Visible Narrow (ISO)
100
AcDbLine
 10
76.21557369728527
 20
259.1694235728552
 30
0.0
 11
70.91227283838694
 21
256.1154557194122
 31
0.0
  0
LINE
  5
3E8
330
75
100
AcDbEntity
  8
Visible Narrow (ISO)
100
AcDbLine
 10
60.30567112059038
 20
250.0075200125263
 30
0.0
 11
55.00237026169203
 21
246.9535521590833
 31
0.0
  0
LINE
  5
3E9
330
75
100
AcDbEntity
  8
Visible Narrow (ISO)
100
AcDbLine
 10
60.30567112059038
 20
191.8743157642561
 30
0.0
 11
55.00237026169202
 21
188.8203479108132
 31
0.0
  0
LINE
  5
3EA
330
75
100
AcDbEntity
  8
Visible Narrow (ISO)
100
AcDbLine
 10
63.28054485474371
 20
194.4473057358275
 30
0.0
 11
57.97724399584537
 21
191.3933378823845
 31
0.0
  0
LINE
  5
3EB
330
75
100
AcDbEntity
  8
Visible Narrow (ISO)
100
AcDbLine
 10
62.76277790177727
 20
193.3002351042873
 30
0.0
 11
57.45947704287893
 21
190.2462672508443
 31
0.0
  0
LINE
  5
3EC
330
75
100
AcDbEntity
  8
Visible (ISO)
100
AcDbLine
 10
63.28054485474371
 20
203.919232126949
 30
0.0
 11
57.97724399584538
 21
200.8652642735061
 31
0.0
  0
ELLIPSE
  5
3ED
330
75
100
AcDbEntity
  8
Visible Narrow (ISO)
100
AcDbEllipse
 10
60.62889442529453
 20
197.8344229792304
 30
0.0
 11
-1.522048245331756
 21
-2.643079480243175
 31
0.0
210
0.0
220
0.0
230
0.9999999999999998
 40
0.578093115915639
 41
0.0
 42
6.283185307179586
  0
LINE
  5
3EE
330
75
100
AcDbEntity
  8
Visible (ISO)
100
AcDbLine
 10
62.21988468296373
 20
204.5300256976375
 30
0.0
 11
56.9165838240654
 21
201.4760578441945
 31
0.0
  0
LINE
  5
3EF
330
75
100
AcDbEntity
  8
Visible Narrow (ISO)
100
AcDbLine
 10
78.67268047847217
 20
202.4621386646162
 30
0.0
 11
73.36937961957383
 21
199.4081708111733
 31
0.0
  0
LINE
  5
3F0
330
75
100
AcDbEntity
  8
Visible (ISO)
100
AcDbLine
 10
78.12978725965866
 20
213.6919292579664
 30
0.0
 11
72.8264864007603
 21
210.6379614045234
 31
0.0
  0
LINE
  5
3F1
330
75
100
AcDbEntity
  8
Visible (ISO)
100
AcDbLine
 10
79.19044743143863
 20
213.0811356872779
 30
0.0
 11
73.88714657254029
 21
210.027167833835
 31
0.0
  0
LINE
  5
3F2
330
75
100
AcDbEntity
  8
Visible Narrow (ISO)
100
AcDbLine
 10
79.19044743143861
 20
203.6092092961564
 30
0.0
 11
73.88714657254027
 21
200.5552414427135
 31
0.0
  0
ELLIPSE
  5
3F3
330
75
100
AcDbEntity
  8
Visible Narrow (ISO)
100
AcDbEllipse
 10
76.53879700198945
 20
206.9963265395593
 30
0.0
 11
-1.522048245331755
 21
-2.643079480243173
 31
0.0
210
0.0
220
0.0
230
1.0
 40
0.5780931159156393
 41
0.0
 42
6.283185307179586
  0
LINE
  5
3F4
330
75
100
AcDbEntity
  8
Visible Narrow (ISO)
100
AcDbLine
 10
62.76277790177728
 20
245.7516932914623
 30
0.0
 11
57.45947704287893
 21
242.6977254380194
 31
0.0
  0
LINE
  5
3F5
330
75
100
AcDbEntity
  8
Visible Narrow (ISO)
100
AcDbLine
 10
63.28054485474371
 20
244.0082983434238
 30
0.0
 11
57.97724399584538
 21
240.9543304899809
 31
0.0
  0
LINE
  5
3F6
330
75
100
AcDbEntity
  8
Visible (ISO)
100
AcDbLine
 10
63.28054485474372
 20
234.5363719523023
 30
0.0
 11
57.97724399584538
 21
231.4824040988593
 31
0.0
  0
ELLIPSE
  5
3F7
330
75
100
AcDbEntity
  8
Visible Narrow (ISO)
100
AcDbEllipse
 10
60.62889442529455
 20
237.5672132465779
 30
0.0
 11
-1.522048245331754
 21
-2.643079480243171
 31
0.0
210
0.0
220
0.0
230
0.9999999999999998
 40
0.578093115915639
 41
0.0
 42
6.283185307179586
  0
LINE
  5
3F8
330
75
100
AcDbEntity
  8
Visible Narrow (ISO)
100
AcDbLine
 10
78.67268047847218
 20
254.9135968517912
 30
0.0
 11
73.36937961957383
 21
251.8596289983483
 31
0.0
  0
LINE
  5
3F9
330
75
100
AcDbEntity
  8
Visible Narrow (ISO)
100
AcDbLine
 10
79.19044743143863
 20
253.1702019037528
 30
0.0
 11
73.88714657254029
 21
250.1162340503098
 31
0.0
  0
LINE
  5
3FA
330
75
100
AcDbEntity
  8
Visible (ISO)
100
AcDbLine
 10
79.19044743143863
 20
243.6982755126312
 30
0.0
 11
73.88714657254029
 21
240.6443076591882
 31
0.0
  0
ELLIPSE
  5
3FB
330
75
100
AcDbEntity
  8
Visible Narrow (ISO)
100
AcDbEllipse
 10
76.53879700198945
 20
246.7291168069069
 30
0.0
 11
-1.522048245331755
 21
-2.643079480243173
 31
0.0
210
0.0
220
0.0
230
1.0
 40
0.5780931159156393
 41
0.0
 42
6.283185307179586
  0
POLYLINE
  5
3FC
330
75
100
AcDbEntity
  8
Visible (ISO)
100
AcDb2dPolyline
 66
     1
 10
0.0
 20
0.0
 30
0.0
 70
   128
  0
VERTEX
  5
3FD
330
3FC
100
AcDbEntity
  8
Visible (ISO)
100
AcDbVertex
100
AcDb2dVertex
 10
58.94289977628471
 20
196.9606955952731
 30
0.0
  0
VERTEX
  5
3FE
330
3FC
100
AcDbEntity
  8
Visible (ISO)
100
AcDbVertex
100
AcDb2dVertex
 10
58.93232597493033
 20
196.9947168535908
 30
0.0
  0
VERTEX
  5
400
330
3FC
100
AcDbEntity
  8
Visible (ISO)
100
AcDbVertex
100
AcDb2dVertex
 10
58.91608257951426
 20
197.0979262955953
 30
0.0
  0
VERTEX
  5
401
330
3FC
100
AcDbEntity
  8
Visible (ISO)
100
AcDbVertex
100
AcDb2dVertex
 10
58.91286424616199
 20
197.2636029392067
 30
0.0
  0
VERTEX
  5
402
330
3FC
100
AcDbEntity
  8
Visible (ISO)
100
AcDbVertex
100
AcDb2dVertex
 10
58.93465416684214
 20
197.4796591690954
 30
0.0
  0
VERTEX
  5
403
330
3FC
100
AcDbEntity
  8
Visible (ISO)
100
AcDbVertex
100
AcDb2dVertex
 10
58.98777774057919
 20
197.7323113754463
 30
0.0
  0
VERTEX
  5
404
330
3FC
100
AcDbEntity
  8
Visible (ISO)
100
AcDbVertex
100
AcDb2dVertex
 10
59.07417540827864
 20
198.0078702237816
 30
0.0
  0
VERTEX
  5
405
330
3FC
100
AcDbEntity
  8
Visible (ISO)
100
AcDbVertex
100
AcDb2dVertex
 10
59.19273617901371
 20
198.2933549943536
 30
0.0
  0
VERTEX
  5
406
330
3FC
100
AcDbEntity
  8
Visible (ISO)
100
AcDbVertex
100
AcDb2dVertex
 10
59.34019620083573
 20
198.5765352977495
 30
0.0
  0
VERTEX
  5
407
330
3FC
100
AcDbEntity
  8
Visible (ISO)
100
AcDbVertex
100
AcDb2dVertex
 10
59.51112021616072
 20
198.8462012061933
 30
0.0
  0
VERTEX
  5
408
330
3FC
100
AcDbEntity
  8
Visible (ISO)
100
AcDbVertex
100
AcDb2dVertex
 10
59.69849667527043
 20
199.092062558321
 30
0.0
  0
VERTEX
  5
409
330
3FC
100
AcDbEntity
  8
Visible (ISO)
100
AcDbVertex
100
AcDb2dVertex
 10
59.8935017139606
 20
199.3050645991236
 30
0.0
  0
VERTEX
  5
40A
330
3FC
100
AcDbEntity
  8
Visible (ISO)
100
AcDbVertex
100
AcDb2dVertex
 10
60.08533056614698
 20
199.4778550694059
 30
0.0
  0
VERTEX
  5
40B
330
3FC
100
AcDbEntity
  8
Visible (ISO)
100
AcDbVertex
100
AcDb2dVertex
 10
60.26127005644475
 20
199.6051333282187
 30
0.0
  0
VERTEX
  5
40C
330
3FC
100
AcDbEntity
  8
Visible (ISO)
100
AcDbVertex
100
AcDb2dVertex
 10
60.40617429337306
 20
199.6855047350962
 30
0.0
  0
VERTEX
  5
40D
330
3FC
100
AcDbEntity
  8
Visible (ISO)
100
AcDbVertex
100
AcDb2dVertex
 10
60.50359589076897
 20
199.7232701675022
 30
0.0
  0
VERTEX
  5
40E
330
3FC
100
AcDbEntity
  8
Visible (ISO)
100
AcDbVertex
100
AcDb2dVertex
 10
60.53832826568979
 20
199.7312018709075
 30
0.0
  0
SEQEND
  5
3FF
330
3FC
100
AcDbEntity
  8
Visible (ISO)
  0
POLYLINE
  5
40F
330
75
100
AcDbEntity
  8
Visible (ISO)
100
AcDb2dPolyline
 66
     1
 10
0.0
 20
0.0
 30
0.0
 70
   128
  0
VERTEX
  5
410
330
40F
100
AcDbEntity
  8
Visible (ISO)
100
AcDbVertex
100
AcDb2dVertex
 10
74.85280235297967
 20
206.1225991556021
 30
0.0
  0
VERTEX
  5
411
330
40F
100
AcDbEntity
  8
Visible (ISO)
100
AcDbVertex
100
AcDb2dVertex
 10
74.84222939456227
 20
206.1566208993347
 30
0.0
  0
VERTEX
  5
413
330
40F
100
AcDbEntity
  8
Visible (ISO)
100
AcDbVertex
100
AcDb2dVertex
 10
74.82598599914618
 20
206.2598303413393
 30
0.0
  0
VERTEX
  5
414
330
40F
100
AcDbEntity
  8
Visible (ISO)
100
AcDbVertex
100
AcDb2dVertex
 10
74.82276766579392
 20
206.4255069849507
 30
0.0
  0
VERTEX
  5
415
330
40F
100
AcDbEntity
  8
Visible (ISO)
100
AcDbVertex
100
AcDb2dVertex
 10
74.8445567435371
 20
206.6415627294243
 30
0.0
  0
VERTEX
  5
416
330
40F
100
AcDbEntity
  8
Visible (ISO)
100
AcDbVertex
100
AcDb2dVertex
 10
74.89768031727416
 20
206.8942149357752
 30
0.0
  0
VERTEX
  5
417
330
40F
100
AcDbEntity
  8
Visible (ISO)
100
AcDbVertex
100
AcDb2dVertex
 10
74.98407714203664
 20
207.1697732986954
 30
0.0
  0
VERTEX
  5
418
330
40F
100
AcDbEntity
  8
Visible (ISO)
100
AcDbVertex
100
AcDb2dVertex
 10
75.1026379127717
 20
207.4552580692674
 30
0.0
  0
VERTEX
  5
419
330
40F
100
AcDbEntity
  8
Visible (ISO)
100
AcDbVertex
100
AcDb2dVertex
 10
75.25009962046766
 20
207.7384393434935
 30
0.0
  0
VERTEX
  5
41A
330
40F
100
AcDbEntity
  8
Visible (ISO)
100
AcDbVertex
100
AcDb2dVertex
 10
75.42102194991871
 20
208.008104281107
 30
0.0
  0
VERTEX
  5
41B
330
40F
100
AcDbEntity
  8
Visible (ISO)
100
AcDbVertex
100
AcDb2dVertex
 10
75.60840009490236
 20
208.253966604065
 30
0.0
  0
VERTEX
  5
41C
330
40F
100
AcDbEntity
  8
Visible (ISO)
100
AcDbVertex
100
AcDb2dVertex
 10
75.80340344771858
 20
208.4669676740373
 30
0.0
  0
VERTEX
  5
41D
330
40F
100
AcDbEntity
  8
Visible (ISO)
100
AcDbVertex
100
AcDb2dVertex
 10
75.99523314284195
 20
208.6397586297347
 30
0.0
  0
VERTEX
  5
41E
330
40F
100
AcDbEntity
  8
Visible (ISO)
100
AcDbVertex
100
AcDb2dVertex
 10
76.17117263313973
 20
208.7670368885475
 30
0.0
  0
VERTEX
  5
41F
330
40F
100
AcDbEntity
  8
Visible (ISO)
100
AcDbVertex
100
AcDb2dVertex
 10
76.31607771300498
 20
208.8474087808402
 30
0.0
  0
VERTEX
  5
420
330
40F
100
AcDbEntity
  8
Visible (ISO)
100
AcDbVertex
100
AcDb2dVertex
 10
76.41349846746393
 20
208.885173727831
 30
0.0
  0
VERTEX
  5
421
330
40F
100
AcDbEntity
  8
Visible (ISO)
100
AcDbVertex
100
AcDb2dVertex
 10
76.44823084238476
 20
208.8931054312364
 30
0.0
  0
SEQEND
  5
412
330
40F
100
AcDbEntity
  8
Visible (ISO)
  0
POLYLINE
  5
422
330
75
100
AcDbEntity
  8
Visible (ISO)
100
AcDb2dPolyline
 66
     1
 10
0.0
 20
0.0
 30
0.0
 70
   128
  0
VERTEX
  5
423
330
422
100
AcDbEntity
  8
Visible (ISO)
100
AcDbVertex
100
AcDb2dVertex
 10
60.5383282656898
 20
239.4639932297981
 30
0.0
  0
VERTEX
  5
424
330
422
100
AcDbEntity
  8
Visible (ISO)
100
AcDbVertex
100
AcDb2dVertex
 10
60.50359757664292
 20
239.456062497223
 30
0.0
  0
VERTEX
  5
426
330
422
100
AcDbEntity
  8
Visible (ISO)
100
AcDbVertex
100
AcDb2dVertex
 10
60.40617766512095
 20
239.4183077740447
 30
0.0
  0
VERTEX
  5
427
330
422
100
AcDbEntity
  8
Visible (ISO)
100
AcDbVertex
100
AcDb2dVertex
 10
60.26126668469689
 20
239.3379305271382
 30
0.0
  0
VERTEX
  5
428
330
422
100
AcDbEntity
  8
Visible (ISO)
100
AcDbVertex
100
AcDb2dVertex
 10
60.08533562376881
 20
239.2106396099136
 30
0.0
  0
VERTEX
  5
429
330
422
100
AcDbEntity
  8
Visible (ISO)
100
AcDbVertex
100
AcDb2dVertex
 10
59.89347979759937
 20
239.0378783623473
 30
0.0
  0
VERTEX
  5
42A
330
422
100
AcDbEntity
  8
Visible (ISO)
100
AcDbVertex
100
AcDb2dVertex
 10
59.69851184813589
 20
238.824841251276
 30
0.0
  0
VERTEX
  5
42B
330
422
100
AcDbEntity
  8
Visible (ISO)
100
AcDbVertex
100
AcDb2dVertex
 10
59.51110504329527
 20
238.5790013401749
 30
0.0
  0
VERTEX
  5
42C
330
422
100
AcDbEntity
  8
Visible (ISO)
100
AcDbVertex
100
AcDb2dVertex
 10
59.34019620083574
 20
238.309324707456
 30
0.0
  0
VERTEX
  5
42D
330
422
100
AcDbEntity
  8
Visible (ISO)
100
AcDbVertex
100
AcDb2dVertex
 10
59.19275303775314
 20
238.0261385489836
 30
0.0
  0
VERTEX
  5
42E
330
422
100
AcDbEntity
  8
Visible (ISO)
100
AcDbVertex
100
AcDb2dVertex
 10
59.0741568636653
 20
237.740668408579
 30
0.0
  0
VERTEX
  5
42F
330
422
100
AcDbEntity
  8
Visible (ISO)
100
AcDbVertex
100
AcDb2dVertex
 10
58.98780977218407
 20
237.4650959009065
 30
0.0
  0
VERTEX
  5
430
330
422
100
AcDbEntity
  8
Visible (ISO)
100
AcDbVertex
100
AcDb2dVertex
 10
58.93464742334638
 20
237.2124524771703
 30
0.0
  0
VERTEX
  5
431
330
422
100
AcDbEntity
  8
Visible (ISO)
100
AcDbVertex
100
AcDb2dVertex
 10
58.91287436140564
 20
236.9963942905736
 30
0.0
  0
VERTEX
  5
432
330
422
100
AcDbEntity
  8
Visible (ISO)
100
AcDbVertex
100
AcDb2dVertex
 10
58.91609269475792
 20
236.8307254361754
 30
0.0
  0
VERTEX
  5
433
330
422
100
AcDbEntity
  8
Visible (ISO)
100
AcDbVertex
100
AcDb2dVertex
 10
58.93232766080427
 20
236.7275091833116
 30
0.0
  0
VERTEX
  5
434
330
422
100
AcDbEntity
  8
Visible (ISO)
100
AcDbVertex
100
AcDb2dVertex
 10
58.94289977628471
 20
236.6934869541638
 30
0.0
  0
SEQEND
  5
425
330
422
100
AcDbEntity
  8
Visible (ISO)
  0
POLYLINE
  5
435
330
75
100
AcDbEntity
  8
Visible (ISO)
100
AcDb2dPolyline
 66
     1
 10
0.0
 20
0.0
 30
0.0
 70
   128
  0
VERTEX
  5
436
330
435
100
AcDbEntity
  8
Visible (ISO)
100
AcDbVertex
100
AcDb2dVertex
 10
76.44823084238476
 20
248.625896790127
 30
0.0
  0
VERTEX
  5
437
330
435
100
AcDbEntity
  8
Visible (ISO)
100
AcDbVertex
100
AcDb2dVertex
 10
76.41349931040091
 20
248.6179655721368
 30
0.0
  0
VERTEX
  5
439
330
435
100
AcDbEntity
  8
Visible (ISO)
100
AcDbVertex
100
AcDb2dVertex
 10
76.31607939887894
 20
248.5802108489585
 30
0.0
  0
VERTEX
  5
43A
330
435
100
AcDbEntity
  8
Visible (ISO)
100
AcDbVertex
100
AcDb2dVertex
 10
76.17116841845488
 20
248.499833602052
 30
0.0
  0
VERTEX
  5
43B
330
435
100
AcDbEntity
  8
Visible (ISO)
100
AcDbVertex
100
AcDb2dVertex
 10
75.9952373575268
 20
248.3725426848273
 30
0.0
  0
VERTEX
  5
43C
330
435
100
AcDbEntity
  8
Visible (ISO)
100
AcDbVertex
100
AcDb2dVertex
 10
75.80338153135738
 20
248.1997814372611
 30
0.0
  0
VERTEX
  5
43D
330
435
100
AcDbEntity
  8
Visible (ISO)
100
AcDbVertex
100
AcDb2dVertex
 10
75.60841526776783
 20
247.98674529702
 30
0.0
  0
VERTEX
  5
43E
330
435
100
AcDbEntity
  8
Visible (ISO)
100
AcDbVertex
100
AcDb2dVertex
 10
75.42100677705326
 20
247.7409044150886
 30
0.0
  0
VERTEX
  5
43F
330
435
100
AcDbEntity
  8
Visible (ISO)
100
AcDbVertex
100
AcDb2dVertex
 10
75.2500987775307
 20
247.4712282677848
 30
0.0
  0
VERTEX
  5
440
330
435
100
AcDbEntity
  8
Visible (ISO)
100
AcDbVertex
100
AcDb2dVertex
 10
75.1026556144481
 20
247.1880421093124
 30
0.0
  0
VERTEX
  5
441
330
435
100
AcDbEntity
  8
Visible (ISO)
100
AcDbVertex
100
AcDb2dVertex
 10
74.9840585974233
 20
246.9025714834927
 30
0.0
  0
VERTEX
  5
442
330
435
100
AcDbEntity
  8
Visible (ISO)
100
AcDbVertex
100
AcDb2dVertex
 10
74.89771150594207
 20
246.6269989758202
 30
0.0
  0
VERTEX
  5
443
330
435
100
AcDbEntity
  8
Visible (ISO)
100
AcDbVertex
100
AcDb2dVertex
 10
74.84455000004134
 20
246.3743560374991
 30
0.0
  0
VERTEX
  5
444
330
435
100
AcDbEntity
  8
Visible (ISO)
100
AcDbVertex
100
AcDb2dVertex
 10
74.8227769381006
 20
246.1582978509024
 30
0.0
  0
VERTEX
  5
445
330
435
100
AcDbEntity
  8
Visible (ISO)
100
AcDbVertex
100
AcDb2dVertex
 10
74.82599442851591
 20
245.9926285110892
 30
0.0
  0
VERTEX
  5
446
330
435
100
AcDbEntity
  8
Visible (ISO)
100
AcDbVertex
100
AcDb2dVertex
 10
74.84222939456228
 20
245.8894122582254
 30
0.0
  0
VERTEX
  5
447
330
435
100
AcDbEntity
  8
Visible (ISO)
100
AcDbVertex
100
AcDb2dVertex
 10
74.85280235297967
 20
245.8553905144927
 30
0.0
  0
SEQEND
  5
438
330
435
100
AcDbEntity
  8
Visible (ISO)
  0
ELLIPSE
  5
448
330
75
100
AcDbEntity
  8
Visible (ISO)
100
AcDbEllipse
 10
496.8786569661101
 20
182.7558307299435
 30
0.0
 11
0.8234031491139848
 21
-1.429862669639697
 31
0.0
210
0.0
220
0.0
230
1.0
 40
0.578093115915639
 41
3.980037119553868
 42
5.444740841215061
  0
ELLIPSE
  5
449
330
75
100
AcDbEntity
  8
Visible (ISO)
100
AcDbEllipse
 10
495.6493401733929
 20
182.0479142706397
 30
0.0
 11
0.823403149113815
 21
-1.429862669639799
 31
0.0
210
0.0
220
0.0
230
0.9999999999999998
 40
0.578093115915639
 41
0.0
 42
6.283185307179586
  0
ELLIPSE
  5
44A
330
75
100
AcDbEntity
  8
Visible (ISO)
100
AcDbEllipse
 10
512.7885595428051
 20
173.5939271696146
 30
0.0
 11
0.8234031491139793
 21
-1.429862669639687
 31
0.0
210
0.0
220
0.0
230
1.0
 40
0.578093115915639
 41
3.980037119553868
 42
5.444740841215121
  0
ELLIPSE
  5
44B
330
75
100
AcDbEntity
  8
Visible (ISO)
100
AcDbEllipse
 10
511.559242750088
 20
172.8860107103108
 30
0.0
 11
0.823403149113815
 21
-1.429862669639799
 31
0.0
210
0.0
220
0.0
230
0.9999999999999998
 40
0.578093115915639
 41
0.0
 42
6.283185307179586
  0
ELLIPSE
  5
44C
330
75
100
AcDbEntity
  8
Visible (ISO)
100
AcDbEllipse
 10
512.7885595428051
 20
213.3267174369621
 30
0.0
 11
0.8234031491139809
 21
-1.429862669639691
 31
0.0
210
0.0
220
0.0
230
0.9999999999999998
 40
0.578093115915639
 41
3.980037119553868
 42
5.444740841215062
  0
ELLIPSE
  5
44D
330
75
100
AcDbEntity
  8
Visible (ISO)
100
AcDbEllipse
 10
511.559242750088
 20
212.6188009776584
 30
0.0
 11
0.823403149113815
 21
-1.429862669639799
 31
0.0
210
0.0
220
0.0
230
0.9999999999999998
 40
0.578093115915639
 41
0.0
 42
6.283185307179586
  0
ELLIPSE
  5
44E
330
75
100
AcDbEntity
  8
Visible (ISO)
100
AcDbEllipse
 10
496.8786569661101
 20
222.4886209972909
 30
0.0
 11
0.8234031491139845
 21
-1.429862669639697
 31
0.0
210
0.0
220
0.0
230
1.0
 40
0.578093115915639
 41
3.980037119553868
 42
5.444740841215062
  0
ELLIPSE
  5
44F
330
75
100
AcDbEntity
  8
Visible (ISO)
100
AcDbEllipse
 10
495.6493401733929
 20
221.7807045379872
 30
0.0
 11
0.823403149113815
 21
-1.429862669639799
 31
0.0
210
0.0
220
0.0
230
0.9999999999999998
 40
0.578093115915639
 41
0.0
 42
6.283185307179586
  0
ELLIPSE
  5
450
330
75
100
AcDbEntity
  8
Visible (ISO)
100
AcDbEllipse
 10
495.6493401733929
 20
182.0479142706397
 30
0.0
 11
1.122822476064409
 21
-1.949812731326931
 31
0.0
210
0.0
220
0.0
230
0.9999999999999998
 40
0.578093115915639
 41
0.0
 42
6.283185307179586
  0
ELLIPSE
  5
451
330
75
100
AcDbEntity
  8
Visible (ISO)
100
AcDbEllipse
 10
496.4978683108169
 20
182.5365491271904
 30
0.0
 11
-1.122822476064406
 21
1.949812731326923
 31
0.0
210
0.0
220
0.0
230
0.9999999999999998
 40
0.5780931159156392
 41
4.910689881989639
 42
6.283185307179558
  0
ELLIPSE
  5
452
330
75
100
AcDbEntity
  8
Visible (ISO)
100
AcDbEllipse
 10
512.4077708875119
 20
173.3746455668616
 30
0.0
 11
1.122822476064404
 21
-1.949812731326933
 31
0.0
210
0.0
220
0.0
230
1.0
 40
0.578093115915639
 41
0.0
 42
3.14159265358978
  0
ELLIPSE
  5
453
330
75
100
AcDbEntity
  8
Visible (ISO)
100
AcDbEllipse
 10
511.559242750088
 20
172.8860107103108
 30
0.0
 11
1.122822476064409
 21
-1.949812731326931
 31
0.0
210
0.0
220
0.0
230
0.9999999999999998
 40
0.578093115915639
 41
0.0
 42
6.283185307179586
  0
ELLIPSE
  5
454
330
75
100
AcDbEntity
  8
Visible (ISO)
100
AcDbEllipse
 10
495.6493401733929
 20
221.7807045379872
 30
0.0
 11
1.122822476064292
 21
-1.949812731326998
 31
0.0
210
0.0
220
0.0
230
0.9999999999999998
 40
0.578093115915639
 41
0.0
 42
6.283185307179586
  0
ELLIPSE
  5
455
330
75
100
AcDbEntity
  8
Visible (ISO)
100
AcDbEllipse
 10
496.4978683108169
 20
222.269339394538
 30
0.0
 11
-1.122822476064416
 21
1.949812731326922
 31
0.0
210
0.0
220
0.0
230
1.0
 40
0.578093115915639
 41
4.910689881989636
 42
6.283185307179584
  0
ELLIPSE
  5
456
330
75
100
AcDbEntity
  8
Visible (ISO)
100
AcDbEllipse
 10
512.4077708875119
 20
213.1074358342091
 30
0.0
 11
-1.122822476064416
 21
1.949812731326926
 31
0.0
210
0.0
220
0.0
230
0.9999999999999998
 40
0.578093115915639
 41
3.141592653589794
 42
6.283185307179588
  0
ELLIPSE
  5
457
330
75
100
AcDbEntity
  8
Visible (ISO)
100
AcDbEllipse
 10
511.559242750088
 20
212.6188009776584
 30
0.0
 11
1.122822476064292
 21
-1.949812731326998
 31
0.0
210
0.0
220
0.0
230
0.9999999999999998
 40
0.578093115915639
 41
0.0
 42
6.283185307179586
  0
LINE
  5
458
330
75
100
AcDbEntity
  8
Visible (ISO)
100
AcDbLine
 10
521.4233823476483
 20
274.8958809049533
 30
0.0
 11
520.3627221758686
 21
275.5066744756419
 31
0.0
  0
LINE
  5
459
330
75
100
AcDbEntity
  8
Visible (ISO)
100
AcDbLine
 10
520.3627221758686
 20
275.5066744756419
 30
0.0
 11
502.3314992556088
 21
265.1231837739387
 31
0.0
  0
LINE
  5
45A
330
75
100
AcDbEntity
  8
Visible (ISO)
100
AcDbLine
 10
521.4233823476483
 20
274.8958809049533
 30
0.0
 11
502.3314992556088
 21
263.9015966325619
 31
0.0
  0
LINE
  5
45B
330
75
100
AcDbEntity
  8
Visible (ISO)
100
AcDbLine
 10
521.7769357382419
 20
166.3609776119048
 30
0.0
 11
520.3627221758686
 21
167.1816804340053
 31
0.0
  0
LINE
  5
45C
330
75
100
AcDbEntity
  8
Visible (ISO)
100
AcDbLine
 10
520.3627221758686
 20
172.9092438537901
 30
0.0
 11
520.3627221758686
 21
167.1816804340053
 31
0.0
  0
LINE
  5
45D
330
75
100
AcDbEntity
  8
Visible (ISO)
100
AcDbLine
 10
491.3713441472159
 20
148.851561918837
 30
0.0
 11
489.9571305848427
 21
149.6722647409375
 31
0.0
  0
LINE
  5
45E
330
75
100
AcDbEntity
  8
Visible (ISO)
100
AcDbLine
 10
489.9571305848427
 20
155.4140287983816
 30
0.0
 11
489.9571305848427
 21
149.6722647409375
 31
0.0
  0
LINE
  5
45F
330
75
100
AcDbEntity
  8
Visible (ISO)
100
AcDbLine
 10
489.9571305848426
 20
254.3182967207826
 30
0.0
 11
487.4822568506893
 21
252.8931117225097
 31
0.0
  0
LINE
  5
460
330
75
100
AcDbEntity
  8
Visible (ISO)
100
AcDbLine
 10
489.9571305848426
 20
264.9464093437357
 30
0.0
 11
489.9571305848426
 21
254.3182967207826
 31
0.0
  0
LINE
  5
461
330
75
100
AcDbEntity
  8
Visible (ISO)
100
AcDbLine
 10
489.9571305848426
 20
264.9464093437357
 30
0.0
 11
491.3713441472159
 21
267.3958950210054
 31
0.0
  0
LINE
  5
462
330
75
100
AcDbEntity
  8
Visible (ISO)
100
AcDbLine
 10
499.8566255214558
 20
272.2822435865126
 30
0.0
 11
491.3713441472159
 21
267.3958950210054
 31
0.0
  0
LINE
  5
463
330
75
100
AcDbEntity
  8
Visible (ISO)
100
AcDbLine
 10
520.3627221758686
 20
282.4558250368034
 30
0.0
 11
520.3627221758686
 21
275.5066744756419
 31
0.0
  0
LINE
  5
464
330
75
100
AcDbEntity
  8
Visible (ISO)
100
AcDbLine
 10
520.3627221758686
 20
282.4558250368034
 30
0.0
 11
521.7769357382419
 21
284.9053107140731
 31
0.0
  0
LINE
  5
465
330
75
100
AcDbEntity
  8
Visible (ISO)
100
AcDbLine
 10
530.2622171124818
 20
289.7916592795803
 30
0.0
 11
521.7769357382419
 21
284.9053107140731
 31
0.0
  0
ELLIPSE
  5
466
330
75
100
AcDbEntity
  8
Visible (ISO)
100
AcDbEllipse
 10
495.6139848343358
 20
265.7513336795462
 30
0.0
 11
-1.297483750119589
 21
-2.25311693397738
 31
0.0
210
0.0
220
0.0
230
0.9999999999999998
 40
0.578093115915811
 41
0.4193421108859621
 42
2.722250542704699
  0
ELLIPSE
  5
467
330
75
100
AcDbEntity
  8
Visible (ISO)
100
AcDbEllipse
 10
526.0195764253619
 20
283.260749372614
 30
0.0
 11
-1.297483750119588
 21
-2.253116933977379
 31
0.0
210
0.0
220
0.0
230
1.0
 40
0.5780931159158108
 41
0.4193421108859603
 42
2.722250542704699
  0
ELLIPSE
  5
468
330
75
100
AcDbEntity
  8
Visible (ISO)
100
AcDbEllipse
 10
526.0195764253619
 20
172.8918875188711
 30
0.0
 11
-1.297483750119587
 21
-2.253116933977378
 31
0.0
210
0.0
220
0.0
230
1.0
 40
0.5780931159158108
 41
0.4193421108859559
 42
2.722250542704699
  0
LINE
  5
469
330
75
100
AcDbEntity
  8
Visible (ISO)
100
AcDbLine
 10
528.8480035501086
 20
213.8692134927116
 30
0.0
 11
524.251809472395
 21
211.2224413530617
 31
0.0
  0
LINE
  5
46A
330
75
100
AcDbEntity
  8
Visible (ISO)
100
AcDbLine
 10
528.8480035501086
 20
214.1192111760514
 30
0.0
 11
528.8480035501086
 21
213.8692134927116
 31
0.0
  0
ELLIPSE
  5
46B
330
75
100
AcDbEntity
  8
Visible (ISO)
100
AcDbEllipse
 10
526.0195764253619
 20
248.0244682919005
 30
0.0
 11
-0.6736934856390209
 21
-1.169887638795953
 31
0.0
210
0.0
220
0.0
230
1.0
 40
0.5780931159158106
 41
0.9013402729253918
 42
2.240252380664715
  0
ELLIPSE
  5
46C
330
75
100
AcDbEntity
  8
Visible (ISO)
100
AcDbEllipse
 10
526.0195764253619
 20
208.291678024553
 30
0.0
 11
-0.6736934856390132
 21
-1.16988763879594
 31
0.0
210
0.0
220
0.0
230
1.0
 40
0.5780931159158107
 41
0.9013402729253954
 42
2.240252380664808
  0
LINE
  5
46D
330
75
100
AcDbEntity
  8
Visible (ISO)
100
AcDbLine
 10
512.0188621578662
 20
191.5632033681351
 30
0.0
 11
509.9682524924246
 21
190.3823357981373
 31
0.0
  0
LINE
  5
46E
330
75
100
AcDbEntity
  8
Visible (ISO)
100
AcDbLine
 10
512.0188621578662
 20
193.9388235760655
 30
0.0
 11
512.0188621578662
 21
191.5632033681351
 31
0.0
  0
LINE
  5
46F
330
75
100
AcDbEntity
  8
Visible (ISO)
100
AcDbLine
 10
512.0188621578662
 20
196.7955049671274
 30
0.0
 11
509.9682524924246
 21
195.6146373971296
 31
0.0
  0
LINE
  5
470
330
75
100
AcDbEntity
  8
Visible (ISO)
100
AcDbLine
 10
512.0188621578662
 20
202.3548254160567
 30
0.0
 11
512.0188621578662
 21
196.7955049671274
 31
0.0
  0
LINE
  5
471
330
75
100
AcDbEntity
  8
Visible (ISO)
100
AcDbLine
 10
513.4330757202396
 20
204.8043110933263
 30
0.0
 11
512.0188621578662
 21
202.3548254160567
 31
0.0
  0
LINE
  5
472
330
75
100
AcDbEntity
  8
Visible (ISO)
100
AcDbLine
 10
513.4330757202396
 20
207.9591768282088
 30
0.0
 11
513.4330757202396
 21
204.8043110933263
 31
0.0
  0
LINE
  5
473
330
75
100
AcDbEntity
  8
Visible (ISO)
100
AcDbLine
 10
512.0188621578662
 20
251.5711623315776
 30
0.0
 11
509.9682524924246
 21
250.3902947615798
 31
0.0
  0
LINE
  5
474
330
75
100
AcDbEntity
  8
Visible (ISO)
100
AcDbLine
 10
512.0188621578662
 20
257.1304827805068
 30
0.0
 11
512.0188621578662
 21
251.5711623315776
 31
0.0
  0
LINE
  5
475
330
75
100
AcDbEntity
  8
Visible (ISO)
100
AcDbLine
 10
513.4330757202396
 20
259.5799684577765
 30
0.0
 11
512.0188621578662
 21
257.1304827805068
 31
0.0
  0
LINE
  5
476
330
75
100
AcDbEntity
  8
Visible (ISO)
100
AcDbLine
 10
513.4330757202396
 20
262.7731357905493
 30
0.0
 11
513.4330757202396
 21
259.5799684577765
 31
0.0
  0
LINE
  5
477
330
75
100
AcDbEntity
  8
Visible (ISO)
100
AcDbLine
 10
521.4233823476483
 20
173.5200374244783
 30
0.0
 11
521.4233823476483
 21
166.5708868633167
 31
0.0
  0
LINE
  5
478
330
75
100
AcDbEntity
  8
Visible (ISO)
100
AcDbLine
 10
521.4233823476483
 20
166.5708868633167
 30
0.0
 11
522.8375959100217
 21
165.7501840412162
 31
0.0
  0
LINE
  5
479
330
75
100
AcDbEntity
  8
Visible (ISO)
100
AcDbLine
 10
522.8375959100217
 20
165.7501840412162
 30
0.0
 11
531.3228772842615
 21
170.6365326067234
 31
0.0
  0
LINE
  5
47A
330
75
100
AcDbEntity
  8
Visible (ISO)
100
AcDbLine
 10
531.3228772842615
 20
170.6365326067234
 30
0.0
 11
532.7370908466348
 21
173.0860182839931
 31
0.0
  0
LINE
  5
47B
330
75
100
AcDbEntity
  8
Visible (ISO)
100
AcDbLine
 10
532.7370908466348
 20
173.0860182839931
 30
0.0
 11
532.7370908466348
 21
288.3601628867912
 31
0.0
  0
LINE
  5
47C
330
75
100
AcDbEntity
  8
Visible (ISO)
100
AcDbLine
 10
532.7370908466348
 20
288.3601628867912
 30
0.0
 11
531.3228772842615
 21
289.1808657088918
 31
0.0
  0
LINE
  5
47D
330
75
100
AcDbEntity
  8
Visible (ISO)
100
AcDbLine
 10
531.3228772842615
 20
289.1808657088918
 30
0.0
 11
522.8375959100217
 21
284.2945171433845
 31
0.0
  0
LINE
  5
47E
330
75
100
AcDbEntity
  8
Visible (ISO)
100
AcDbLine
 10
522.8375959100217
 20
284.2945171433845
 30
0.0
 11
521.4233823476483
 21
281.8450314661149
 31
0.0
  0
LINE
  5
47F
330
75
100
AcDbEntity
  8
Visible (ISO)
100
AcDbLine
 10
521.4233823476483
 20
281.8450314661149
 30
0.0
 11
521.4233823476483
 21
274.8958809049533
 31
0.0
  0
LINE
  5
480
330
75
100
AcDbEntity
  8
Visible (ISO)
100
AcDbLine
 10
502.3314992556088
 20
263.9015966325619
 30
0.0
 11
502.3314992556088
 21
270.8507471937235
 31
0.0
  0
LINE
  5
481
330
75
100
AcDbEntity
  8
Visible (ISO)
100
AcDbLine
 10
502.3314992556088
 20
270.8507471937235
 30
0.0
 11
500.9172856932354
 21
271.671450015824
 31
0.0
  0
LINE
  5
482
330
75
100
AcDbEntity
  8
Visible (ISO)
100
AcDbLine
 10
500.9172856932354
 20
271.671450015824
 30
0.0
 11
492.4320043189956
 21
266.7851014503167
 31
0.0
  0
LINE
  5
483
330
75
100
AcDbEntity
  8
Visible (ISO)
100
AcDbLine
 10
492.4320043189956
 20
266.7851014503167
 30
0.0
 11
491.0177907566223
 21
264.3356157730471
 31
0.0
  0
LINE
  5
484
330
75
100
AcDbEntity
  8
Visible (ISO)
100
AcDbLine
 10
491.0177907566223
 20
264.3356157730471
 30
0.0
 11
491.0177907566223
 21
253.7075031500941
 31
0.0
  0
LINE
  5
485
330
75
100
AcDbEntity
  8
Visible (ISO)
100
AcDbLine
 10
491.0177907566223
 20
253.7075031500941
 30
0.0
 11
488.542917022469
 21
252.2823181518211
 31
0.0
  0
LINE
  5
486
330
75
100
AcDbEntity
  8
Visible Narrow (ISO)
100
AcDbLine
 10
488.542917022469
 20
251.4679267242365
 30
0.0
 11
488.542917022469
 21
252.2823181518211
 31
0.0
  0
LINE
  5
487
330
75
100
AcDbEntity
  8
Visible (ISO)
100
AcDbLine
 10
491.0177907566223
 20
154.803235227693
 30
0.0
 11
491.0177907566223
 21
149.0614711702489
 31
0.0
  0
LINE
  5
488
330
75
100
AcDbEntity
  8
Visible (ISO)
100
AcDbLine
 10
491.0177907566223
 20
149.0614711702489
 30
0.0
 11
492.4320043189956
 21
148.2407683481484
 31
0.0
  0
LINE
  5
489
330
75
100
AcDbEntity
  8
Visible (ISO)
100
AcDbLine
 10
492.4320043189956
 20
148.2407683481484
 30
0.0
 11
497.4228514634788
 21
151.1148060741274
 31
0.0
  0
LINE
  5
48A
330
75
100
AcDbEntity
  8
Visible (ISO)
100
AcDbLine
 10
506.2205865521298
 20
164.7653295779412
 30
0.0
 11
507.2932118096376
 21
165.3830133832493
 31
0.0
  0
LINE
  5
48B
330
75
100
AcDbEntity
  8
Visible (ISO)
100
AcDbLine
 10
516.120081488741
 20
170.466069571032
 30
0.0
 11
521.4233823476483
 21
173.5200374244783
 31
0.0
  0
ELLIPSE
  5
48C
330
75
100
AcDbEntity
  8
Visible (ISO)
100
AcDbEllipse
 10
496.6746450061155
 20
265.1405401088577
 30
0.0
 11
1.297483750119454
 21
2.253116933977458
 31
0.0
210
0.0
220
0.0
230
1.0
 40
0.5780931159158108
 41
0.0
 42
6.283185307179586
  0
ELLIPSE
  5
48D
330
75
100
AcDbEntity
  8
Visible (ISO)
100
AcDbEllipse
 10
527.0802365971416
 20
282.6499558019254
 30
0.0
 11
1.297483750119454
 21
2.253116933977458
 31
0.0
210
0.0
220
0.0
230
1.0
 40
0.5780931159158108
 41
0.0
 42
6.283185307179586
  0
ELLIPSE
  5
48E
330
75
100
AcDbEntity
  8
Visible (ISO)
100
AcDbEllipse
 10
527.0802365971416
 20
172.2810939481825
 30
0.0
 11
1.297483750119454
 21
2.253116933977458
 31
0.0
210
0.0
220
0.0
230
1.0
 40
0.5780931159158108
 41
0.0
 42
6.283185307179586
  0
LINE
  5
48F
330
75
100
AcDbEntity
  8
Visible (ISO)
100
AcDbLine
 10
524.251809472395
 20
210.0008542116849
 30
0.0
 11
524.251809472395
 21
211.4724390364014
 31
0.0
  0
LINE
  5
490
330
75
100
AcDbEntity
  8
Visible (ISO)
100
AcDbLine
 10
524.251809472395
 20
211.4724390364014
 30
0.0
 11
529.9086637218882
 21
214.7300047467396
 31
0.0
  0
LINE
  5
491
330
75
100
AcDbEntity
  8
Visible (ISO)
100
AcDbLine
 10
529.9086637218882
 20
214.7300047467396
 30
0.0
 11
529.9086637218882
 21
213.2584199220231
 31
0.0
  0
LINE
  5
492
330
75
100
AcDbEntity
  8
Visible (ISO)
100
AcDbLine
 10
529.9086637218882
 20
213.2584199220231
 30
0.0
 11
524.251809472395
 21
210.0008542116849
 31
0.0
  0
ELLIPSE
  5
493
330
75
100
AcDbEntity
  8
Visible (ISO)
100
AcDbEllipse
 10
527.0802365971416
 20
247.4136747212119
 30
0.0
 11
0.6736934856389452
 21
1.169887638795983
 31
0.0
210
0.0
220
0.0
230
1.0
 40
0.5780931159158107
 41
0.0
 42
6.283185307179586
  0
ELLIPSE
  5
494
330
75
100
AcDbEntity
  8
Visible (ISO)
100
AcDbEllipse
 10
527.0802365971416
 20
207.6808844538645
 30
0.0
 11
0.6736934856389468
 21
1.169887638795986
 31
0.0
210
0.0
220
0.0
230
1.0
 40
0.5780931159158108
 41
0.0
 42
6.283185307179586
  0
ELLIPSE
  5
495
330
75
100
AcDbEntity
  8
Visible (ISO)
100
AcDbEllipse
 10
511.5238874110351
 20
214.7465023973484
 30
0.0
 11
1.122822476064939
 21
1.949812731326962
 31
0.0
210
0.0
220
0.0
230
0.9999999999999998
 40
0.5780931159158107
 41
4.242468493918222
 42
4.33710012999604
  0
LINE
  5
496
330
75
100
AcDbEntity
  8
Visible (ISO)
100
AcDbLine
 10
509.9682524924246
 20
189.1607486567605
 30
0.0
 11
513.0795223296458
 21
190.9524097974465
 31
0.0
  0
LINE
  5
497
330
75
100
AcDbEntity
  8
Visible (ISO)
100
AcDbLine
 10
509.9682524924246
 20
192.7579560060677
 30
0.0
 11
509.9682524924246
 21
189.1607486567605
 31
0.0
  0
LINE
  5
498
330
75
100
AcDbEntity
  8
Visible (ISO)
100
AcDbLine
 10
513.0795223296458
 20
194.5496171467537
 30
0.0
 11
509.9682524924246
 21
192.7579560060677
 31
0.0
  0
LINE
  5
499
330
75
100
AcDbEntity
  8
Visible (ISO)
100
AcDbLine
 10
513.0795223296458
 20
190.9524097974465
 30
0.0
 11
513.0795223296458
 21
194.5496171467537
 31
0.0
  0
LINE
  5
49A
330
75
100
AcDbEntity
  8
Visible (ISO)
100
AcDbLine
 10
508.5540389300513
 20
205.1878280009324
 30
0.0
 11
508.5540389300513
 21
200.7730735267826
 31
0.0
  0
LINE
  5
49B
330
75
100
AcDbEntity
  8
Visible (ISO)
100
AcDbLine
 10
513.3998198205809
 20
207.978327627154
 30
0.0
 11
508.5540389300513
 21
205.1878280009324
 31
0.0
  0
LINE
  5
49C
330
75
100
AcDbEntity
  8
Visible (ISO)
100
AcDbLine
 10
514.4937358920192
 20
204.1935175226377
 30
0.0
 11
514.4937358920192
 21
207.3483832575202
 31
0.0
  0
LINE
  5
49D
330
75
100
AcDbEntity
  8
Visible (ISO)
100
AcDbLine
 10
513.0795223296458
 20
201.7440318453681
 30
0.0
 11
514.4937358920192
 21
204.1935175226377
 31
0.0
  0
LINE
  5
49E
330
75
100
AcDbEntity
  8
Visible (ISO)
100
AcDbLine
 10
513.0795223296458
 20
196.1847113964388
 30
0.0
 11
513.0795223296458
 21
201.7440318453681
 31
0.0
  0
LINE
  5
49F
330
75
100
AcDbEntity
  8
Visible (ISO)
100
AcDbLine
 10
509.9682524924246
 20
194.3930502557528
 30
0.0
 11
513.0795223296458
 21
196.1847113964388
 31
0.0
  0
LINE
  5
4A0
330
75
100
AcDbEntity
  8
Visible (ISO)
100
AcDbLine
 10
509.9682524924246
 20
199.9523707046821
 30
0.0
 11
509.9682524924246
 21
194.3930502557528
 31
0.0
  0
LINE
  5
4A1
330
75
100
AcDbEntity
  8
Visible (ISO)
100
AcDbLine
 10
508.5540389300513
 20
200.7730735267826
 30
0.0
 11
509.9682524924246
 21
199.9523707046821
 31
0.0
  0
LINE
  5
4A2
330
75
100
AcDbEntity
  8
Visible (ISO)
100
AcDbLine
 10
508.5540389300513
 20
259.9634853653825
 30
0.0
 11
508.5540389300513
 21
255.5487308912328
 31
0.0
  0
LINE
  5
4A3
330
75
100
AcDbEntity
  8
Visible (ISO)
100
AcDbLine
 10
514.4937358920192
 20
263.3839293612376
 30
0.0
 11
508.5540389300513
 21
259.9634853653825
 31
0.0
  0
LINE
  5
4A4
330
75
100
AcDbEntity
  8
Visible (ISO)
100
AcDbLine
 10
514.4937358920192
 20
258.9691748870879
 30
0.0
 11
514.4937358920192
 21
263.3839293612376
 31
0.0
  0
LINE
  5
4A5
330
75
100
AcDbEntity
  8
Visible (ISO)
100
AcDbLine
 10
513.0795223296458
 20
256.5196892098183
 30
0.0
 11
514.4937358920192
 21
258.9691748870879
 31
0.0
  0
LINE
  5
4A6
330
75
100
AcDbEntity
  8
Visible (ISO)
100
AcDbLine
 10
513.0795223296458
 20
250.960368760889
 30
0.0
 11
513.0795223296458
 21
256.5196892098183
 31
0.0
  0
LINE
  5
4A7
330
75
100
AcDbEntity
  8
Visible (ISO)
100
AcDbLine
 10
509.9682524924246
 20
249.168707620203
 30
0.0
 11
513.0795223296458
 21
250.960368760889
 31
0.0
  0
LINE
  5
4A8
330
75
100
AcDbEntity
  8
Visible (ISO)
100
AcDbLine
 10
509.9682524924246
 20
254.7280280691323
 30
0.0
 11
509.9682524924246
 21
249.168707620203
 31
0.0
  0
LINE
  5
4A9
330
75
100
AcDbEntity
  8
Visible (ISO)
100
AcDbLine
 10
508.5540389300513
 20
255.5487308912328
 30
0.0
 11
509.9682524924246
 21
254.7280280691323
 31
0.0
  0
LINE
  5
4AA
330
75
100
AcDbEntity
  8
Visible (ISO)
100
AcDbLine
 10
521.4233823476483
 20
281.8450314661149
 30
0.0
 11
520.3627221758686
 21
282.4558250368034
 31
0.0
  0
LINE
  5
4AB
330
75
100
AcDbEntity
  8
Visible (ISO)
100
AcDbLine
 10
522.8375959100217
 20
165.7501840412162
 30
0.0
 11
521.7769357382419
 21
166.3609776119048
 31
0.0
  0
LINE
  5
4AC
330
75
100
AcDbEntity
  8
Visible (ISO)
100
AcDbLine
 10
513.0795223296458
 20
201.7440318453681
 30
0.0
 11
512.0188621578662
 21
202.3548254160567
 31
0.0
  0
LINE
  5
4AD
330
75
100
AcDbEntity
  8
Visible (ISO)
100
AcDbLine
 10
513.0795223296458
 20
196.1847113964388
 30
0.0
 11
512.0188621578662
 21
196.7955049671274
 31
0.0
  0
LINE
  5
4AE
330
75
100
AcDbEntity
  8
Visible (ISO)
100
AcDbLine
 10
514.4937358920192
 20
258.9691748870879
 30
0.0
 11
513.4330757202396
 21
259.5799684577765
 31
0.0
  0
LINE
  5
4AF
330
75
100
AcDbEntity
  8
Visible (ISO)
100
AcDbLine
 10
500.9172856932354
 20
271.671450015824
 30
0.0
 11
499.8566255214558
 21
272.2822435865126
 31
0.0
  0
LINE
  5
4B0
330
75
100
AcDbEntity
  8
Visible (ISO)
100
AcDbLine
 10
491.3713441472159
 20
267.3958950210054
 30
0.0
 11
492.4320043189956
 21
266.7851014503167
 31
0.0
  0
LINE
  5
4B1
330
75
100
AcDbEntity
  8
Visible (ISO)
100
AcDbLine
 10
520.3627221758686
 20
167.1816804340053
 30
0.0
 11
521.4233823476483
 21
166.5708868633167
 31
0.0
  0
LINE
  5
4B2
330
75
100
AcDbEntity
  8
Visible (ISO)
100
AcDbLine
 10
521.7769357382419
 20
284.9053107140731
 30
0.0
 11
522.8375959100217
 21
284.2945171433845
 31
0.0
  0
LINE
  5
4B3
330
75
100
AcDbEntity
  8
Visible (ISO)
100
AcDbLine
 10
531.3228772842615
 20
289.1808657088918
 30
0.0
 11
530.2622171124818
 21
289.7916592795803
 31
0.0
  0
LINE
  5
4B4
330
75
100
AcDbEntity
  8
Visible (ISO)
100
AcDbLine
 10
491.0177907566223
 20
264.3356157730471
 30
0.0
 11
489.9571305848426
 21
264.9464093437357
 31
0.0
  0
ELLIPSE
  5
4B5
330
75
100
AcDbEntity
  8
Visible (ISO)
100
AcDbEllipse
 10
489.2500238036554
 20
157.8572030811366
 30
0.0
 11
-2.499999999999995
 21
0.0000000000000004
 31
0.0
210
0.0
220
0.0
230
1.0
 40
0.5758617009853118
 41
0.0000000000000017
 42
0.7853981633972857
  0
LINE
  5
4B6
330
75
100
AcDbEntity
  8
Visible Narrow (ISO)
100
AcDbLine
 10
487.4822568506886
 20
156.8392137966558
 30
0.0
 11
487.4822568506888
 21
250.8571331535481
 31
0.0
  0
ELLIPSE
  5
4B7
330
75
100
AcDbEntity
  8
Visible (ISO)
100
AcDbEllipse
 10
489.2500238036554
 20
251.8751224380287
 30
0.0
 11
-2.499999999999999
 21
-0.0000000000000006
 31
0.0
210
0.0
220
0.0
230
1.0
 40
0.5758617009853117
 41
5.497787143781992
 42
7.068583470576879
  0
LINE
  5
4B8
330
75
100
AcDbEntity
  8
Visible (ISO)
100
AcDbLine
 10
492.4320043189956
 20
148.2407683481484
 30
0.0
 11
491.3713441472159
 21
148.851561918837
 31
0.0
  0
LINE
  5
4B9
330
75
100
AcDbEntity
  8
Visible (ISO)
100
AcDbLine
 10
513.0795223296458
 20
250.960368760889
 30
0.0
 11
512.0188621578662
 21
251.5711623315776
 31
0.0
  0
LINE
  5
4BA
330
75
100
AcDbEntity
  8
Visible (ISO)
100
AcDbLine
 10
489.9571305848427
 20
149.6722647409375
 30
0.0
 11
491.0177907566223
 21
149.0614711702489
 31
0.0
  0
LINE
  5
4BB
330
75
100
AcDbEntity
  8
Visible (ISO)
100
AcDbLine
 10
513.0795223296458
 20
190.9524097974465
 30
0.0
 11
512.0188621578662
 21
191.5632033681351
 31
0.0
  0
LINE
  5
4BC
330
75
100
AcDbEntity
  8
Visible (ISO)
100
AcDbLine
 10
514.4937358920192
 20
204.1935175226377
 30
0.0
 11
513.4330757202396
 21
204.8043110933263
 31
0.0
  0
LINE
  5
4BD
330
75
100
AcDbEntity
  8
Visible (ISO)
100
AcDbLine
 10
529.9086637218882
 20
213.2584199220231
 30
0.0
 11
528.8480035501086
 21
213.8692134927116
 31
0.0
  0
LINE
  5
4BE
330
75
100
AcDbEntity
  8
Visible (ISO)
100
AcDbLine
 10
513.0795223296458
 20
256.5196892098183
 30
0.0
 11
512.0188621578662
 21
257.1304827805068
 31
0.0
  0
LINE
  5
4BF
330
75
100
AcDbEntity
  8
Visible (ISO)
100
AcDbLine
 10
489.9571305848426
 20
254.3182967207826
 30
0.0
 11
491.0177907566223
 21
253.7075031500941
 31
0.0
  0
LINE
  5
4C0
330
75
100
AcDbEntity
  8
Visible Narrow (ISO)
100
AcDbLine
 10
487.4822568506893
 20
252.8931117225097
 30
0.0
 11
488.542917022469
 21
252.2823181518211
 31
0.0
  0
ELLIPSE
  5
4C1
330
75
100
AcDbEntity
  8
Visible (ISO)
100
AcDbEllipse
 10
489.2500238036554
 20
251.8751224380287
 30
0.0
 11
-1.000000000000001
 21
-0.0000000000000001
 31
0.0
210
0.0
220
0.0
230
1.0
 40
0.5758617009853119
 41
5.497787143782001
 42
7.068583470576889
  0
LINE
  5
4C2
330
75
100
AcDbEntity
  8
Visible Narrow (ISO)
100
AcDbLine
 10
488.5429170224688
 20
251.4679267242364
 30
0.0
 11
487.4822568506888
 21
250.8571331535481
 31
0.0
  0
LINE
  5
4C3
330
75
100
AcDbEntity
  8
Visible (ISO)
100
AcDbLine
 10
505.1599263803498
 20
225.8183213147249
 30
0.0
 11
505.1599263803498
 21
161.6817493708277
 31
0.0
  0
LINE
  5
4C4
330
75
100
AcDbEntity
  8
Visible (ISO)
100
AcDbLine
 10
506.5741399427227
 20
225.0039298871401
 30
0.0
 11
505.1599263803498
 21
225.8183213147249
 31
0.0
  0
LINE
  5
4C5
330
75
100
AcDbEntity
  8
Visible (ISO)
100
AcDbLine
 10
506.5741399427227
 20
225.0039298871401
 30
0.0
 11
506.5741399427228
 21
222.5803391552424
 31
0.0
  0
LINE
  5
4C6
330
75
100
AcDbEntity
  8
Visible Narrow (ISO)
100
AcDbLine
 10
506.5741399427228
 20
222.5803391552424
 30
0.0
 11
511.8774408016211
 21
219.5263713017994
 31
0.0
  0
LINE
  5
4C7
330
75
100
AcDbEntity
  8
Visible (ISO)
100
AcDbLine
 10
511.8774408016211
 20
219.5263713017994
 30
0.0
 11
511.877440801621
 21
236.8088810277104
 31
0.0
  0
LINE
  5
4C8
330
75
100
AcDbEntity
  8
Visible (ISO)
100
AcDbLine
 10
511.877440801621
 20
236.8088810277104
 30
0.0
 11
487.4822568506888
 21
250.8571331535481
 31
0.0
  0
LINE
  5
4C9
330
75
100
AcDbEntity
  8
Visible (ISO)
100
AcDbLine
 10
511.877440801621
 20
142.7909616708182
 30
0.0
 11
487.4822568506886
 21
156.8392137966558
 31
0.0
  0
LINE
  5
4CA
330
75
100
AcDbEntity
  8
Visible (ISO)
100
AcDbLine
 10
511.877440801621
 20
142.7909616708182
 30
0.0
 11
511.8774408016211
 21
160.2369808216979
 31
0.0
  0
LINE
  5
4CB
330
75
100
AcDbEntity
  8
Visible Narrow (ISO)
100
AcDbLine
 10
506.5741399427228
 20
163.2909486751408
 30
0.0
 11
511.8774408016211
 21
160.2369808216979
 31
0.0
  0
LINE
  5
4CC
330
75
100
AcDbEntity
  8
Visible (ISO)
100
AcDbLine
 10
506.5741399427227
 20
160.8673579432429
 30
0.0
 11
506.5741399427228
 21
163.2909486751408
 31
0.0
  0
LINE
  5
4CD
330
75
100
AcDbEntity
  8
Visible (ISO)
100
AcDbLine
 10
505.1599263803498
 20
161.6817493708277
 30
0.0
 11
506.5741399427227
 21
160.8673579432429
 31
0.0
  0
LINE
  5
4CE
330
75
100
AcDbEntity
  8
Visible (ISO)
100
AcDbLine
 10
489.2500238036549
 20
191.6911046146413
 30
0.0
 11
489.2500238036549
 21
170.8436529311566
 31
0.0
  0
LINE
  5
4CF
330
75
100
AcDbEntity
  8
Visible (ISO)
100
AcDbLine
 10
497.381751787299
 20
187.0083539060288
 30
0.0
 11
489.2500238036549
 21
191.6911046146413
 31
0.0
  0
LINE
  5
4D0
330
75
100
AcDbEntity
  8
Visible (ISO)
100
AcDbLine
 10
497.381751787299
 20
166.160902222544
 30
0.0
 11
497.381751787299
 21
187.0083539060288
 31
0.0
  0
LINE
  5
4D1
330
75
100
AcDbEntity
  8
Visible (ISO)
100
AcDbLine
 10
495.9675382249261
 20
166.9752936501288
 30
0.0
 11
497.381751787299
 21
166.160902222544
 31
0.0
  0
LINE
  5
4D2
330
75
100
AcDbEntity
  8
Visible (ISO)
100
AcDbLine
 10
495.9675382249261
 20
166.9752936501288
 30
0.0
 11
495.9675382249261
 21
169.3988843820267
 31
0.0
  0
LINE
  5
4D3
330
75
100
AcDbEntity
  8
Visible Narrow (ISO)
100
AcDbLine
 10
490.6642373660278
 20
172.4528522354697
 30
0.0
 11
495.9675382249261
 21
169.3988843820267
 31
0.0
  0
LINE
  5
4D4
330
75
100
AcDbEntity
  8
Visible (ISO)
100
AcDbLine
 10
490.6642373660278
 20
170.0292615035718
 30
0.0
 11
490.6642373660278
 21
172.4528522354697
 31
0.0
  0
LINE
  5
4D5
330
75
100
AcDbEntity
  8
Visible (ISO)
100
AcDbLine
 10
489.2500238036549
 20
170.8436529311566
 30
0.0
 11
490.6642373660278
 21
170.0292615035718
 31
0.0
  0
LINE
  5
4D6
330
75
100
AcDbEntity
  8
Visible (ISO)
100
AcDbLine
 10
489.2500238036549
 20
234.9802248750539
 30
0.0
 11
489.2500238036549
 21
214.1327731915691
 31
0.0
  0
LINE
  5
4D7
330
75
100
AcDbEntity
  8
Visible (ISO)
100
AcDbLine
 10
490.6642373660278
 20
234.1658334474691
 30
0.0
 11
489.2500238036549
 21
234.9802248750539
 31
0.0
  0
LINE
  5
4D8
330
75
100
AcDbEntity
  8
Visible (ISO)
100
AcDbLine
 10
490.6642373660278
 20
234.1658334474691
 30
0.0
 11
490.6642373660278
 21
231.7422427155712
 31
0.0
  0
LINE
  5
4D9
330
75
100
AcDbEntity
  8
Visible Narrow (ISO)
100
AcDbLine
 10
490.6642373660278
 20
231.7422427155712
 30
0.0
 11
495.9675382249261
 21
228.6882748621283
 31
0.0
  0
LINE
  5
4DA
330
75
100
AcDbEntity
  8
Visible (ISO)
100
AcDbLine
 10
495.9675382249261
 20
231.1118655940262
 30
0.0
 11
495.9675382249261
 21
228.6882748621283
 31
0.0
  0
LINE
  5
4DB
330
75
100
AcDbEntity
  8
Visible (ISO)
100
AcDbLine
 10
497.381751787299
 20
230.2974741664413
 30
0.0
 11
495.9675382249261
 21
231.1118655940262
 31
0.0
  0
LINE
  5
4DC
330
75
100
AcDbEntity
  8
Visible (ISO)
100
AcDbLine
 10
497.381751787299
 20
209.4500224829566
 30
0.0
 11
497.381751787299
 21
230.2974741664413
 31
0.0
  0
LINE
  5
4DD
330
75
100
AcDbEntity
  8
Visible (ISO)
100
AcDbLine
 10
489.2500238036549
 20
214.1327731915691
 30
0.0
 11
497.381751787299
 21
209.4500224829566
 31
0.0
  0
LINE
  5
4DE
330
75
100
AcDbEntity
  8
Visible (ISO)
100
AcDbLine
 10
506.2205865521298
 20
225.2075277440362
 30
0.0
 11
506.2205865521298
 21
162.2925429415161
 31
0.0
  0
LINE
  5
4DF
330
75
100
AcDbEntity
  8
Visible (ISO)
100
AcDbLine
 10
506.2205865521298
 20
162.2925429415161
 30
0.0
 11
506.5741399427227
 21
162.0889450846201
 31
0.0
  0
LINE
  5
4E0
330
75
100
AcDbEntity
  8
Visible (ISO)
100
AcDbLine
 10
512.938100973401
 20
143.4017552415067
 30
0.0
 11
512.9381009734011
 21
160.8477743923862
 31
0.0
  0
LINE
  5
4E1
330
75
100
AcDbEntity
  8
Visible (ISO)
100
AcDbLine
 10
512.938100973401
 20
237.4196745983988
 30
0.0
 11
488.5429170224688
 21
251.4679267242364
 31
0.0
  0
LINE
  5
4E2
330
75
100
AcDbEntity
  8
Visible (ISO)
100
AcDbLine
 10
512.9381009734011
 20
220.1371648724878
 30
0.0
 11
512.938100973401
 21
237.4196745983988
 31
0.0
  0
LINE
  5
4E3
330
75
100
AcDbEntity
  8
Visible (ISO)
100
AcDbLine
 10
497.0281983967061
 20
229.2990684328166
 30
0.0
 11
497.0281983967061
 21
230.5010720233374
 31
0.0
  0
LINE
  5
4E4
330
75
100
AcDbEntity
  8
Visible (ISO)
100
AcDbLine
 10
490.3106839754349
 20
234.3694313043651
 30
0.0
 11
490.3106839754349
 21
214.7435667622575
 31
0.0
  0
LINE
  5
4E5
330
75
100
AcDbEntity
  8
Visible (ISO)
100
AcDbLine
 10
490.3106839754349
 20
214.7435667622575
 30
0.0
 11
497.381751787299
 21
210.6716096243338
 31
0.0
  0
LINE
  5
4E6
330
75
100
AcDbEntity
  8
Visible (ISO)
100
AcDbLine
 10
490.3106839754349
 20
191.0803110439525
 30
0.0
 11
490.3106839754349
 21
171.454446501845
 31
0.0
  0
LINE
  5
4E7
330
75
100
AcDbEntity
  8
Visible (ISO)
100
AcDbLine
 10
490.3106839754349
 20
171.454446501845
 30
0.0
 11
490.6642373660278
 21
171.250848644949
 31
0.0
  0
LINE
  5
4E8
330
75
100
AcDbEntity
  8
Visible (ISO)
100
AcDbLine
 10
497.0281983967061
 20
170.0096779527151
 30
0.0
 11
497.0281983967061
 21
167.5860872208172
 31
0.0
  0
LINE
  5
4E9
330
75
100
AcDbEntity
  8
Visible (ISO)
100
AcDbLine
 10
497.0281983967061
 20
167.5860872208172
 30
0.0
 11
497.381751787299
 21
167.3824893639212
 31
0.0
  0
LINE
  5
4EA
330
75
100
AcDbEntity
  8
Visible (ISO)
100
AcDbLine
 10
512.938100973401
 20
237.4196745983988
 30
0.0
 11
511.877440801621
 21
236.8088810277104
 31
0.0
  0
LINE
  5
4EB
330
75
100
AcDbEntity
  8
Visible (ISO)
100
AcDbLine
 10
490.3106839754349
 20
171.454446501845
 30
0.0
 11
489.2500238036549
 21
170.8436529311566
 31
0.0
  0
LINE
  5
4EC
330
75
100
AcDbEntity
  8
Visible (ISO)
100
AcDbLine
 10
506.2205865521298
 20
162.2925429415161
 30
0.0
 11
505.1599263803498
 21
161.6817493708277
 31
0.0
  0
LINE
  5
4ED
330
75
100
AcDbEntity
  8
Visible (ISO)
100
AcDbLine
 10
511.877440801621
 20
142.7909616708182
 30
0.0
 11
512.938100973401
 21
143.4017552415067
 31
0.0
  0
ELLIPSE
  5
4EE
330
75
100
AcDbEntity
  8
Visible (ISO)
100
AcDbEllipse
 10
513.6452077545877
 20
161.2549701061785
 30
0.0
 11
-0.4990322115844148
 21
-0.8665834361451921
 31
0.0
210
0.0
220
0.0
230
1.0
 40
0.5780931159158108
 41
4.710455271961768
 42
5.49585343535917
  0
LINE
  5
4EF
330
75
100
AcDbEntity
  8
Visible (ISO)
100
AcDbLine
 10
515.6023145357746
 20
165.8009590926656
 30
0.0
 11
513.1452077545876
 21
161.5451323716016
 31
0.0
  0
ELLIPSE
  5
4F0
330
75
100
AcDbEntity
  8
Visible (ISO)
100
AcDbEllipse
 10
514.3523145357744
 20
166.5263647562234
 30
0.0
 11
-1.247580528961119
 21
-2.166458590362823
 31
0.0
210
0.0
220
0.0
230
0.9999999999999998
 40
0.5780931159158108
 41
1.568862618372133
 42
2.354260781769731
  0
LINE
  5
4F1
330
75
100
AcDbEntity
  8
Visible (ISO)
100
AcDbLine
 10
516.120081488741
 20
177.0162804318256
 30
0.0
 11
516.120081488741
 21
167.5443540407041
 31
0.0
  0
LINE
  5
4F2
330
75
100
AcDbEntity
  8
Visible (ISO)
100
AcDbLine
 10
515.059421316961
 20
176.4054868611373
 30
0.0
 11
516.120081488741
 21
177.0162804318256
 31
0.0
  0
LINE
  5
4F3
330
75
100
AcDbEntity
  8
Visible (ISO)
100
AcDbLine
 10
515.059421316961
 20
166.9335604700157
 30
0.0
 11
515.059421316961
 21
176.4054868611373
 31
0.0
  0
ELLIPSE
  5
4F4
330
75
100
AcDbEntity
  8
Visible (ISO)
100
AcDbEllipse
 10
514.3523145357744
 20
166.5263647562234
 30
0.0
 11
0.4990322115844038
 21
0.8665834361451729
 31
0.0
210
0.0
220
0.0
230
1.0
 40
0.5780931159158107
 41
4.71045527196189
 42
5.4958534353593
  0
LINE
  5
4F5
330
75
100
AcDbEntity
  8
Visible (ISO)
100
AcDbLine
 10
512.3952077545875
 20
161.9803757697363
 30
0.0
 11
514.8523145357744
 21
166.2362024908003
 31
0.0
  0
ELLIPSE
  5
4F6
330
75
100
AcDbEntity
  8
Visible (ISO)
100
AcDbEllipse
 10
513.6452077545877
 20
161.2549701061785
 30
0.0
 11
1.247580528961156
 21
2.166458590362889
 31
0.0
210
0.0
220
0.0
230
1.0
 40
0.578093115915811
 41
1.568862618372094
 42
2.35426078176966
  0
LINE
  5
4F7
330
75
100
AcDbEntity
  8
Visible (ISO)
100
AcDbLine
 10
497.0281983967061
 20
167.5860872208172
 30
0.0
 11
495.9675382249261
 21
166.9752936501288
 31
0.0
  0
ELLIPSE
  5
4F8
330
75
100
AcDbEntity
  8
Visible (ISO)
100
AcDbEllipse
 10
497.7353051778927
 20
170.4168736665073
 30
0.0
 11
-0.499032211584421
 21
-0.8665834361452031
 31
0.0
210
0.0
220
0.0
230
1.0
 40
0.5780931159158108
 41
4.710455271961768
 42
5.495853435359119
  0
LINE
  5
4F9
330
75
100
AcDbEntity
  8
Visible (ISO)
100
AcDbLine
 10
497.381751787299
 20
170.9606884790207
 30
0.0
 11
497.2353051778926
 21
170.7070359319305
 31
0.0
  0
LINE
  5
4FA
330
75
100
AcDbEntity
  8
Visible (ISO)
100
AcDbLine
 10
496.4853051778925
 20
171.1422793300652
 30
0.0
 11
497.381751787299
 21
172.6949678267678
 31
0.0
  0
ELLIPSE
  5
4FB
330
75
100
AcDbEntity
  8
Visible (ISO)
100
AcDbEllipse
 10
497.7353051778927
 20
170.4168736665073
 30
0.0
 11
1.247580528961152
 21
2.16645859036288
 31
0.0
210
0.0
220
0.0
230
0.9999999999999998
 40
0.578093115915811
 41
1.568862618372095
 42
2.354260781769678
  0
LINE
  5
4FC
330
75
100
AcDbEntity
  8
Visible Narrow (ISO)
100
AcDbLine
 10
507.0919068956892
 20
165.0343436231793
 30
0.0
 11
512.3952077545875
 21
161.9803757697363
 31
0.0
  0
ELLIPSE
  5
4FD
330
75
100
AcDbEntity
  8
Visible (ISO)
100
AcDbEllipse
 10
508.3419068956894
 20
164.3089379596215
 30
0.0
 11
1.247580528961172
 21
2.166458590362915
 31
0.0
210
0.0
220
0.0
230
1.0
 40
0.5780931159158108
 41
1.568862618372108
 42
2.354260781769678
  0
LINE
  5
4FE
330
75
100
AcDbEntity
  8
Visible (ISO)
100
AcDbLine
 10
490.3106839754349
 20
214.7435667622575
 30
0.0
 11
489.2500238036549
 21
214.1327731915691
 31
0.0
  0
LINE
  5
4FF
330
75
100
AcDbEntity
  8
Visible (ISO)
100
AcDbLine
 10
509.7561204580627
 20
219.548520931055
 30
0.0
 11
509.7561204580627
 21
210.0765945399334
 31
0.0
  0
ELLIPSE
  5
500
330
75
100
AcDbEntity
  8
Visible (ISO)
100
AcDbEllipse
 10
509.0490136768761
 20
219.1413252172627
 30
0.0
 11
0.4990322115843976
 21
0.8665834361451624
 31
0.0
210
0.0
220
0.0
230
1.0
 40
0.5780931159158107
 41
5.495853435359169
 42
6.281251598756727
  0
LINE
  5
501
330
75
100
AcDbEntity
  8
Visible (ISO)
100
AcDbLine
 10
507.0919068956892
 20
221.4332685237022
 30
0.0
 11
509.5490136768762
 21
220.0073491836711
 31
0.0
  0
ELLIPSE
  5
502
330
75
100
AcDbEntity
  8
Visible (ISO)
100
AcDbEllipse
 10
508.3419068956894
 20
223.5983284397232
 30
0.0
 11
-1.247580528961031
 21
-2.166458590362971
 31
0.0
210
0.0
220
0.0
230
1.0
 40
0.578093115915811
 41
5.495853435359264
 42
6.281251598756694
  0
LINE
  5
503
330
75
100
AcDbEntity
  8
Visible (ISO)
100
AcDbLine
 10
493.8462178813677
 20
228.7104244913838
 30
0.0
 11
493.8462178813677
 21
219.2384981002623
 31
0.0
  0
ELLIPSE
  5
504
330
75
100
AcDbEntity
  8
Visible (ISO)
100
AcDbEllipse
 10
493.1391111001811
 20
228.3032287775916
 30
0.0
 11
0.4990322115843898
 21
0.8665834361451484
 31
0.0
210
0.0
220
0.0
230
0.9999999999999998
 40
0.5780931159158107
 41
5.495853435359212
 42
6.281251598756758
  0
LINE
  5
505
330
75
100
AcDbEntity
  8
Visible (ISO)
100
AcDbLine
 10
491.1820043189942
 20
230.5951720840311
 30
0.0
 11
493.6391111001811
 21
229.1692527439999
 31
0.0
  0
ELLIPSE
  5
506
330
75
100
AcDbEntity
  8
Visible (ISO)
100
AcDbEllipse
 10
492.4320043189944
 20
232.760232000052
 30
0.0
 11
-1.247580528961018
 21
-2.166458590362948
 31
0.0
210
0.0
220
0.0
230
1.0
 40
0.5780931159158108
 41
5.495853435359247
 42
6.281251598756724
  0
LINE
  5
507
330
75
100
AcDbEntity
  8
Visible Narrow (ISO)
100
AcDbLine
 10
491.1820043189942
 20
230.5951720840311
 30
0.0
 11
496.4853051778925
 21
227.5412042305881
 31
0.0
  0
ELLIPSE
  5
508
330
75
100
AcDbEntity
  8
Visible (ISO)
100
AcDbEllipse
 10
497.7353051778927
 20
229.706264146609
 30
0.0
 11
-1.247580528961023
 21
-2.166458590362955
 31
0.0
210
0.0
220
0.0
230
0.9999999999999998
 40
0.578093115915811
 41
5.495853435359264
 42
6.281251598756737
  0
ELLIPSE
  5
509
330
75
100
AcDbEntity
  8
Visible (ISO)
100
AcDbEllipse
 10
492.4320043189944
 20
173.4708415199503
 30
0.0
 11
1.247580528961155
 21
2.166458590362885
 31
0.0
210
0.0
220
0.0
230
0.9999999999999998
 40
0.5780931159158108
 41
1.568862618372108
 42
2.35426078176966
  0
LINE
  5
50A
330
75
100
AcDbEntity
  8
Visible (ISO)
100
AcDbLine
 10
491.1820043189942
 20
174.1962471835082
 30
0.0
 11
493.6391111001812
 21
178.4520739045721
 31
0.0
  0
ELLIPSE
  5
50B
330
75
100
AcDbEntity
  8
Visible (ISO)
100
AcDbEllipse
 10
493.1391111001811
 20
178.7422361699952
 30
0.0
 11
0.499032211584388
 21
0.8665834361451459
 31
0.0
210
0.0
220
0.0
230
1.0
 40
0.5780931159158108
 41
4.710455271961793
 42
5.495853435359256
  0
LINE
  5
50C
330
75
100
AcDbEntity
  8
Visible (ISO)
100
AcDbLine
 10
493.8462178813677
 20
179.1494318837875
 30
0.0
 11
493.8462178813677
 21
188.6213582749091
 31
0.0
  0
LINE
  5
50D
330
75
100
AcDbEntity
  8
Visible (ISO)
100
AcDbLine
 10
493.8462178813677
 20
188.6213582749091
 30
0.0
 11
494.21347116402
 21
188.8328453749496
 31
0.0
  0
LINE
  5
50E
330
75
100
AcDbEntity
  8
Visible Narrow (ISO)
100
AcDbLine
 10
507.0919068956892
 20
221.4332685237022
 30
0.0
 11
512.3952077545875
 21
218.3793006702593
 31
0.0
  0
ELLIPSE
  5
50F
330
75
100
AcDbEntity
  8
Visible (ISO)
100
AcDbEllipse
 10
513.6452077545877
 20
220.5443605862801
 30
0.0
 11
-1.247580528961033
 21
-2.166458590362975
 31
0.0
210
0.0
220
0.0
230
1.0
 40
0.5780931159158108
 41
5.495853435359281
 42
6.281251598756706
  0
LINE
  5
510
330
75
100
AcDbEntity
  8
Visible Narrow (ISO)
100
AcDbLine
 10
491.1820043189942
 20
174.1962471835082
 30
0.0
 11
496.4853051778925
 21
171.1422793300652
 31
0.0
  0
LINE
  5
511
330
75
100
AcDbEntity
  8
Visible (ISO)
100
AcDbLine
 10
507.0919068956892
 20
165.0343436231793
 30
0.0
 11
509.5490136768762
 21
169.2901703442433
 31
0.0
  0
ELLIPSE
  5
512
330
75
100
AcDbEntity
  8
Visible (ISO)
100
AcDbEllipse
 10
509.0490136768761
 20
169.5803326096663
 30
0.0
 11
0.4990322115844038
 21
0.8665834361451729
 31
0.0
210
0.0
220
0.0
230
1.0
 40
0.5780931159158107
 41
4.71045527196189
 42
5.4958534353593
  0
LINE
  5
513
330
75
100
AcDbEntity
  8
Visible (ISO)
100
AcDbLine
 10
509.7561204580627
 20
169.9875283234586
 30
0.0
 11
509.7561204580627
 21
179.4594547145802
 31
0.0
  0
LINE
  5
514
330
75
100
AcDbEntity
  8
Visible (ISO)
100
AcDbLine
 10
509.7561204580627
 20
179.4594547145802
 30
0.0
 11
510.8167806298427
 21
180.0702482852686
 31
0.0
  0
LINE
  5
515
330
75
100
AcDbEntity
  8
Visible (ISO)
100
AcDbLine
 10
512.3952077545875
 20
218.3793006702593
 30
0.0
 11
514.8523145357744
 21
216.9533813302281
 31
0.0
  0
ELLIPSE
  5
516
330
75
100
AcDbEntity
  8
Visible (ISO)
100
AcDbEllipse
 10
514.3523145357744
 20
216.0873573638198
 30
0.0
 11
0.499032211584396
 21
0.8665834361451596
 31
0.0
210
0.0
220
0.0
230
1.0
 40
0.578093115915811
 41
5.495853435359169
 42
6.281251598756727
  0
LINE
  5
517
330
75
100
AcDbEntity
  8
Visible (ISO)
100
AcDbLine
 10
515.059421316961
 20
216.494553077612
 30
0.0
 11
515.059421316961
 21
207.0226266864905
 31
0.0
  0
LINE
  5
518
330
75
100
AcDbEntity
  8
Visible (ISO)
100
AcDbLine
 10
515.059421316961
 20
207.0226266864905
 30
0.0
 11
516.120081488741
 21
207.6334202571789
 31
0.0
  0
LINE
  5
519
330
75
100
AcDbEntity
  8
Visible (ISO)
100
AcDbLine
 10
516.120081488741
 20
207.6334202571789
 30
0.0
 11
516.120081488741
 21
217.1053466483004
 31
0.0
  0
ELLIPSE
  5
51A
330
75
100
AcDbEntity
  8
Visible (ISO)
100
AcDbEllipse
 10
514.3523145357744
 20
216.0873573638198
 30
0.0
 11
1.247580528960976
 21
2.166458590362875
 31
0.0
210
0.0
220
0.0
230
1.0
 40
0.5780931159158107
 41
5.495853435359231
 42
6.281251598756699
  0
LINE
  5
51B
330
75
100
AcDbEntity
  8
Visible (ISO)
100
AcDbLine
 10
515.6023145357746
 20
218.2524172798407
 30
0.0
 11
513.1452077545876
 21
219.6783366198717
 31
0.0
  0
ELLIPSE
  5
51C
330
75
100
AcDbEntity
  8
Visible (ISO)
100
AcDbEllipse
 10
513.6452077545877
 20
220.5443605862801
 30
0.0
 11
-0.4990322115844209
 21
-0.8665834361452027
 31
0.0
210
0.0
220
0.0
230
1.0
 40
0.5780931159158108
 41
5.49585343535943
 42
6.281251598756789
  0
LINE
  5
51D
330
75
100
AcDbEntity
  8
Visible (ISO)
100
AcDbLine
 10
496.4853051778925
 20
227.5412042305881
 30
0.0
 11
497.381751787299
 21
227.0209742725557
 31
0.0
  0
LINE
  5
51E
330
75
100
AcDbEntity
  8
Visible (ISO)
100
AcDbLine
 10
497.381751787299
 20
228.7552536203029
 30
0.0
 11
497.2353051778926
 21
228.8402401802006
 31
0.0
  0
ELLIPSE
  5
51F
330
75
100
AcDbEntity
  8
Visible (ISO)
100
AcDbEllipse
 10
497.7353051778927
 20
229.706264146609
 30
0.0
 11
-0.4990322115844178
 21
-0.8665834361451974
 31
0.0
210
0.0
220
0.0
230
1.0
 40
0.578093115915811
 41
5.495853435359343
 42
6.281251598756789
  0
LINE
  5
520
330
75
100
AcDbEntity
  8
Visible (ISO)
100
AcDbLine
 10
510.8167806298427
 20
180.0702482852686
 30
0.0
 11
516.120081488741
 21
177.0162804318256
 31
0.0
  0
LINE
  5
521
330
75
100
AcDbEntity
  8
Visible Narrow (ISO)
100
AcDbLine
 10
509.7561204580627
 20
169.9875283234586
 30
0.0
 11
515.059421316961
 21
166.9335604700157
 31
0.0
  0
LINE
  5
522
330
75
100
AcDbEntity
  8
Visible (ISO)
100
AcDbLine
 10
509.7561204580627
 20
179.4594547145802
 30
0.0
 11
515.059421316961
 21
176.4054868611373
 31
0.0
  0
LINE
  5
523
330
75
100
AcDbEntity
  8
Visible Narrow (ISO)
100
AcDbLine
 10
509.5490136768762
 20
169.2901703442433
 30
0.0
 11
514.8523145357744
 21
166.2362024908003
 31
0.0
  0
LINE
  5
524
330
75
100
AcDbEntity
  8
Visible Narrow (ISO)
100
AcDbLine
 10
493.6391111001812
 20
178.4520739045721
 30
0.0
 11
497.381751787299
 21
176.2968304723109
 31
0.0
  0
LINE
  5
525
330
75
100
AcDbEntity
  8
Visible (ISO)
100
AcDbLine
 10
493.8462178813677
 20
188.6213582749091
 30
0.0
 11
497.381751787299
 21
186.5853797059477
 31
0.0
  0
LINE
  5
526
330
75
100
AcDbEntity
  8
Visible Narrow (ISO)
100
AcDbLine
 10
493.8462178813677
 20
179.1494318837875
 30
0.0
 11
497.381751787299
 21
177.1134533148261
 31
0.0
  0
LINE
  5
527
330
75
100
AcDbEntity
  8
Visible (ISO)
100
AcDbLine
 10
509.7561204580627
 20
210.0765945399334
 30
0.0
 11
515.059421316961
 21
207.0226266864905
 31
0.0
  0
LINE
  5
528
330
75
100
AcDbEntity
  8
Visible Narrow (ISO)
100
AcDbLine
 10
509.7561204580627
 20
219.548520931055
 30
0.0
 11
515.059421316961
 21
216.494553077612
 31
0.0
  0
LINE
  5
529
330
75
100
AcDbEntity
  8
Visible Narrow (ISO)
100
AcDbLine
 10
509.5490136768762
 20
220.0073491836711
 30
0.0
 11
514.8523145357744
 21
216.9533813302281
 31
0.0
  0
LINE
  5
52A
330
75
100
AcDbEntity
  8
Visible Narrow (ISO)
100
AcDbLine
 10
493.6391111001811
 20
229.1692527439999
 30
0.0
 11
497.381751787299
 21
227.0140093117388
 31
0.0
  0
LINE
  5
52B
330
75
100
AcDbEntity
  8
Visible (ISO)
100
AcDbLine
 10
493.8462178813677
 20
219.2384981002623
 30
0.0
 11
497.381751787299
 21
217.2025195313009
 31
0.0
  0
LINE
  5
52C
330
75
100
AcDbEntity
  8
Visible Narrow (ISO)
100
AcDbLine
 10
493.8462178813677
 20
228.7104244913838
 30
0.0
 11
497.381751787299
 21
226.6744459224224
 31
0.0
  0
LINE
  5
52D
330
75
100
AcDbEntity
  8
Visible (ISO)
100
AcDbLine
 10
497.381751787299
 20
180.4491405771324
 30
0.0
 11
496.7721626494573
 21
180.0981015393128
 31
0.0
  0
LINE
  5
52E
330
75
100
AcDbEntity
  8
Visible (ISO)
100
AcDbLine
 10
495.3750458347525
 20
184.4863618585174
 30
0.0
 11
494.5265176973285
 21
183.9977270019666
 31
0.0
  0
LINE
  5
52F
330
75
100
AcDbEntity
  8
Visible (ISO)
100
AcDbLine
 10
513.5305933635764
 20
171.4248328355347
 30
0.0
 11
512.6820652261524
 21
170.936197978984
 31
0.0
  0
LINE
  5
530
330
75
100
AcDbEntity
  8
Visible (ISO)
100
AcDbLine
 10
511.2849484114475
 20
175.3244582981885
 30
0.0
 11
510.4364202740235
 21
174.8358234416378
 31
0.0
  0
LINE
  5
531
330
75
100
AcDbEntity
  8
Visible (ISO)
100
AcDbLine
 10
497.381751787299
 20
220.1819308444799
 30
0.0
 11
496.7721626494573
 21
219.8308918066603
 31
0.0
  0
LINE
  5
532
330
75
100
AcDbEntity
  8
Visible (ISO)
100
AcDbLine
 10
495.3750458347525
 20
224.2191521258649
 30
0.0
 11
494.5265176973285
 21
223.7305172693141
 31
0.0
  0
LINE
  5
533
330
75
100
AcDbEntity
  8
Visible (ISO)
100
AcDbLine
 10
513.5305933635764
 20
211.1576231028822
 30
0.0
 11
512.6820652261524
 21
210.6689882463315
 31
0.0
  0
LINE
  5
534
330
75
100
AcDbEntity
  8
Visible (ISO)
100
AcDbLine
 10
511.2849484114475
 20
215.057248565536
 30
0.0
 11
510.4364202740235
 21
214.5686137089853
 31
0.0
  0
LINE
  5
535
330
75
100
AcDbEntity
  8
Visible (ISO)
100
AcDbLine
 10
486.7500238036554
 20
251.8751224380287
 30
0.0
 11
486.7500238036554
 21
157.8572030811366
 31
0.0
  0
POLYLINE
  5
536
330
75
100
AcDbEntity
  8
Visible (ISO)
100
AcDb2dPolyline
 66
     1
 10
0.0
 20
0.0
 30
0.0
 70
   128
  0
VERTEX
  5
537
330
536
100
AcDbEntity
  8
Visible (ISO)
100
AcDbVertex
100
AcDb2dVertex
 10
511.8425873809525
 20
174.0314124600652
 30
0.0
  0
VERTEX
  5
538
330
536
100
AcDbEntity
  8
Visible (ISO)
100
AcDbVertex
100
AcDb2dVertex
 10
511.9042515920718
 20
173.8383083802398
 30
0.0
  0
VERTEX
  5
53A
330
536
100
AcDbEntity
  8
Visible (ISO)
100
AcDbVertex
100
AcDb2dVertex
 10
511.9817023267694
 20
173.6398087560871
 30
0.0
  0
VERTEX
  5
53B
330
536
100
AcDbEntity
  8
Visible (ISO)
100
AcDbVertex
100
AcDb2dVertex
 10
512.0740140402518
 20
173.4401459977148
 30
0.0
  0
VERTEX
  5
53C
330
536
100
AcDbEntity
  8
Visible (ISO)
100
AcDbVertex
100
AcDb2dVertex
 10
512.1797335091826
 20
173.2433271324052
 30
0.0
  0
VERTEX
  5
53D
330
536
100
AcDbEntity
  8
Visible (ISO)
100
AcDbVertex
100
AcDb2dVertex
 10
512.2968848893036
 20
173.0530919084389
 30
0.0
  0
VERTEX
  5
53E
330
536
100
AcDbEntity
  8
Visible (ISO)
100
AcDbVertex
100
AcDb2dVertex
 10
512.4232748586179
 20
172.8730561842792
 30
0.0
  0
VERTEX
  5
53F
330
536
100
AcDbEntity
  8
Visible (ISO)
100
AcDbVertex
100
AcDb2dVertex
 10
512.556045860797
 20
172.7064067420487
 30
0.0
  0
VERTEX
  5
540
330
536
100
AcDbEntity
  8
Visible (ISO)
100
AcDbVertex
100
AcDb2dVertex
 10
512.692127919395
 20
172.5561607697937
 30
0.0
  0
SEQEND
  5
539
330
536
100
AcDbEntity
  8
Visible (ISO)
  0
POLYLINE
  5
541
330
75
100
AcDbEntity
  8
Visible (ISO)
100
AcDb2dPolyline
 66
     1
 10
0.0
 20
0.0
 30
0.0
 70
   128
  0
VERTEX
  5
542
330
541
100
AcDbEntity
  8
Visible (ISO)
100
AcDbVertex
100
AcDb2dVertex
 10
495.9326848042575
 20
183.193316020394
 30
0.0
  0
VERTEX
  5
543
330
541
100
AcDbEntity
  8
Visible (ISO)
100
AcDbVertex
100
AcDb2dVertex
 10
495.9943494368454
 20
183.0002116978611
 30
0.0
  0
VERTEX
  5
545
330
541
100
AcDbEntity
  8
Visible (ISO)
100
AcDbVertex
100
AcDb2dVertex
 10
496.0717997500744
 20
182.8017123164159
 30
0.0
  0
VERTEX
  5
546
330
541
100
AcDbEntity
  8
Visible (ISO)
100
AcDbVertex
100
AcDb2dVertex
 10
496.16411062062
 20
182.6020500434588
 30
0.0
  0
VERTEX
  5
547
330
541
100
AcDbEntity
  8
Visible (ISO)
100
AcDbVertex
100
AcDb2dVertex
 10
496.2698309324877
 20
182.4052306927341
 30
0.0
  0
VERTEX
  5
548
330
541
100
AcDbEntity
  8
Visible (ISO)
100
AcDbVertex
100
AcDb2dVertex
 10
496.386982734077
 20
182.2149952260602
 30
0.0
  0
VERTEX
  5
549
330
541
100
AcDbEntity
  8
Visible (ISO)
100
AcDbVertex
100
AcDb2dVertex
 10
496.513372281923
 20
182.0349597446081
 30
0.0
  0
VERTEX
  5
54A
330
541
100
AcDbEntity
  8
Visible (ISO)
100
AcDbVertex
100
AcDb2dVertex
 10
496.646143284102
 20
181.8683103023776
 30
0.0
  0
VERTEX
  5
54B
330
541
100
AcDbEntity
  8
Visible (ISO)
100
AcDbVertex
100
AcDb2dVertex
 10
496.7822244997631
 20
181.7180648155377
 30
0.0
  0
SEQEND
  5
544
330
541
100
AcDbEntity
  8
Visible (ISO)
  0
POLYLINE
  5
54C
330
75
100
AcDbEntity
  8
Visible (ISO)
100
AcDb2dPolyline
 66
     1
 10
0.0
 20
0.0
 30
0.0
 70
   128
  0
VERTEX
  5
54D
330
54C
100
AcDbEntity
  8
Visible (ISO)
100
AcDbVertex
100
AcDb2dVertex
 10
512.6921279193949
 20
212.2889521286844
 30
0.0
  0
VERTEX
  5
54E
330
54C
100
AcDbEntity
  8
Visible (ISO)
100
AcDbVertex
100
AcDb2dVertex
 10
512.5560627195364
 20
212.439211745229
 30
0.0
  0
VERTEX
  5
550
330
54C
100
AcDbEntity
  8
Visible (ISO)
100
AcDbVertex
100
AcDb2dVertex
 10
512.4232546281307
 20
212.6058319421721
 30
0.0
  0
VERTEX
  5
551
330
54C
100
AcDbEntity
  8
Visible (ISO)
100
AcDbVertex
100
AcDb2dVertex
 10
512.2968983762951
 20
212.785889122406
 30
0.0
  0
VERTEX
  5
552
330
54C
100
AcDbEntity
  8
Visible (ISO)
100
AcDbVertex
100
AcDb2dVertex
 10
512.1797335091826
 20
212.9761184912958
 30
0.0
  0
VERTEX
  5
553
330
54C
100
AcDbEntity
  8
Visible (ISO)
100
AcDbVertex
100
AcDb2dVertex
 10
512.0739988673864
 20
213.172930523175
 30
0.0
  0
VERTEX
  5
554
330
54C
100
AcDbEntity
  8
Visible (ISO)
100
AcDbVertex
100
AcDb2dVertex
 10
511.9817259290045
 20
213.3726098759464
 30
0.0
  0
VERTEX
  5
555
330
54C
100
AcDbEntity
  8
Visible (ISO)
100
AcDbVertex
100
AcDb2dVertex
 10
511.9042313615846
 20
213.5710919348697
 30
0.0
  0
VERTEX
  5
556
330
54C
100
AcDbEntity
  8
Visible (ISO)
100
AcDbVertex
100
AcDb2dVertex
 10
511.8425873809525
 20
213.7642018697716
 30
0.0
  0
SEQEND
  5
54F
330
54C
100
AcDbEntity
  8
Visible (ISO)
  0
POLYLINE
  5
557
330
75
100
AcDbEntity
  8
Visible (ISO)
100
AcDb2dPolyline
 66
     1
 10
0.0
 20
0.0
 30
0.0
 70
   128
  0
VERTEX
  5
558
330
557
100
AcDbEntity
  8
Visible (ISO)
100
AcDbVertex
100
AcDb2dVertex
 10
496.7822244997631
 20
221.4508561744283
 30
0.0
  0
VERTEX
  5
559
330
557
100
AcDbEntity
  8
Visible (ISO)
100
AcDbVertex
100
AcDb2dVertex
 10
496.6461601428414
 20
221.6011153055578
 30
0.0
  0
VERTEX
  5
55B
330
557
100
AcDbEntity
  8
Visible (ISO)
100
AcDbVertex
100
AcDb2dVertex
 10
496.5133520514357
 20
221.767735502501
 30
0.0
  0
VERTEX
  5
55C
330
557
100
AcDbEntity
  8
Visible (ISO)
100
AcDbVertex
100
AcDb2dVertex
 10
496.386996642537
 20
221.9477921973198
 30
0.0
  0
VERTEX
  5
55D
330
557
100
AcDbEntity
  8
Visible (ISO)
100
AcDbVertex
100
AcDb2dVertex
 10
496.2698305110192
 20
222.1380222943322
 30
0.0
  0
VERTEX
  5
55E
330
557
100
AcDbEntity
  8
Visible (ISO)
100
AcDbVertex
100
AcDb2dVertex
 10
496.1640967121599
 20
222.3348338407963
 30
0.0
  0
VERTEX
  5
55F
330
557
100
AcDbEntity
  8
Visible (ISO)
100
AcDbVertex
100
AcDb2dVertex
 10
496.0718229308411
 20
222.5345136789829
 30
0.0
  0
VERTEX
  5
560
330
557
100
AcDbEntity
  8
Visible (ISO)
100
AcDbVertex
100
AcDb2dVertex
 10
495.9943287848895
 20
222.7329954951986
 30
0.0
  0
VERTEX
  5
561
330
557
100
AcDbEntity
  8
Visible (ISO)
100
AcDbVertex
100
AcDb2dVertex
 10
495.9326848042575
 20
222.9261054301004
 30
0.0
  0
SEQEND
  5
55A
330
557
100
AcDbEntity
  8
Visible (ISO)
  0
ENDSEC
  0
SECTION
  2
OBJECTS
  0
DICTIONARY
  5
C
330
0
100
AcDbDictionary
281
     1
  3
ACAD_COLOR
350
6B
  3
ACAD_GROUP
350
D
  3
ACAD_LAYOUT
350
6A
  3
ACAD_MATERIAL
350
10
  3
ACAD_MLEADERSTYLE
350
6E
  3
ACAD_MLINESTYLE
350
67
  3
ACAD_PLOTSETTINGS
350
69
  3
ACAD_PLOTSTYLENAME
350
E
  3
ACAD_SCALELIST
350
3A
  3
ACAD_TABLESTYLE
350
6C
  3
ACAD_VISUALSTYLE
350
29
  3
ACDB_RECOMPOSE_DATA
350
56C
  3
AcDbVariableDictionary
350
562
  0
DICTIONARY
  5
6B
102
{ACAD_REACTORS
330
C
102
}
330
C
100
AcDbDictionary
281
     1
  0
DICTIONARY
  5
D
102
{ACAD_REACTORS
330
C
102
}
330
C
100
AcDbDictionary
281
     1
  0
DICTIONARY
  5
6A
102
{ACAD_REACTORS
330
C
102
}
330
C
100
AcDbDictionary
281
     1
  3
Layout1
350
74
  3
Layout2
350
7C
  3
Model
350
78
  0
DICTIONARY
  5
10
102
{ACAD_REACTORS
330
C
102
}
330
C
100
AcDbDictionary
281
     1
  3
ByBlock
350
19
  3
ByLayer
350
11
  3
Global
350
21
  0
DICTIONARY
  5
6E
102
{ACAD_REACTORS
330
C
102
}
330
C
100
AcDbDictionary
281
     1
  3
Standard
350
6F
  0
DICTIONARY
  5
67
102
{ACAD_REACTORS
330
C
102
}
330
C
100
AcDbDictionary
281
     1
  3
Standard
350
68
  0
DICTIONARY
  5
69
102
{ACAD_REACTORS
330
C
102
}
330
C
100
AcDbDictionary
281
     1
  0
ACDBDICTIONARYWDFLT
  5
E
102
{ACAD_REACTORS
330
C
102
}
330
C
100
AcDbDictionary
281
     1
  3
Normal
350
F
100
AcDbDictionaryWithDefault
340
F
  0
DICTIONARY
  5
3A
102
{ACAD_REACTORS
330
C
102
}
330
C
100
AcDbDictionary
281
     1
  3
A0
350
3B
  3
A1
350
3C
  3
A2
350
3D
  3
A3
350
3E
  3
A4
350
3F
  3
A5
350
40
  3
A6
350
41
  3
A7
350
42
  3
A8
350
43
  3
A9
350
44
  3
B0
350
45
  3
B1
350
46
  3
B2
350
47
  3
B3
350
48
  3
B4
350
49
  3
B5
350
4A
  3
B6
350
4B
  3
B7
350
4C
  3
B8
350
4D
  3
B9
350
4E
  3
C0
350
4F
  3
C1
350
50
  3
C2
350
51
  3
C3
350
52
  3
C4
350
53
  3
C5
350
54
  3
C6
350
55
  3
C7
350
56
  3
C8
350
57
  3
C9
350
58
  3
D0
350
59
  3
D1
350
5A
  3
D2
350
5B
  0
DICTIONARY
  5
6C
102
{ACAD_REACTORS
330
C
102
}
330
C
100
AcDbDictionary
281
     1
  3
Standard
350
6D
  0
DICTIONARY
  5
29
102
{ACAD_REACTORS
330
C
102
}
330
C
100
AcDbDictionary
281
     1
  3
2dWireframe
350
2F
  3
3D Hidden
350
31
  3
3dWireframe
350
30
  3
Basic
350
2E
  3
Brighten
350
35
  3
ColorChange
350
39
  3
Conceptual
350
32
  3
Dim
350
34
  3
Facepattern
350
38
  3
Flat
350
2A
  3
FlatWithEdges
350
2B
  3
Gouraud
350
2C
  3
GouraudWithEdges
350
2D
  3
Linepattern
350
37
  3
Realistic
350
33
  3
Thicken
350
36
  0
XRECORD
  5
56C
102
{ACAD_REACTORS
330
C
102
}
330
C
100
AcDbXrecord
280
     1
 90
        1
330
6D
  0
DICTIONARY
  5
562
102
{ACAD_REACTORS
330
C
102
}
330
C
100
AcDbDictionary
281
     1
  3
CANNOSCALE
350
566
  3
CMLEADERSTYLE
350
564
  3
CTABLESTYLE
350
563
  3
LAYEREVAL
350
568
  3
LAYERNOTIFY
350
569
  3
LIGHTINGUNITS
350
567
  3
MSLTSCALE
350
565
  0
LAYOUT
  5
74
102
{ACAD_REACTORS
330
6A
102
}
330
6A
100
AcDbPlotSettings
  1

  2

  4

  6

 40
0.0
 41
0.0
 42
0.0
 43
0.0
 44
0.0
 45
0.0
 46
0.0
 47
0.0
 48
0.0
 49
0.0
140
0.0
141
0.0
142
1.0
143
1.0
 70
   688
 72
     0
 73
     0
 74
     5
  7

 75
    16
147
1.0
 76
     0
 77
     2
 78
   300
148
0.0
149
0.0
100
AcDbLayout
  1
Layout1
 70
     1
 71
     1
 10
0.0
 20
0.0
 11
12.0
 21
9.0
 12
0.0
 22
0.0
 32
0.0
 14
0.0
 24
0.0
 34
0.0
 15
0.0
 25
0.0
 35
0.0
146
0.0
 13
0.0
 23
0.0
 33
0.0
 16
1.0
 26
0.0
 36
0.0
 17
0.0
 27
1.0
 37
0.0
 76
     0
330
71
  0
LAYOUT
  5
7C
102
{ACAD_REACTORS
330
6A
102
}
330
6A
100
AcDbPlotSettings
  1

  2

  4

  6

 40
0.0
 41
0.0
 42
0.0
 43
0.0
 44
0.0
 45
0.0
 46
0.0
 47
0.0
 48
0.0
 49
0.0
140
0.0
141
0.0
142
1.0
143
1.0
 70
   688
 72
     0
 73
     0
 74
     5
  7

 75
    16
147
1.0
 76
     0
 77
     2
 78
   300
148
0.0
149
0.0
100
AcDbLayout
  1
Layout2
 70
     1
 71
     2
 10
0.0
 20
0.0
 11
12.0
 21
9.0
 12
0.0
 22
0.0
 32
0.0
 14
0.0
 24
0.0
 34
0.0
 15
0.0
 25
0.0
 35
0.0
146
0.0
 13
0.0
 23
0.0
 33
0.0
 16
1.0
 26
0.0
 36
0.0
 17
0.0
 27
1.0
 37
0.0
 76
     0
330
79
  0
LAYOUT
  5
78
102
{ACAD_REACTORS
330
6A
102
}
330
6A
100
AcDbPlotSettings
  1

  2

  4

  6

 40
0.0
 41
0.0
 42
0.0
 43
0.0
 44
0.0
 45
0.0
 46
0.0
 47
0.0
 48
0.0
 49
0.0
140
0.0
141
0.0
142
1.0
143
1.0
 70
  1712
 72
     0
 73
     0
 74
     0
  7

 75
     0
147
1.0
 76
     0
 77
     2
 78
   300
148
0.0
149
0.0
100
AcDbLayout
  1
Model
 70
     1
 71
     0
 10
0.0
 20
0.0
 11
12.0
 21
9.0
 12
0.0
 22
0.0
 32
0.0
 14
0.0
 24
0.0
 34
0.0
 15
0.0
 25
0.0
 35
0.0
146
0.0
 13
0.0
 23
0.0
 33
0.0
 16
1.0
 26
0.0
 36
0.0
 17
0.0
 27
1.0
 37
0.0
 76
     0
330
75
  0
MATERIAL
  5
19
102
{ACAD_XDICTIONARY
360
1A
102
}
102
{ACAD_REACTORS
330
10
102
}
330
10
100
AcDbMaterial
  1
ByBlock
 72
     0
 43
0.0208333333333333
 43
0.0
 43
0.0
 43
0.0
 43
0.0
 43
0.0208333333333333
 43
0.0
 43
0.0
 43
0.0
 43
0.0
 43
1.0
 43
0.0
 43
0.0
 43
0.0
 43
0.0
 43
1.0
 77
     0
 47
0.0208333333333333
 47
0.0
 47
0.0
 47
0.0
 47
0.0
 47
0.0208333333333333
 47
0.0
 47
0.0
 47
0.0
 47
0.0
 47
1.0
 47
0.0
 47
0.0
 47
0.0
 47
0.0
 47
1.0
171
     0
 49
0.0208333333333333
 49
0.0
 49
0.0
 49
0.0
 49
0.0
 49
0.0208333333333333
 49
0.0
 49
0.0
 49
0.0
 49
0.0
 49
1.0
 49
0.0
 49
0.0
 49
0.0
 49
0.0
 49
1.0
175
     0
142
0.0208333333333333
142
0.0
142
0.0
142
0.0
142
0.0
142
0.0208333333333333
142
0.0
142
0.0
142
0.0
142
0.0
142
1.0
142
0.0
142
0.0
142
0.0
142
0.0
142
1.0
179
     0
144
0.0208333333333333
144
0.0
144
0.0
144
0.0
144
0.0
144
0.0208333333333333
144
0.0
144
0.0
144
0.0
144
0.0
144
1.0
144
0.0
144
0.0
144
0.0
144
0.0
144
1.0
147
0.0208333333333333
147
0.0
147
0.0
147
0.0
147
0.0
147
0.0208333333333333
147
0.0
147
0.0
147
0.0
147
0.0
147
1.0
147
0.0
147
0.0
147
0.0
147
0.0
147
1.0
  0
MATERIAL
  5
11
102
{ACAD_XDICTIONARY
360
12
102
}
102
{ACAD_REACTORS
330
10
102
}
330
10
100
AcDbMaterial
  1
ByLayer
 72
     0
 43
0.0208333333333333
 43
0.0
 43
0.0
 43
0.0
 43
0.0
 43
0.0208333333333333
 43
0.0
 43
0.0
 43
0.0
 43
0.0
 43
1.0
 43
0.0
 43
0.0
 43
0.0
 43
0.0
 43
1.0
 77
     0
 47
0.0208333333333333
 47
0.0
 47
0.0
 47
0.0
 47
0.0
 47
0.0208333333333333
 47
0.0
 47
0.0
 47
0.0
 47
0.0
 47
1.0
 47
0.0
 47
0.0
 47
0.0
 47
0.0
 47
1.0
171
     0
 49
0.0208333333333333
 49
0.0
 49
0.0
 49
0.0
 49
0.0
 49
0.0208333333333333
 49
0.0
 49
0.0
 49
0.0
 49
0.0
 49
1.0
 49
0.0
 49
0.0
 49
0.0
 49
0.0
 49
1.0
175
     0
142
0.0208333333333333
142
0.0
142
0.0
142
0.0
142
0.0
142
0.0208333333333333
142
0.0
142
0.0
142
0.0
142
0.0
142
1.0
142
0.0
142
0.0
142
0.0
142
0.0
142
1.0
179
     0
144
0.0208333333333333
144
0.0
144
0.0
144
0.0
144
0.0
144
0.0208333333333333
144
0.0
144
0.0
144
0.0
144
0.0
144
1.0
144
0.0
144
0.0
144
0.0
144
0.0
144
1.0
147
0.0208333333333333
147
0.0
147
0.0
147
0.0
147
0.0
147
0.0208333333333333
147
0.0
147
0.0
147
0.0
147
0.0
147
1.0
147
0.0
147
0.0
147
0.0
147
0.0
147
1.0
  0
MATERIAL
  5
21
102
{ACAD_XDICTIONARY
360
22
102
}
102
{ACAD_REACTORS
330
10
102
}
330
10
100
AcDbMaterial
  1
Global
 72
     0
 43
0.0208333333333333
 43
0.0
 43
0.0
 43
0.0
 43
0.0
 43
0.0208333333333333
 43
0.0
 43
0.0
 43
0.0
 43
0.0
 43
1.0
 43
0.0
 43
0.0
 43
0.0
 43
0.0
 43
1.0
 77
     0
 47
0.0208333333333333
 47
0.0
 47
0.0
 47
0.0
 47
0.0
 47
0.0208333333333333
 47
0.0
 47
0.0
 47
0.0
 47
0.0
 47
1.0
 47
0.0
 47
0.0
 47
0.0
 47
0.0
 47
1.0
171
     0
 49
0.0208333333333333
 49
0.0
 49
0.0
 49
0.0
 49
0.0
 49
0.0208333333333333
 49
0.0
 49
0.0
 49
0.0
 49
0.0
 49
1.0
 49
0.0
 49
0.0
 49
0.0
 49
0.0
 49
1.0
175
     0
142
0.0208333333333333
142
0.0
142
0.0
142
0.0
142
0.0
142
0.0208333333333333
142
0.0
142
0.0
142
0.0
142
0.0
142
1.0
142
0.0
142
0.0
142
0.0
142
0.0
142
1.0
179
     0
144
0.0208333333333333
144
0.0
144
0.0
144
0.0
144
0.0
144
0.0208333333333333
144
0.0
144
0.0
144
0.0
144
0.0
144
1.0
144
0.0
144
0.0
144
0.0
144
0.0
144
1.0
147
0.0208333333333333
147
0.0
147
0.0
147
0.0
147
0.0
147
0.0208333333333333
147
0.0
147
0.0
147
0.0
147
0.0
147
1.0
147
0.0
147
0.0
147
0.0
147
0.0
147
1.0
  0
MLEADERSTYLE
  5
6F
102
{ACAD_REACTORS
330
6E
102
}
330
6E
100
AcDbMLeaderStyle
170
     2
171
     1
172
     0
 90
        2
 40
0.0
 41
0.0
173
     1
 91
-1056964608
340
63
 92
       -2
290
     1
 42
0.09
291
     1
 43
0.36
  3
Standard
 44
0.18
300

342
5D
174
     1
178
     6
175
     1
176
     0
 93
-1056964608
 45
0.18
292
     0
297
     0
 46
0.18
 94
-1056964608
 47
1.0
 49
1.0
140
1.0
293
     1
141
0.0
294
     1
177
     0
142
1.0
295
     0
296
     0
143
0.125
1001
ACAD_MLEADERVER
1070
     2
  0
MLINESTYLE
  5
68
102
{ACAD_REACTORS
330
67
102
}
330
67
100
AcDbMlineStyle
  2
STANDARD
 70
     0
  3

 62
   256
 51
90.0
 52
90.0
 71
     2
 49
0.5
 62
   256
  6
BYLAYER
 49
-0.5
 62
   256
  6
BYLAYER
  0
ACDBPLACEHOLDER
  5
F
102
{ACAD_REACTORS
330
E
102
}
330
E
  0
SCALE
  5
3B
102
{ACAD_REACTORS
330
3A
102
}
330
3A
100
AcDbScale
 70
     0
300
1:1
140
1.0
141
1.0
290
     1
  0
SCALE
  5
3C
102
{ACAD_REACTORS
330
3A
102
}
330
3A
100
AcDbScale
 70
     0
300
1:2
140
1.0
141
2.0
290
     0
  0
SCALE
  5
3D
102
{ACAD_REACTORS
330
3A
102
}
330
3A
100
AcDbScale
 70
     0
300
1:4
140
1.0
141
4.0
290
     0
  0
SCALE
  5
3E
102
{ACAD_REACTORS
330
3A
102
}
330
3A
100
AcDbScale
 70
     0
300
1:5
140
1.0
141
5.0
290
     0
  0
SCALE
  5
3F
102
{ACAD_REACTORS
330
3A
102
}
330
3A
100
AcDbScale
 70
     0
300
1:8
140
1.0
141
8.0
290
     0
  0
SCALE
  5
40
102
{ACAD_REACTORS
330
3A
102
}
330
3A
100
AcDbScale
 70
     0
300
1:10
140
1.0
141
10.0
290
     0
  0
SCALE
  5
41
102
{ACAD_REACTORS
330
3A
102
}
330
3A
100
AcDbScale
 70
     0
300
1:16
140
1.0
141
16.0
290
     0
  0
SCALE
  5
42
102
{ACAD_REACTORS
330
3A
102
}
330
3A
100
AcDbScale
 70
     0
300
1:20
140
1.0
141
20.0
290
     0
  0
SCALE
  5
43
102
{ACAD_REACTORS
330
3A
102
}
330
3A
100
AcDbScale
 70
     0
300
1:30
140
1.0
141
30.0
290
     0
  0
SCALE
  5
44
102
{ACAD_REACTORS
330
3A
102
}
330
3A
100
AcDbScale
 70
     0
300
1:40
140
1.0
141
40.0
290
     0
  0
SCALE
  5
45
102
{ACAD_REACTORS
330
3A
102
}
330
3A
100
AcDbScale
 70
     0
300
1:50
140
1.0
141
50.0
290
     0
  0
SCALE
  5
46
102
{ACAD_REACTORS
330
3A
102
}
330
3A
100
AcDbScale
 70
     0
300
1:100
140
1.0
141
100.0
290
     0
  0
SCALE
  5
47
102
{ACAD_REACTORS
330
3A
102
}
330
3A
100
AcDbScale
 70
     0
300
2:1
140
2.0
141
1.0
290
     0
  0
SCALE
  5
48
102
{ACAD_REACTORS
330
3A
102
}
330
3A
100
AcDbScale
 70
     0
300
4:1
140
4.0
141
1.0
290
     0
  0
SCALE
  5
49
102
{ACAD_REACTORS
330
3A
102
}
330
3A
100
AcDbScale
 70
     0
300
8:1
140
8.0
141
1.0
290
     0
  0
SCALE
  5
4A
102
{ACAD_REACTORS
330
3A
102
}
330
3A
100
AcDbScale
 70
     0
300
10:1
140
10.0
141
1.0
290
     0
  0
SCALE
  5
4B
102
{ACAD_REACTORS
330
3A
102
}
330
3A
100
AcDbScale
 70
     0
300
100:1
140
100.0
141
1.0
290
     0
  0
SCALE
  5
4C
102
{ACAD_REACTORS
330
3A
102
}
330
3A
100
AcDbScale
 70
     0
300
1/128" = 1'-0"
140
0.0078125
141
12.0
290
     0
  0
SCALE
  5
4D
102
{ACAD_REACTORS
330
3A
102
}
330
3A
100
AcDbScale
 70
     0
300
1/64" = 1'-0"
140
0.015625
141
12.0
290
     0
  0
SCALE
  5
4E
102
{ACAD_REACTORS
330
3A
102
}
330
3A
100
AcDbScale
 70
     0
300
1/32" = 1'-0"
140
0.03125
141
12.0
290
     0
  0
SCALE
  5
4F
102
{ACAD_REACTORS
330
3A
102
}
330
3A
100
AcDbScale
 70
     0
300
1/16" = 1'-0"
140
0.0625
141
12.0
290
     0
  0
SCALE
  5
50
102
{ACAD_REACTORS
330
3A
102
}
330
3A
100
AcDbScale
 70
     0
300
3/32" = 1'-0"
140
0.09375
141
12.0
290
     0
  0
SCALE
  5
51
102
{ACAD_REACTORS
330
3A
102
}
330
3A
100
AcDbScale
 70
     0
300
1/8" = 1'-0"
140
0.125
141
12.0
290
     0
  0
SCALE
  5
52
102
{ACAD_REACTORS
330
3A
102
}
330
3A
100
AcDbScale
 70
     0
300
3/16" = 1'-0"
140
0.1875
141
12.0
290
     0
  0
SCALE
  5
53
102
{ACAD_REACTORS
330
3A
102
}
330
3A
100
AcDbScale
 70
     0
300
1/4" = 1'-0"
140
0.25
141
12.0
290
     0
  0
SCALE
  5
54
102
{ACAD_REACTORS
330
3A
102
}
330
3A
100
AcDbScale
 70
     0
300
3/8" = 1'-0"
140
0.375
141
12.0
290
     0
  0
SCALE
  5
55
102
{ACAD_REACTORS
330
3A
102
}
330
3A
100
AcDbScale
 70
     0
300
1/2" = 1'-0"
140
0.5
141
12.0
290
     0
  0
SCALE
  5
56
102
{ACAD_REACTORS
330
3A
102
}
330
3A
100
AcDbScale
 70
     0
300
3/4" = 1'-0"
140
0.75
141
12.0
290
     0
  0
SCALE
  5
57
102
{ACAD_REACTORS
330
3A
102
}
330
3A
100
AcDbScale
 70
     0
300
1" = 1'-0"
140
1.0
141
12.0
290
     0
  0
SCALE
  5
58
102
{ACAD_REACTORS
330
3A
102
}
330
3A
100
AcDbScale
 70
     0
300
1-1/2" = 1'-0"
140
1.5
141
12.0
290
     0
  0
SCALE
  5
59
102
{ACAD_REACTORS
330
3A
102
}
330
3A
100
AcDbScale
 70
     0
300
3" = 1'-0"
140
3.0
141
12.0
290
     0
  0
SCALE
  5
5A
102
{ACAD_REACTORS
330
3A
102
}
330
3A
100
AcDbScale
 70
     0
300
6" = 1'-0"
140
6.0
141
12.0
290
     0
  0
SCALE
  5
5B
102
{ACAD_REACTORS
330
3A
102
}
330
3A
100
AcDbScale
 70
     0
300
1'-0" = 1'-0"
140
12.0
141
12.0
290
     0
  0
TABLESTYLE
  5
6D
102
{ACAD_XDICTIONARY
360
56A
102
}
102
{ACAD_REACTORS
330
6C
102
}
330
6C
100
AcDbTableStyle
  3
Standard
 70
     0
 71
     0
 40
0.06
 41
0.06
280
     0
281
     0
  7
Standard
140
0.18
170
     2
 62
     0
 63
     7
283
     0
274
    -2
284
     1
 64
     0
275
    -2
285
     1
 65
     0
276
    -2
286
     1
 66
     0
277
    -2
287
     1
 67
     0
278
    -2
288
     1
 68
     0
279
    -2
289
     1
 69
     0
  7
Standard
140
0.25
170
     5
 62
     0
 63
     7
283
     0
274
    -2
284
     1
 64
     0
275
    -2
285
     1
 65
     0
276
    -2
286
     1
 66
     0
277
    -2
287
     1
 67
     0
278
    -2
288
     1
 68
     0
279
    -2
289
     1
 69
     0
  7
Standard
140
0.18
170
     5
 62
     0
 63
     7
283
     0
274
    -2
284
     1
 64
     0
275
    -2
285
     1
 65
     0
276
    -2
286
     1
 66
     0
277
    -2
287
     1
 67
     0
278
    -2
288
     1
 68
     0
279
    -2
289
     1
 69
     0
  0
VISUALSTYLE
  5
2F
102
{ACAD_REACTORS
330
29
102
}
330
29
100
AcDbVisualStyle
  2
2dWireframe
 70
     4
 71
     0
 72
     2
 73
     0
 90
        0
 40
-0.6
 41
-30.0
 62
     5
 63
     7
421
 16777215
 74
     1
 91
        4
 64
     7
 65
   257
 75
     1
175
     1
 42
1.0
 92
        0
 66
   257
 43
1.0
 76
     1
 77
     6
 78
     2
 67
     7
 79
     5
170
     0
171
     0
290
     0
174
     0
 93
        1
 44
0.0
173
     0
291
     0
 45
0.0
1001
ACAD
1000
AcDbSavedByObjectVersion
1070
     0
  0
VISUALSTYLE
  5
31
102
{ACAD_REACTORS
330
29
102
}
330
29
100
AcDbVisualStyle
  2
3D Hidden
 70
     6
 71
     1
 72
     2
 73
     2
 90
        0
 40
-0.6
 41
-30.0
 62
     5
 63
     7
421
 16777215
 74
     2
 91
        2
 64
     7
 65
   257
 75
     2
175
     1
 42
40.0
 92
        0
 66
   257
 43
1.0
 76
     1
 77
     6
 78
     2
 67
     7
 79
     3
170
     0
171
     0
290
     0
174
     0
 93
        1
 44
0.0
173
     0
291
     0
 45
0.0
1001
ACAD
1000
AcDbSavedByObjectVersion
1070
     0
  0
VISUALSTYLE
  5
30
102
{ACAD_REACTORS
330
29
102
}
330
29
100
AcDbVisualStyle
  2
3dWireframe
 70
     5
 71
     0
 72
     2
 73
     0
 90
        0
 40
-0.6
 41
-30.0
 62
     5
 63
     7
421
 16777215
 74
     1
 91
        4
 64
     7
 65
   257
 75
     1
175
     1
 42
1.0
 92
        0
 66
   257
 43
1.0
 76
     1
 77
     6
 78
     2
 67
     7
 79
     5
170
     0
171
     0
290
     0
174
     0
 93
        1
 44
0.0
173
     0
291
     0
 45
0.0
1001
ACAD
1000
AcDbSavedByObjectVersion
1070
     0
  0
VISUALSTYLE
  5
2E
102
{ACAD_REACTORS
330
29
102
}
330
29
100
AcDbVisualStyle
  2
Basic
 70
     7
 71
     1
 72
     0
 73
     1
 90
        0
 40
-0.6
 41
-30.0
 62
     5
 63
     7
421
 16777215
 74
     0
 91
        4
 64
     7
 65
   257
 75
     1
175
     1
 42
1.0
 92
        8
 66
     7
 43
1.0
 76
     1
 77
     6
 78
     2
 67
     7
 79
     5
170
     0
171
     0
290
     0
174
     0
 93
        1
 44
0.0
173
     0
291
     1
 45
0.0
1001
ACAD
1000
AcDbSavedByObjectVersion
1070
     0
  0
VISUALSTYLE
  5
35
102
{ACAD_REACTORS
330
29
102
}
330
29
100
AcDbVisualStyle
  2
Brighten
 70
    12
 71
     2
 72
     2
 73
     0
 90
        0
 40
-0.6
 41
-30.0
 62
     5
 63
     7
421
 16777215
 74
     1
 91
        4
 64
     7
 65
   257
 75
     1
175
     1
 42
1.0
 92
        8
 66
     7
 43
1.0
 76
     1
 77
     6
 78
     2
 67
     7
 79
     5
170
     0
171
     0
290
     0
174
     0
 93
        1
 44
50.0
173
     0
291
     1
 45
0.0
1001
ACAD
1000
AcDbSavedByObjectVersion
1070
     0
  0
VISUALSTYLE
  5
39
102
{ACAD_REACTORS
330
29
102
}
330
29
100
AcDbVisualStyle
  2
ColorChange
 70
    16
 71
     2
 72
     2
 73
     3
 90
        0
 40
-0.6
 41
-30.0
 62
     5
 63
     8
421
  8421504
 74
     1
 91
        4
 64
     7
 65
   257
 75
     1
175
     1
 42
1.0
 92
        8
 66
     8
424
  8421504
 43
1.0
 76
     1
 77
     6
 78
     2
 67
     7
 79
     5
170
     0
171
     0
290
     0
174
     0
 93
        1
 44
0.0
173
     0
291
     1
 45
0.0
1001
ACAD
1000
AcDbSavedByObjectVersion
1070
     0
  0
VISUALSTYLE
  5
32
102
{ACAD_REACTORS
330
29
102
}
330
29
100
AcDbVisualStyle
  2
Conceptual
 70
     9
 71
     3
 72
     2
 73
     0
 90
        0
 40
-0.6
 41
-30.0
 62
     5
 63
     7
421
 16777215
 74
     2
 91
        2
 64
     7
 65
   257
 75
     1
175
     1
 42
40.0
 92
        8
 66
     7
 43
1.0
 76
     1
 77
     6
 78
     2
 67
     7
 79
     3
170
     0
171
     0
290
     0
174
     0
 93
        1
 44
0.0
173
     0
291
     0
 45
0.0
1001
ACAD
1000
AcDbSavedByObjectVersion
1070
     0
  0
VISUALSTYLE
  5
34
102
{ACAD_REACTORS
330
29
102
}
330
29
100
AcDbVisualStyle
  2
Dim
 70
    11
 71
     2
 72
     2
 73
     0
 90
        0
 40
-0.6
 41
-30.0
 62
     5
 63
     7
421
 16777215
 74
     1
 91
        4
 64
     7
 65
   257
 75
     1
175
     1
 42
1.0
 92
        8
 66
     7
 43
1.0
 76
     1
 77
     6
 78
     2
 67
     7
 79
     5
170
     0
171
     0
290
     0
174
     0
 93
        1
 44
-50.0
173
     0
291
     1
 45
0.0
1001
ACAD
1000
AcDbSavedByObjectVersion
1070
     0
  0
VISUALSTYLE
  5
38
102
{ACAD_REACTORS
330
29
102
}
330
29
100
AcDbVisualStyle
  2
Facepattern
 70
    15
 71
     2
 72
     2
 73
     0
 90
        0
 40
-0.6
 41
-30.0
 62
     5
 63
     7
421
 16777215
 74
     1
 91
        4
 64
     7
 65
   257
 75
     1
175
     1
 42
1.0
 92
        8
 66
     7
 43
1.0
 76
     1
 77
     6
 78
     2
 67
     7
 79
     5
170
     0
171
     0
290
     0
174
     0
 93
        1
 44
0.0
173
     0
291
     1
 45
0.0
1001
ACAD
1000
AcDbSavedByObjectVersion
1070
     0
  0
VISUALSTYLE
  5
2A
102
{ACAD_REACTORS
330
29
102
}
330
29
100
AcDbVisualStyle
  2
Flat
 70
     0
 71
     2
 72
     1
 73
     1
 90
        2
 40
-0.6
 41
30.0
 62
     5
 63
     7
421
 16777215
 74
     0
 91
        4
 64
     7
 65
   257
 75
     1
175
     1
 42
1.0
 92
        8
 66
     7
 43
1.0
 76
     1
 77
     6
 78
     2
 67
     7
 79
     5
170
     0
171
     0
290
     0
174
     0
 93
       13
 44
0.0
173
     0
291
     1
 45
0.0
1001
ACAD
1000
AcDbSavedByObjectVersion
1070
     0
  0
VISUALSTYLE
  5
2B
102
{ACAD_REACTORS
330
29
102
}
330
29
100
AcDbVisualStyle
  2
FlatWithEdges
 70
     1
 71
     2
 72
     1
 73
     1
 90
        2
 40
-0.6
 41
30.0
 62
     5
 63
     7
421
 16777215
 74
     1
 91
        4
 64
     7
 65
   257
 75
     1
175
     1
 42
1.0
 92
        0
 66
   257
 43
1.0
 76
     1
 77
     6
 78
     2
 67
     7
 79
     5
170
     0
171
     0
290
     0
174
     0
 93
       13
 44
0.0
173
     0
291
     1
 45
0.0
1001
ACAD
1000
AcDbSavedByObjectVersion
1070
     0
  0
VISUALSTYLE
  5
2C
102
{ACAD_REACTORS
330
29
102
}
330
29
100
AcDbVisualStyle
  2
Gouraud
 70
     2
 71
     2
 72
     2
 73
     1
 90
        2
 40
-0.6
 41
30.0
 62
     5
 63
     7
421
 16777215
 74
     0
 91
        4
 64
     7
 65
   257
 75
     1
175
     1
 42
1.0
 92
        0
 66
     7
 43
1.0
 76
     1
 77
     6
 78
     2
 67
     7
 79
     5
170
     0
171
     0
290
     0
174
     0
 93
       13
 44
0.0
173
     0
291
     1
 45
0.0
1001
ACAD
1000
AcDbSavedByObjectVersion
1070
     0
  0
VISUALSTYLE
  5
2D
102
{ACAD_REACTORS
330
29
102
}
330
29
100
AcDbVisualStyle
  2
GouraudWithEdges
 70
     3
 71
     2
 72
     2
 73
     1
 90
        2
 40
-0.6
 41
30.0
 62
     5
 63
     7
421
 16777215
 74
     1
 91
        4
 64
     7
 65
   257
 75
     1
175
     1
 42
1.0
 92
        0
 66
   257
 43
1.0
 76
     1
 77
     6
 78
     2
 67
     7
 79
     5
170
     0
171
     0
290
     0
174
     0
 93
       13
 44
0.0
173
     0
291
     1
 45
0.0
1001
ACAD
1000
AcDbSavedByObjectVersion
1070
     0
  0
VISUALSTYLE
  5
37
102
{ACAD_REACTORS
330
29
102
}
330
29
100
AcDbVisualStyle
  2
Linepattern
 70
    14
 71
     2
 72
     2
 73
     0
 90
        0
 40
-0.6
 41
-30.0
 62
     5
 63
     7
421
 16777215
 74
     1
 91
        4
 64
     7
 65
   257
 75
     7
175
     7
 42
1.0
 92
        8
 66
     7
 43
1.0
 76
     1
 77
     6
 78
     2
 67
     7
 79
     5
170
     0
171
     0
290
     0
174
     0
 93
        1
 44
0.0
173
     0
291
     1
 45
0.0
1001
ACAD
1000
AcDbSavedByObjectVersion
1070
     0
  0
VISUALSTYLE
  5
33
102
{ACAD_REACTORS
330
29
102
}
330
29
100
AcDbVisualStyle
  2
Realistic
 70
     8
 71
     2
 72
     2
 73
     0
 90
        0
 40
-0.6
 41
-30.0
 62
     5
 63
     7
421
 16777215
 74
     1
 91
        0
 64
     7
 65
   257
 75
     1
175
     1
 42
1.0
 92
        8
 66
     8
424
  7895160
 43
1.0
 76
     1
 77
     6
 78
     2
 67
     7
 79
     5
170
     0
171
     0
290
     0
174
     0
 93
       13
 44
0.0
173
     0
291
     0
 45
0.0
1001
ACAD
1000
AcDbSavedByObjectVersion
1070
     0
  0
VISUALSTYLE
  5
36
102
{ACAD_REACTORS
330
29
102
}
330
29
100
AcDbVisualStyle
  2
Thicken
 70
    13
 71
     2
 72
     2
 73
     0
 90
        0
 40
-0.6
 41
-30.0
 62
     5
 63
     7
421
 16777215
 74
     1
 91
        4
 64
     7
 65
   257
 75
     1
175
     1
 42
1.0
 92
       12
 66
     7
 43
1.0
 76
     1
 77
     6
 78
     2
 67
     7
 79
     5
170
     0
171
     0
290
     0
174
     0
 93
        1
 44
0.0
173
     0
291
     1
 45
0.0
1001
ACAD
1000
AcDbSavedByObjectVersion
1070
     0
  0
DICTIONARYVAR
  5
566
102
{ACAD_REACTORS
330
562
102
}
330
562
100
DictionaryVariables
280
     0
  1
1:1
  0
DICTIONARYVAR
  5
564
102
{ACAD_REACTORS
330
562
102
}
330
562
100
DictionaryVariables
280
     0
  1
STANDARD
  0
DICTIONARYVAR
  5
563
102
{ACAD_REACTORS
330
562
102
}
330
562
100
DictionaryVariables
280
     0
  1
STANDARD
  0
DICTIONARYVAR
  5
568
102
{ACAD_REACTORS
330
562
102
}
330
562
100
DictionaryVariables
280
     0
  1
0
  0
DICTIONARYVAR
  5
569
102
{ACAD_REACTORS
330
562
102
}
330
562
100
DictionaryVariables
280
     0
  1
0
  0
DICTIONARYVAR
  5
567
102
{ACAD_REACTORS
330
562
102
}
330
562
100
DictionaryVariables
280
     0
  1
2
  0
DICTIONARYVAR
  5
565
102
{ACAD_REACTORS
330
562
102
}
330
562
100
DictionaryVariables
280
     0
  1
1
  0
DICTIONARY
  5
1A
330
19
100
AcDbDictionary
280
     1
281
     1
  3
ACAD_XREC_ROUNDTRIP
360
56E
  3
BUMPTILE
360
1C
  3
DIFFUSETILE
360
1B
  3
OPACITYTILE
360
1F
  3
REFLECTIONTILE
360
1E
  3
REFRACTIONTILE
360
20
  3
SPECULARTILE
360
1D
  0
DICTIONARY
  5
12
330
11
100
AcDbDictionary
280
     1
281
     1
  3
ACAD_XREC_ROUNDTRIP
360
56D
  3
BUMPTILE
360
14
  3
DIFFUSETILE
360
13
  3
OPACITYTILE
360
17
  3
REFLECTIONTILE
360
16
  3
REFRACTIONTILE
360
18
  3
SPECULARTILE
360
15
  0
DICTIONARY
  5
22
330
21
100
AcDbDictionary
280
     1
281
     1
  3
ACAD_XREC_ROUNDTRIP
360
56F
  3
BUMPTILE
360
24
  3
DIFFUSETILE
360
23
  3
OPACITYTILE
360
27
  3
REFLECTIONTILE
360
26
  3
REFRACTIONTILE
360
28
  3
SPECULARTILE
360
25
  0
DICTIONARY
  5
56A
330
6D
100
AcDbDictionary
280
     1
281
     1
  3
ACAD_ROUNDTRIP_2008_TABLESTYLE_CELLSTYLEMAP
360
56B
  3
ACAD_XREC_ROUNDTRIP
360
570
  0
XRECORD
  5
56E
102
{ACAD_REACTORS
330
1A
102
}
330
1A
100
AcDbXrecord
280
     1
102
MATERIAL
148
0.0
149
0.0
149
0.0
 93
        0
 94
      127
282
     0
 72
     0
 77
     0
171
     0
175
     0
179
     0
273
     0
  0
XRECORD
  5
1C
102
{ACAD_REACTORS
330
1A
102
}
330
1A
100
AcDbXrecord
280
     1
270
     1
271
     1
  0
XRECORD
  5
1B
102
{ACAD_REACTORS
330
1A
102
}
330
1A
100
AcDbXrecord
280
     1
270
     1
271
     1
  0
XRECORD
  5
1F
102
{ACAD_REACTORS
330
1A
102
}
330
1A
100
AcDbXrecord
280
     1
270
     1
271
     1
  0
XRECORD
  5
1E
102
{ACAD_REACTORS
330
1A
102
}
330
1A
100
AcDbXrecord
280
     1
270
     1
271
     1
  0
XRECORD
  5
20
102
{ACAD_REACTORS
330
1A
102
}
330
1A
100
AcDbXrecord
280
     1
270
     1
271
     1
  0
XRECORD
  5
1D
102
{ACAD_REACTORS
330
1A
102
}
330
1A
100
AcDbXrecord
280
     1
270
     1
271
     1
  0
XRECORD
  5
56D
102
{ACAD_REACTORS
330
12
102
}
330
12
100
AcDbXrecord
280
     1
102
MATERIAL
148
0.0
149
0.0
149
0.0
 93
        0
 94
      127
282
     0
 72
     0
 77
     0
171
     0
175
     0
179
     0
273
     0
  0
XRECORD
  5
14
102
{ACAD_REACTORS
330
12
102
}
330
12
100
AcDbXrecord
280
     1
270
     1
271
     1
  0
XRECORD
  5
13
102
{ACAD_REACTORS
330
12
102
}
330
12
100
AcDbXrecord
280
     1
270
     1
271
     1
  0
XRECORD
  5
17
102
{ACAD_REACTORS
330
12
102
}
330
12
100
AcDbXrecord
280
     1
270
     1
271
     1
  0
XRECORD
  5
16
102
{ACAD_REACTORS
330
12
102
}
330
12
100
AcDbXrecord
280
     1
270
     1
271
     1
  0
XRECORD
  5
18
102
{ACAD_REACTORS
330
12
102
}
330
12
100
AcDbXrecord
280
     1
270
     1
271
     1
  0
XRECORD
  5
15
102
{ACAD_REACTORS
330
12
102
}
330
12
100
AcDbXrecord
280
     1
270
     1
271
     1
  0
XRECORD
  5
56F
102
{ACAD_REACTORS
330
22
102
}
330
22
100
AcDbXrecord
280
     1
102
MATERIAL
148
0.0
149
0.0
149
0.0
 93
        0
 94
      127
282
     0
 72
     0
 77
     0
171
     0
175
     0
179
     0
273
     0
  0
XRECORD
  5
24
102
{ACAD_REACTORS
330
22
102
}
330
22
100
AcDbXrecord
280
     1
270
     1
271
     1
  0
XRECORD
  5
23
102
{ACAD_REACTORS
330
22
102
}
330
22
100
AcDbXrecord
280
     1
270
     1
271
     1
  0
XRECORD
  5
27
102
{ACAD_REACTORS
330
22
102
}
330
22
100
AcDbXrecord
280
     1
270
     1
271
     1
  0
XRECORD
  5
26
102
{ACAD_REACTORS
330
22
102
}
330
22
100
AcDbXrecord
280
     1
270
     1
271
     1
  0
XRECORD
  5
28
102
{ACAD_REACTORS
330
22
102
}
330
22
100
AcDbXrecord
280
     1
270
     1
271
     1
  0
XRECORD
  5
25
102
{ACAD_REACTORS
330
22
102
}
330
22
100
AcDbXrecord
280
     1
270
     1
271
     1
  0
CELLSTYLEMAP
  5
56B
102
{ACAD_REACTORS
330
56A
102
}
330
56A
100
AcDbCellStyleMap
 90
        3
300
CELLSTYLE
  1
TABLEFORMAT_BEGIN
 90
        5
170
     1
 91
        0
 92
    32768
 62
   257
 93
        1
300
CONTENTFORMAT
  1
CONTENTFORMAT_BEGIN
 90
        0
 91
        0
 92
      512
 93
        0
300

 40
0.0
140
1.0
 94
        5
 62
     0
340
5D
144
0.25
309
CONTENTFORMAT_END
171
     0
 94
        0
309
TABLEFORMAT_END
  1
CELLSTYLE_BEGIN
 90
        1
 91
        1
300
_TITLE
309
CELLSTYLE_END
300
CELLSTYLE
  1
TABLEFORMAT_BEGIN
 90
        5
170
     1
 91
        0
 92
        0
 62
   257
 93
        1
300
CONTENTFORMAT
  1
CONTENTFORMAT_BEGIN
 90
        0
 91
        0
 92
      512
 93
        0
300

 40
0.0
140
1.0
 94
        5
 62
     0
340
5D
144
0.18
309
CONTENTFORMAT_END
171
     0
 94
        0
309
TABLEFORMAT_END
  1
CELLSTYLE_BEGIN
 90
        2
 91
        1
300
_HEADER
309
CELLSTYLE_END
300
CELLSTYLE
  1
TABLEFORMAT_BEGIN
 90
        5
170
     1
 91
        0
 92
        0
 62
   257
 93
        1
300
CONTENTFORMAT
  1
CONTENTFORMAT_BEGIN
 90
        0
 91
        0
 92
      512
 93
        0
300

 40
0.0
140
1.0
 94
        2
 62
     0
340
5D
144
0.18
309
CONTENTFORMAT_END
171
     0
 94
        0
309
TABLEFORMAT_END
  1
CELLSTYLE_BEGIN
 90
        3
 91
        2
300
_DATA
309
CELLSTYLE_END
  0
XRECORD
  5
570
102
{ACAD_REACTORS
330
56A
102
}
330
56A
100
AcDbXrecord
280
     1
102
ACAD_ROUNDTRIP_PRE2007_TABLESTYLE
 90
      512
 91
        0
  1

 92
      512
 93
        0
  2

 94
      512
 95
        0
  3

  0
ENDSEC
  0
EOF
